ISO-10303-21;
HEADER;
FILE_DESCRIPTION (( 'STEP AP214' ),
    '1' );
FILE_NAME ('Micro_DC-1.STEP',
    '2021-08-31T17:22:19',
    ( '' ),
    ( '' ),
    'SwSTEP 2.0',
    'SolidWorks 2020',
    '' );
FILE_SCHEMA (( 'AUTOMOTIVE_DESIGN' ));
ENDSEC;

DATA;
#1 = PRODUCT ( 'Micro_DC-1', 'Micro_DC-1', '', ( #321 ) ) ;
#2 = DIRECTION ( 'NONE',  ( 1.252096997096120642E-16, 0.0000000000000000000, -1.000000000000000000 ) ) ;
#3 = DIRECTION ( 'NONE',  ( 1.252096997096120642E-16, 0.0000000000000000000, -1.000000000000000000 ) ) ;
#4 = CONICAL_SURFACE ( 'NONE', #123, 65.52281426576885792, 1.029744258676657420 ) ;
#5 = LINE ( 'NONE', #94, #81 ) ;
#6 = ORIENTED_EDGE ( 'NONE', *, *, #146, .T. ) ;
#7 = CARTESIAN_POINT ( 'NONE',  ( 0.02345000000000000556, 2.871796744000543768E-18, -2.936167458190403512E-18 ) ) ;
#8 = SURFACE_STYLE_USAGE ( .BOTH. , #215 ) ;
#9 = ORIENTED_EDGE ( 'NONE', *, *, #379, .T. ) ;
#10 = CIRCLE ( 'NONE', #298, 0.06249999999999997918 ) ;
#11 = ORIENTED_EDGE ( 'NONE', *, *, #128, .F. ) ;
#12 = ORIENTED_EDGE ( 'NONE', *, *, #346, .F. ) ;
#13 = DIRECTION ( 'NONE',  ( 1.000000000000000000, 0.0000000000000000000, 0.0000000000000000000 ) ) ;
#14 = EDGE_CURVE ( 'NONE', #249, #340, #161, .T. ) ;
#15 = ORIENTED_EDGE ( 'NONE', *, *, #160, .T. ) ;
#16 = VERTEX_POINT ( 'NONE', #78 ) ;
#17 = FACE_OUTER_BOUND ( 'NONE', #233, .T. ) ;
#18 = FACE_OUTER_BOUND ( 'NONE', #377, .T. ) ;
#19 = EDGE_CURVE ( 'NONE', #340, #262, #44, .T. ) ;
#20 = ORIENTED_EDGE ( 'NONE', *, *, #156, .T. ) ;
#21 = DIRECTION ( 'NONE',  ( -0.5000000000000012212, 6.123233995736780827E-17, 0.8660254037844379305 ) ) ;
#22 = EDGE_LOOP ( 'NONE', ( #253, #162, #289, #383 ) ) ;
#23 = DIRECTION ( 'NONE',  ( 1.252096997096120642E-16, 0.0000000000000000000, 1.000000000000000000 ) ) ;
#24 = DIRECTION ( 'NONE',  ( -1.000000000000000000, 0.0000000000000000000, 9.101305949041385361E-17 ) ) ;
#25 = CONICAL_SURFACE ( 'NONE', #243, 0.02344999999999999862, 0.5235987755983003700 ) ;
#26 = DIRECTION ( 'NONE',  ( 1.252096997096120642E-16, 0.0000000000000000000, -1.000000000000000000 ) ) ;
#27 = FACE_OUTER_BOUND ( 'NONE', #51, .T. ) ;
#28 = CARTESIAN_POINT ( 'NONE',  ( 1.764227396496853078E-18, 0.0000000000000000000, 0.01409018151619620407 ) ) ;
#29 = CARTESIAN_POINT ( 'NONE',  ( 7.649083282848620773E-18, 0.0000000000000000000, 1.438909818483803837 ) ) ;
#30 = CYLINDRICAL_SURFACE ( 'NONE', #395, 0.06250000000000000000 ) ;
#31 = PRODUCT_DEFINITION_SHAPE ( 'NONE', 'NONE',  #369 ) ;
#32 =( CONVERSION_BASED_UNIT ( 'INCH', #64 ) LENGTH_UNIT ( ) NAMED_UNIT ( #201 ) );
#33 = CARTESIAN_POINT ( 'NONE',  ( 7.649083282848620773E-18, 0.0000000000000000000, 1.438909818483803837 ) ) ;
#34 = AXIS2_PLACEMENT_3D ( 'NONE', #199, #3, #121 ) ;
#35 = FACE_OUTER_BOUND ( 'NONE', #287, .T. ) ;
#36 = EDGE_CURVE ( 'NONE', #225, #192, #111, .T. ) ;
#37 = EDGE_CURVE ( 'NONE', #257, #38, #219, .T. ) ;
#38 = VERTEX_POINT ( 'NONE', #223 ) ;
#39 = FACE_OUTER_BOUND ( 'NONE', #352, .T. ) ;
#40 = PRODUCT_DEFINITION_CONTEXT ( 'detailed design', #276, 'design' ) ;
#41 = CIRCLE ( 'NONE', #34, 0.06249999999999997918 ) ;
#42 = CARTESIAN_POINT ( 'NONE',  ( 0.0000000000000000000, 0.0000000000000000000, 0.0000000000000000000 ) ) ;
#43 = ORIENTED_EDGE ( 'NONE', *, *, #265, .F. ) ;
#44 = LINE ( 'NONE', #297, #55 ) ;
#45 = LENGTH_MEASURE_WITH_UNIT ( LENGTH_MEASURE( 0.02539999999999999897 ), #312 );
#46 = ORIENTED_EDGE ( 'NONE', *, *, #379, .F. ) ;
#47 = ORIENTED_EDGE ( 'NONE', *, *, #146, .F. ) ;
#48 = CARTESIAN_POINT ( 'NONE',  ( 4.929515736598900023E-15, 0.0000000000000000000, 39.37007874015748143 ) ) ;
#49 = VECTOR ( 'NONE', #396, 39.37007874015748854 ) ;
#50 = APPLICATION_PROTOCOL_DEFINITION ( 'draft international standard', 'automotive_design', 1998, #276 ) ;
#51 = EDGE_LOOP ( 'NONE', ( #98, #348, #110, #74 ) ) ;
#52 = DIRECTION ( 'NONE',  ( -1.000000000000000000, 0.0000000000000000000, 9.101305949041385361E-17 ) ) ;
#53 = DIRECTION ( 'NONE',  ( 1.000000000000000000, 0.0000000000000000000, -1.334178587669835073E-16 ) ) ;
#54 = ADVANCED_FACE ( 'NONE', ( #108 ), #252, .T. ) ;
#55 = VECTOR ( 'NONE', #387, 39.37007874015748143 ) ;
#56 = CIRCLE ( 'NONE', #280, 0.02344999999999999862 ) ;
#57 = CARTESIAN_POINT ( 'NONE',  ( 0.06250000000000000000, 7.654042494670956004E-18, 1.500000000000000222 ) ) ;
#58 = CARTESIAN_POINT ( 'NONE',  ( 1.764227396496853078E-18, 0.0000000000000000000, 1.485909818483803990 ) ) ;
#59 = AXIS2_PLACEMENT_3D ( 'NONE', #28, #66, #24 ) ;
#60 =( GEOMETRIC_REPRESENTATION_CONTEXT ( 3 ) GLOBAL_UNCERTAINTY_ASSIGNED_CONTEXT ( ( #130 ) ) GLOBAL_UNIT_ASSIGNED_CONTEXT ( ( #79, #376, #76 ) ) REPRESENTATION_CONTEXT ( 'NONE', 'WORKASPACE' ) );
#61 = FACE_OUTER_BOUND ( 'NONE', #72, .T. ) ;
#62 = DIRECTION ( 'NONE',  ( -1.000000000000000000, 0.0000000000000000000, 0.0000000000000000000 ) ) ;
#63 = EDGE_CURVE ( 'NONE', #257, #262, #80, .T. ) ;
#64 = LENGTH_MEASURE_WITH_UNIT ( LENGTH_MEASURE( 0.02539999999999999897 ), #271 );
#65 = DIRECTION ( 'NONE',  ( -1.252096997096120642E-16, -0.0000000000000000000, 1.000000000000000000 ) ) ;
#66 = DIRECTION ( 'NONE',  ( -1.252096997096120642E-16, -0.0000000000000000000, -1.000000000000000000 ) ) ;
#67 = ORIENTED_EDGE ( 'NONE', *, *, #193, .T. ) ;
#68 = ADVANCED_FACE ( 'NONE', ( #75 ), #345, .T. ) ;
#69 = APPLICATION_PROTOCOL_DEFINITION ( 'draft international standard', 'automotive_design', 1998, #261 ) ;
#70 = VECTOR ( 'NONE', #350, 39.37007874015748854 ) ;
#71 = ORIENTED_EDGE ( 'NONE', *, *, #218, .F. ) ;
#72 = EDGE_LOOP ( 'NONE', ( #46, #171, #229 ) ) ;
#73 = COLOUR_RGB ( '',0.7921568627450980005, 0.8196078431372548767, 0.9333333333333333481 ) ;
#74 = ORIENTED_EDGE ( 'NONE', *, *, #267, .F. ) ;
#75 = FACE_OUTER_BOUND ( 'NONE', #375, .T. ) ;
#76 =( NAMED_UNIT ( * ) SI_UNIT ( $, .STERADIAN. ) SOLID_ANGLE_UNIT ( ) );
#77 = ORIENTED_EDGE ( 'NONE', *, *, #218, .T. ) ;
#78 = CARTESIAN_POINT ( 'NONE',  ( 0.0000000000000000000, 0.0000000000000000000, 1.500000000000000222 ) ) ;
#79 =( CONVERSION_BASED_UNIT ( 'INCH', #45 ) LENGTH_UNIT ( ) NAMED_UNIT ( #118 ) );
#80 = LINE ( 'NONE', #105, #202 ) ;
#81 = VECTOR ( 'NONE', #303, 39.37007874015748854 ) ;
#82 = CARTESIAN_POINT ( 'NONE',  ( 0.0000000000000000000, 0.0000000000000000000, 0.0000000000000000000 ) ) ;
#83 = PRESENTATION_LAYER_ASSIGNMENT (  '', '', ( #266 ) ) ;
#84 = EDGE_LOOP ( 'NONE', ( #260, #324, #86 ) ) ;
#85 = CONICAL_SURFACE ( 'NONE', #392, 65.52281426576885792, 1.029744258676657420 ) ;
#86 = ORIENTED_EDGE ( 'NONE', *, *, #128, .T. ) ;
#87 = CARTESIAN_POINT ( 'NONE',  ( -0.02344999999999999168, 0.0000000000000000000, 0.06109018151619620418 ) ) ;
#88 = SURFACE_STYLE_FILL_AREA ( #361 ) ;
#89 = CIRCLE ( 'NONE', #59, 0.02345000000000000903 ) ;
#90 = PRODUCT_DEFINITION_FORMATION_WITH_SPECIFIED_SOURCE ( 'ANY', '', #1, .NOT_KNOWN. ) ;
#91 = CYLINDRICAL_SURFACE ( 'NONE', #274, 0.02345000000000000556 ) ;
#92 = AXIS2_PLACEMENT_3D ( 'NONE', #270, #308, #125 ) ;
#93 = DIRECTION ( 'NONE',  ( -0.0000000000000000000, -0.0000000000000000000, -1.000000000000000000 ) ) ;
#94 = CARTESIAN_POINT ( 'NONE',  ( 0.02345000000000000903, 0.0000000000000000000, 0.06109018151619620418 ) ) ;
#95 = DIRECTION ( 'NONE',  ( -1.000000000000000000, 0.0000000000000000000, 0.0000000000000000000 ) ) ;
#96 = EDGE_CURVE ( 'NONE', #353, #262, #114, .T. ) ;
#97 = CIRCLE ( 'NONE', #165, 0.06249999999999997918 ) ;
#98 = ORIENTED_EDGE ( 'NONE', *, *, #14, .F. ) ;
#99 = VERTEX_POINT ( 'NONE', #231 ) ;
#100 = ORIENTED_EDGE ( 'NONE', *, *, #156, .F. ) ;
#101 = UNCERTAINTY_MEASURE_WITH_UNIT (LENGTH_MEASURE( 1.000000000000000082E-05 ), #355, 'distance_accuracy_value', 'NONE');
#102 = ORIENTED_EDGE ( 'NONE', *, *, #96, .T. ) ;
#103 = EDGE_LOOP ( 'NONE', ( #77, #378, #293, #186 ) ) ;
#104 = CONICAL_SURFACE ( 'NONE', #347, 65.52281426576885792, 1.029744258676657420 ) ;
#105 = CARTESIAN_POINT ( 'NONE',  ( -0.02344999999999999168, 2.871796744000543383E-18, 0.06109018151619620418 ) ) ;
#106 =( LENGTH_UNIT ( ) NAMED_UNIT ( * ) SI_UNIT ( $, .METRE. ) );
#107 = ORIENTED_EDGE ( 'NONE', *, *, #311, .T. ) ;
#108 = FACE_OUTER_BOUND ( 'NONE', #22, .T. ) ;
#109 = DIRECTION ( 'NONE',  ( -1.252096997096120642E-16, -0.0000000000000000000, -1.000000000000000000 ) ) ;
#110 = ORIENTED_EDGE ( 'NONE', *, *, #278, .T. ) ;
#111 = CIRCLE ( 'NONE', #150, 0.02345000000000000903 ) ;
#112 = PRODUCT_RELATED_PRODUCT_CATEGORY ( 'part', '', ( #1 ) ) ;
#113 = DIRECTION ( 'NONE',  ( -1.000000000000000000, 0.0000000000000000000, 0.0000000000000000000 ) ) ;
#114 = CIRCLE ( 'NONE', #157, 0.06249999999999997918 ) ;
#115 = DIMENSIONAL_EXPONENTS ( 1.000000000000000000, 0.0000000000000000000, 0.0000000000000000000, 0.0000000000000000000, 0.0000000000000000000, 0.0000000000000000000, 0.0000000000000000000 ) ;
#116 = DIRECTION ( 'NONE',  ( 1.252096997096120642E-16, 0.0000000000000000000, -1.000000000000000000 ) ) ;
#117 = FILL_AREA_STYLE_COLOUR ( '', #313 ) ;
#118 = DIMENSIONAL_EXPONENTS ( 1.000000000000000000, 0.0000000000000000000, 0.0000000000000000000, 0.0000000000000000000, 0.0000000000000000000, 0.0000000000000000000, 0.0000000000000000000 ) ;
#119 = AXIS2_PLACEMENT_3D ( 'NONE', #42, #220, #191 ) ;
#120 = LINE ( 'NONE', #363, #213 ) ;
#121 = DIRECTION ( 'NONE',  ( -1.000000000000000000, 0.0000000000000000000, 0.0000000000000000000 ) ) ;
#122 = CARTESIAN_POINT ( 'NONE',  ( 0.06250000000000000000, 7.654042494670956004E-18, 1.371273234448239453 ) ) ;
#123 = AXIS2_PLACEMENT_3D ( 'NONE', #328, #187, #198 ) ;
#124 = CARTESIAN_POINT ( 'NONE',  ( 0.02345000000000001250, 0.0000000000000000000, 0.01409018151619620060 ) ) ;
#125 = DIRECTION ( 'NONE',  ( -1.000000000000000000, 0.0000000000000000000, 1.252096997096120642E-16 ) ) ;
#126 = CARTESIAN_POINT ( 'NONE',  ( 4.929515736598900023E-15, 0.0000000000000000000, 39.37007874015748143 ) ) ;
#127 = ADVANCED_FACE ( 'NONE', ( #133 ), #4, .T. ) ;
#128 = EDGE_CURVE ( 'NONE', #183, #38, #335, .T. ) ;
#129 = ORIENTED_EDGE ( 'NONE', *, *, #19, .T. ) ;
#130 = UNCERTAINTY_MEASURE_WITH_UNIT (LENGTH_MEASURE( 1.000000000000000082E-05 ), #79, 'distance_accuracy_value', 'NONE');
#131 = DIRECTION ( 'NONE',  ( 1.252096997096120642E-16, 0.0000000000000000000, -1.000000000000000000 ) ) ;
#132 = ORIENTED_EDGE ( 'NONE', *, *, #300, .T. ) ;
#133 = FACE_OUTER_BOUND ( 'NONE', #158, .T. ) ;
#134 = DIRECTION ( 'NONE',  ( 0.8571673007021137769, 0.0000000000000000000, -0.5150380749100514910 ) ) ;
#135 = EDGE_LOOP ( 'NONE', ( #47, #43, #67, #132 ) ) ;
#136 = DIRECTION ( 'NONE',  ( 1.000000000000000000, 0.0000000000000000000, -1.334178587669835073E-16 ) ) ;
#137 = ORIENTED_EDGE ( 'NONE', *, *, #170, .F. ) ;
#138 = EDGE_LOOP ( 'NONE', ( #244, #222, #284, #11 ) ) ;
#139 = ORIENTED_EDGE ( 'NONE', *, *, #310, .T. ) ;
#140 = VECTOR ( 'NONE', #365, 39.37007874015748854 ) ;
#141 = DIRECTION ( 'NONE',  ( -1.000000000000000000, 0.0000000000000000000, 0.0000000000000000000 ) ) ;
#142 = ADVANCED_FACE ( 'NONE', ( #17 ), #25, .T. ) ;
#143 = MECHANICAL_DESIGN_GEOMETRIC_PRESENTATION_REPRESENTATION (  '', ( #266 ), #325 ) ;
#144 = DIRECTION ( 'NONE',  ( -1.000000000000000000, 0.0000000000000000000, 0.0000000000000000000 ) ) ;
#145 = VECTOR ( 'NONE', #389, 39.37007874015748854 ) ;
#146 = EDGE_CURVE ( 'NONE', #99, #225, #314, .T. ) ;
#147 = DIRECTION ( 'NONE',  ( -1.252096997096120642E-16, -0.0000000000000000000, 1.000000000000000000 ) ) ;
#148 = CARTESIAN_POINT ( 'NONE',  ( 0.0000000000000000000, 0.0000000000000000000, 1.500000000000000222 ) ) ;
#149 = DIRECTION ( 'NONE',  ( 1.000000000000000000, 0.0000000000000000000, 1.334178587669835073E-16 ) ) ;
#150 = AXIS2_PLACEMENT_3D ( 'NONE', #326, #380, #285 ) ;
#151 = AXIS2_PLACEMENT_3D ( 'NONE', #180, #174, #62 ) ;
#152 = DIRECTION ( 'NONE',  ( -1.000000000000000000, 0.0000000000000000000, 0.0000000000000000000 ) ) ;
#153 = ADVANCED_FACE ( 'NONE', ( #384 ), #104, .T. ) ;
#154 = MECHANICAL_DESIGN_GEOMETRIC_PRESENTATION_REPRESENTATION (  '', ( #299 ), #60 ) ;
#155 = LINE ( 'NONE', #241, #283 ) ;
#156 = EDGE_CURVE ( 'NONE', #262, #353, #97, .T. ) ;
#157 = AXIS2_PLACEMENT_3D ( 'NONE', #290, #320, #317 ) ;
#158 = EDGE_LOOP ( 'NONE', ( #137, #9, #227 ) ) ;
#159 = VECTOR ( 'NONE', #216, 39.37007874015748143 ) ;
#160 = EDGE_CURVE ( 'NONE', #197, #353, #5, .T. ) ;
#161 = LINE ( 'NONE', #393, #70 ) ;
#162 = ORIENTED_EDGE ( 'NONE', *, *, #14, .T. ) ;
#163 = CARTESIAN_POINT ( 'NONE',  ( 0.02345000000000000556, -2.871796744000543768E-18, 1.500000000000000222 ) ) ;
#164 = ORIENTED_EDGE ( 'NONE', *, *, #63, .T. ) ;
#165 = AXIS2_PLACEMENT_3D ( 'NONE', #258, #269, #95 ) ;
#166 = DIRECTION ( 'NONE',  ( 1.252096997096120642E-16, 0.0000000000000000000, 1.000000000000000000 ) ) ;
#167 = SHAPE_DEFINITION_REPRESENTATION ( #31, #200 ) ;
#168 = ORIENTED_EDGE ( 'NONE', *, *, #235, .T. ) ;
#169 = DIRECTION ( 'NONE',  ( -1.252096997096120642E-16, -0.0000000000000000000, -1.000000000000000000 ) ) ;
#170 = EDGE_CURVE ( 'NONE', #16, #192, #209, .T. ) ;
#171 = ORIENTED_EDGE ( 'NONE', *, *, #170, .T. ) ;
#172 = CARTESIAN_POINT ( 'NONE',  ( 1.764227396496853078E-18, 0.0000000000000000000, 0.01409018151619620407 ) ) ;
#173 = ADVANCED_FACE ( 'NONE', ( #35 ), #239, .T. ) ;
#174 = DIRECTION ( 'NONE',  ( -1.252096997096120642E-16, -0.0000000000000000000, -1.000000000000000000 ) ) ;
#175 = FACE_OUTER_BOUND ( 'NONE', #373, .T. ) ;
#176 = ADVANCED_FACE ( 'NONE', ( #277 ), #334, .T. ) ;
#177 = CIRCLE ( 'NONE', #151, 0.02344999999999999862 ) ;
#178 = CARTESIAN_POINT ( 'NONE',  ( 0.0000000000000000000, 0.0000000000000000000, 0.0000000000000000000 ) ) ;
#179 = CARTESIAN_POINT ( 'NONE',  ( 4.929515736598900023E-15, 0.0000000000000000000, -37.87007874015748143 ) ) ;
#180 = CARTESIAN_POINT ( 'NONE',  ( 7.649083282848620773E-18, 0.0000000000000000000, 0.06109018151619620418 ) ) ;
#181 = CARTESIAN_POINT ( 'NONE',  ( 1.611783965932558127E-17, 0.0000000000000000000, 1.371273234448239453 ) ) ;
#182 = CARTESIAN_POINT ( 'NONE',  ( -0.02345000000000004026, -2.871796744000548390E-18, 1.485909818483803990 ) ) ;
#183 = VERTEX_POINT ( 'NONE', #124 ) ;
#184 = CARTESIAN_POINT ( 'NONE',  ( 0.0000000000000000000, 0.0000000000000000000, 1.500000000000000222 ) ) ;
#185 = SURFACE_STYLE_FILL_AREA ( #286 ) ;
#186 = ORIENTED_EDGE ( 'NONE', *, *, #37, .F. ) ;
#187 = DIRECTION ( 'NONE',  ( 1.252096997096120642E-16, 0.0000000000000000000, -1.000000000000000000 ) ) ;
#188 =( GEOMETRIC_REPRESENTATION_CONTEXT ( 3 ) GLOBAL_UNCERTAINTY_ASSIGNED_CONTEXT ( ( #101 ) ) GLOBAL_UNIT_ASSIGNED_CONTEXT ( ( #355, #254, #327 ) ) REPRESENTATION_CONTEXT ( 'NONE', 'WORKASPACE' ) );
#189 =( NAMED_UNIT ( * ) SI_UNIT ( $, .STERADIAN. ) SOLID_ANGLE_UNIT ( ) );
#190 = DIRECTION ( 'NONE',  ( -1.252096997096120642E-16, -0.0000000000000000000, 1.000000000000000000 ) ) ;
#191 = DIRECTION ( 'NONE',  ( 1.000000000000000000, 0.0000000000000000000, 0.0000000000000000000 ) ) ;
#192 = VERTEX_POINT ( 'NONE', #182 ) ;
#193 = EDGE_CURVE ( 'NONE', #249, #192, #155, .T. ) ;
#194 = CARTESIAN_POINT ( 'NONE',  ( 7.649083282848620773E-18, 0.0000000000000000000, 0.06109018151619620418 ) ) ;
#195 = CARTESIAN_POINT ( 'NONE',  ( 0.0000000000000000000, 0.0000000000000000000, 1.500000000000000222 ) ) ;
#196 = AXIS2_PLACEMENT_3D ( 'NONE', #184, #208, #336 ) ;
#197 = VERTEX_POINT ( 'NONE', #204 ) ;
#198 = DIRECTION ( 'NONE',  ( 1.000000000000000000, 0.0000000000000000000, 1.334178587669835073E-16 ) ) ;
#199 = CARTESIAN_POINT ( 'NONE',  ( 1.611783965932558127E-17, 0.0000000000000000000, 1.371273234448239453 ) ) ;
#200 = ADVANCED_BREP_SHAPE_REPRESENTATION ( 'Micro_DC-1', ( #343, #119 ), #188 ) ;
#201 = DIMENSIONAL_EXPONENTS ( 1.000000000000000000, 0.0000000000000000000, 0.0000000000000000000, 0.0000000000000000000, 0.0000000000000000000, 0.0000000000000000000, 0.0000000000000000000 ) ;
#202 = VECTOR ( 'NONE', #21, 39.37007874015748854 ) ;
#203 = VECTOR ( 'NONE', #93, 39.37007874015748143 ) ;
#204 = CARTESIAN_POINT ( 'NONE',  ( 0.02345000000000000903, 2.871796744000543768E-18, 0.06109018151619620418 ) ) ;
#205 = DIRECTION ( 'NONE',  ( 0.5000000000000013323, 0.0000000000000000000, -0.8660254037844377084 ) ) ;
#206 = ADVANCED_FACE ( 'NONE', ( #27 ), #330, .T. ) ;
#207 = AXIS2_PLACEMENT_3D ( 'NONE', #238, #370, #152 ) ;
#208 = DIRECTION ( 'NONE',  ( -0.0000000000000000000, -0.0000000000000000000, -1.000000000000000000 ) ) ;
#209 = LINE ( 'NONE', #210, #140 ) ;
#210 = CARTESIAN_POINT ( 'NONE',  ( 0.0000000000000000000, 0.0000000000000000000, 1.500000000000000222 ) ) ;
#211 = CYLINDRICAL_SURFACE ( 'NONE', #92, 0.02345000000000000556 ) ;
#212 = DIRECTION ( 'NONE',  ( 1.252096997096120642E-16, 0.0000000000000000000, -1.000000000000000000 ) ) ;
#213 = VECTOR ( 'NONE', #205, 39.37007874015748854 ) ;
#214 = VERTEX_POINT ( 'NONE', #122 ) ;
#215 = SURFACE_SIDE_STYLE ('',( #88 ) ) ;
#216 = DIRECTION ( 'NONE',  ( -1.252096997096120642E-16, -0.0000000000000000000, -1.000000000000000000 ) ) ;
#217 = VERTEX_POINT ( 'NONE', #178 ) ;
#218 = EDGE_CURVE ( 'NONE', #257, #197, #230, .T. ) ;
#219 = LINE ( 'NONE', #256, #333 ) ;
#220 = DIRECTION ( 'NONE',  ( 0.0000000000000000000, 0.0000000000000000000, 1.000000000000000000 ) ) ;
#221 = AXIS2_PLACEMENT_3D ( 'NONE', #126, #309, #53 ) ;
#222 = ORIENTED_EDGE ( 'NONE', *, *, #251, .T. ) ;
#223 = CARTESIAN_POINT ( 'NONE',  ( -0.02345000000000000556, 2.871796744000544153E-18, 0.01409018151619620754 ) ) ;
#224 = FILL_AREA_STYLE_COLOUR ( '', #73 ) ;
#225 = VERTEX_POINT ( 'NONE', #236 ) ;
#226 = DIRECTION ( 'NONE',  ( 1.000000000000000000, 0.0000000000000000000, 0.0000000000000000000 ) ) ;
#227 = ORIENTED_EDGE ( 'NONE', *, *, #300, .F. ) ;
#228 = LENGTH_MEASURE_WITH_UNIT ( LENGTH_MEASURE( 0.02539999999999999897 ), #106 );
#229 = ORIENTED_EDGE ( 'NONE', *, *, #36, .F. ) ;
#230 = CIRCLE ( 'NONE', #207, 0.02344999999999999862 ) ;
#231 = CARTESIAN_POINT ( 'NONE',  ( 0.02345000000000000903, -2.871796744000543768E-18, 1.438909818483803837 ) ) ;
#232 = DIRECTION ( 'NONE',  ( -0.0000000000000000000, -0.0000000000000000000, -1.000000000000000000 ) ) ;
#233 = EDGE_LOOP ( 'NONE', ( #359, #296, #15, #102 ) ) ;
#234 = CARTESIAN_POINT ( 'NONE',  ( -0.02344999999999999168, 0.0000000000000000000, 1.438909818483803837 ) ) ;
#235 = EDGE_CURVE ( 'NONE', #214, #353, #275, .T. ) ;
#236 = CARTESIAN_POINT ( 'NONE',  ( 0.02345000000000004373, 0.0000000000000000000, 1.485909818483803990 ) ) ;
#237 = DIRECTION ( 'NONE',  ( -1.000000000000000000, 0.0000000000000000000, 0.0000000000000000000 ) ) ;
#238 = CARTESIAN_POINT ( 'NONE',  ( 7.649083282848620773E-18, 0.0000000000000000000, 0.06109018151619620418 ) ) ;
#239 = CONICAL_SURFACE ( 'NONE', #221, 65.52281426576885792, 1.029744258676657420 ) ;
#240 = DIRECTION ( 'NONE',  ( -1.000000000000000000, 0.0000000000000000000, 0.0000000000000000000 ) ) ;
#241 = CARTESIAN_POINT ( 'NONE',  ( -0.02345000000000000556, 0.0000000000000000000, 1.500000000000000222 ) ) ;
#242 = EDGE_CURVE ( 'NONE', #99, #249, #366, .T. ) ;
#243 = AXIS2_PLACEMENT_3D ( 'NONE', #194, #23, #13 ) ;
#244 = ORIENTED_EDGE ( 'NONE', *, *, #362, .F. ) ;
#245 = AXIS2_PLACEMENT_3D ( 'NONE', #58, #304, #237 ) ;
#246 = VECTOR ( 'NONE', #134, 39.37007874015748854 ) ;
#247 = UNCERTAINTY_MEASURE_WITH_UNIT (LENGTH_MEASURE( 1.000000000000000082E-05 ), #32, 'distance_accuracy_value', 'NONE');
#248 = CARTESIAN_POINT ( 'NONE',  ( 7.649083282848620773E-18, 0.0000000000000000000, 0.06109018151619620418 ) ) ;
#249 = VERTEX_POINT ( 'NONE', #234 ) ;
#250 = ADVANCED_FACE ( 'NONE', ( #337 ), #91, .T. ) ;
#251 = EDGE_CURVE ( 'NONE', #197, #257, #177, .T. ) ;
#252 = CONICAL_SURFACE ( 'NONE', #319, 0.02344999999999999862, 0.5235987755983003700 ) ;
#253 = ORIENTED_EDGE ( 'NONE', *, *, #242, .T. ) ;
#254 =( NAMED_UNIT ( * ) PLANE_ANGLE_UNIT ( ) SI_UNIT ( $, .RADIAN. ) );
#255 = ORIENTED_EDGE ( 'NONE', *, *, #160, .F. ) ;
#256 = CARTESIAN_POINT ( 'NONE',  ( -0.02345000000000000556, 0.0000000000000000000, 2.936167458190403512E-18 ) ) ;
#257 = VERTEX_POINT ( 'NONE', #87 ) ;
#258 = CARTESIAN_POINT ( 'NONE',  ( 1.611783965932558127E-17, 0.0000000000000000000, 0.1287267655517606024 ) ) ;
#259 = DIRECTION ( 'NONE',  ( 1.252096997096120642E-16, 0.0000000000000000000, 1.000000000000000000 ) ) ;
#260 = ORIENTED_EDGE ( 'NONE', *, *, #273, .F. ) ;
#261 = APPLICATION_CONTEXT ( 'automotive_design' ) ;
#262 = VERTEX_POINT ( 'NONE', #306 ) ;
#263 = CARTESIAN_POINT ( 'NONE',  ( -0.06249999999999996531, 0.0000000000000000000, 1.371273234448239453 ) ) ;
#264 = AXIS2_PLACEMENT_3D ( 'NONE', #248, #259, #381 ) ;
#265 = EDGE_CURVE ( 'NONE', #249, #99, #56, .T. ) ;
#266 = STYLED_ITEM ( 'NONE', ( #281 ), #343 ) ;
#267 = EDGE_CURVE ( 'NONE', #340, #214, #10, .T. ) ;
#268 = CARTESIAN_POINT ( 'NONE',  ( 0.0000000000000000000, 0.0000000000000000000, 0.0000000000000000000 ) ) ;
#269 = DIRECTION ( 'NONE',  ( -1.252096997096120642E-16, -0.0000000000000000000, -1.000000000000000000 ) ) ;
#270 = CARTESIAN_POINT ( 'NONE',  ( 0.0000000000000000000, 0.0000000000000000000, 0.0000000000000000000 ) ) ;
#271 =( LENGTH_UNIT ( ) NAMED_UNIT ( * ) SI_UNIT ( $, .METRE. ) );
#272 = DIRECTION ( 'NONE',  ( -1.000000000000000000, 0.0000000000000000000, 1.252096997096120642E-16 ) ) ;
#273 = EDGE_CURVE ( 'NONE', #217, #38, #307, .T. ) ;
#274 = AXIS2_PLACEMENT_3D ( 'NONE', #301, #65, #339 ) ;
#275 = LINE ( 'NONE', #57, #203 ) ;
#276 = APPLICATION_CONTEXT ( 'automotive_design' ) ;
#277 = FACE_OUTER_BOUND ( 'NONE', #103, .T. ) ;
#278 = EDGE_CURVE ( 'NONE', #99, #214, #120, .T. ) ;
#279 = ORIENTED_EDGE ( 'NONE', *, *, #242, .F. ) ;
#280 = AXIS2_PLACEMENT_3D ( 'NONE', #29, #26, #144 ) ;
#281 = PRESENTATION_STYLE_ASSIGNMENT (( #8 ) ) ;
#282 = ORIENTED_EDGE ( 'NONE', *, *, #193, .F. ) ;
#283 = VECTOR ( 'NONE', #147, 39.37007874015748143 ) ;
#284 = ORIENTED_EDGE ( 'NONE', *, *, #37, .T. ) ;
#285 = DIRECTION ( 'NONE',  ( -1.000000000000000000, 0.0000000000000000000, 0.0000000000000000000 ) ) ;
#286 = FILL_AREA_STYLE ('',( #224 ) ) ;
#287 = EDGE_LOOP ( 'NONE', ( #12, #357, #107 ) ) ;
#288 = DIRECTION ( 'NONE',  ( -1.252096997096120642E-16, -0.0000000000000000000, 1.000000000000000000 ) ) ;
#289 = ORIENTED_EDGE ( 'NONE', *, *, #310, .F. ) ;
#290 = CARTESIAN_POINT ( 'NONE',  ( 1.611783965932558127E-17, 0.0000000000000000000, 0.1287267655517606024 ) ) ;
#291 = SURFACE_SIDE_STYLE ('',( #185 ) ) ;
#292 = CARTESIAN_POINT ( 'NONE',  ( 0.06250000000000000000, 7.654042494670956004E-18, 0.1287267655517606024 ) ) ;
#293 = ORIENTED_EDGE ( 'NONE', *, *, #311, .F. ) ;
#294 = SURFACE_STYLE_USAGE ( .BOTH. , #291 ) ;
#295 = ADVANCED_FACE ( 'NONE', ( #175 ), #30, .T. ) ;
#296 = ORIENTED_EDGE ( 'NONE', *, *, #251, .F. ) ;
#297 = CARTESIAN_POINT ( 'NONE',  ( -0.06250000000000000000, 0.0000000000000000000, 1.500000000000000222 ) ) ;
#298 = AXIS2_PLACEMENT_3D ( 'NONE', #181, #2, #240 ) ;
#299 = STYLED_ITEM ( 'NONE', ( #351 ), #200 ) ;
#300 = EDGE_CURVE ( 'NONE', #192, #225, #382, .T. ) ;
#301 = CARTESIAN_POINT ( 'NONE',  ( 0.0000000000000000000, 0.0000000000000000000, 1.500000000000000222 ) ) ;
#302 = AXIS2_PLACEMENT_3D ( 'NONE', #397, #116, #338 ) ;
#303 = DIRECTION ( 'NONE',  ( 0.5000000000000013323, 0.0000000000000000000, 0.8660254037844377084 ) ) ;
#304 = DIRECTION ( 'NONE',  ( 1.252096997096120642E-16, 0.0000000000000000000, -1.000000000000000000 ) ) ;
#305 = DIRECTION ( 'NONE',  ( 1.252096997096120642E-16, 0.0000000000000000000, -1.000000000000000000 ) ) ;
#306 = CARTESIAN_POINT ( 'NONE',  ( -0.06249999999999996531, 0.0000000000000000000, 0.1287267655517606024 ) ) ;
#307 = LINE ( 'NONE', #268, #49 ) ;
#308 = DIRECTION ( 'NONE',  ( -1.252096997096120642E-16, -0.0000000000000000000, -1.000000000000000000 ) ) ;
#309 = DIRECTION ( 'NONE',  ( 1.252096997096120642E-16, 0.0000000000000000000, 1.000000000000000000 ) ) ;
#310 = EDGE_CURVE ( 'NONE', #214, #340, #41, .T. ) ;
#311 = EDGE_CURVE ( 'NONE', #38, #183, #89, .T. ) ;
#312 =( LENGTH_UNIT ( ) NAMED_UNIT ( * ) SI_UNIT ( $, .METRE. ) );
#313 = COLOUR_RGB ( '',0.7921568627450980005, 0.8196078431372548767, 0.9333333333333333481 ) ;
#314 = LINE ( 'NONE', #163, #323 ) ;
#315 = CARTESIAN_POINT ( 'NONE',  ( 0.0000000000000000000, 0.0000000000000000000, 1.500000000000000222 ) ) ;
#316 = ORIENTED_EDGE ( 'NONE', *, *, #235, .F. ) ;
#317 = DIRECTION ( 'NONE',  ( -1.000000000000000000, 0.0000000000000000000, 0.0000000000000000000 ) ) ;
#318 = LINE ( 'NONE', #315, #246 ) ;
#319 = AXIS2_PLACEMENT_3D ( 'NONE', #354, #131, #226 ) ;
#320 = DIRECTION ( 'NONE',  ( -1.252096997096120642E-16, -0.0000000000000000000, -1.000000000000000000 ) ) ;
#321 = PRODUCT_CONTEXT ( 'NONE', #261, 'mechanical' ) ;
#322 =( NAMED_UNIT ( * ) PLANE_ANGLE_UNIT ( ) SI_UNIT ( $, .RADIAN. ) );
#323 = VECTOR ( 'NONE', #288, 39.37007874015748143 ) ;
#324 = ORIENTED_EDGE ( 'NONE', *, *, #346, .T. ) ;
#325 =( GEOMETRIC_REPRESENTATION_CONTEXT ( 3 ) GLOBAL_UNCERTAINTY_ASSIGNED_CONTEXT ( ( #247 ) ) GLOBAL_UNIT_ASSIGNED_CONTEXT ( ( #32, #322, #189 ) ) REPRESENTATION_CONTEXT ( 'NONE', 'WORKASPACE' ) );
#326 = CARTESIAN_POINT ( 'NONE',  ( 1.764227396496853078E-18, 0.0000000000000000000, 1.485909818483803990 ) ) ;
#327 =( NAMED_UNIT ( * ) SI_UNIT ( $, .STERADIAN. ) SOLID_ANGLE_UNIT ( ) );
#328 = CARTESIAN_POINT ( 'NONE',  ( 4.929515736598900023E-15, 0.0000000000000000000, -37.87007874015748143 ) ) ;
#329 = LINE ( 'NONE', #7, #159 ) ;
#330 = CONICAL_SURFACE ( 'NONE', #302, 0.02344999999999999862, 0.5235987755983003700 ) ;
#331 = CONICAL_SURFACE ( 'NONE', #264, 0.02344999999999999862, 0.5235987755983003700 ) ;
#332 = CARTESIAN_POINT ( 'NONE',  ( 0.0000000000000000000, 0.0000000000000000000, 0.0000000000000000000 ) ) ;
#333 = VECTOR ( 'NONE', #169, 39.37007874015748143 ) ;
#334 = CYLINDRICAL_SURFACE ( 'NONE', #390, 0.02345000000000000556 ) ;
#335 = CIRCLE ( 'NONE', #374, 0.02345000000000000903 ) ;
#336 = DIRECTION ( 'NONE',  ( -1.000000000000000000, 0.0000000000000000000, 0.0000000000000000000 ) ) ;
#337 = FACE_OUTER_BOUND ( 'NONE', #135, .T. ) ;
#338 = DIRECTION ( 'NONE',  ( 1.000000000000000000, 0.0000000000000000000, 0.0000000000000000000 ) ) ;
#339 = DIRECTION ( 'NONE',  ( -1.000000000000000000, 0.0000000000000000000, 0.0000000000000000000 ) ) ;
#340 = VERTEX_POINT ( 'NONE', #263 ) ;
#341 = ADVANCED_FACE ( 'NONE', ( #364 ), #211, .T. ) ;
#342 = CYLINDRICAL_SURFACE ( 'NONE', #196, 0.06250000000000000000 ) ;
#343 = MANIFOLD_SOLID_BREP ( 'Mirror1', #372 ) ;
#344 = ORIENTED_EDGE ( 'NONE', *, *, #267, .T. ) ;
#345 = CYLINDRICAL_SURFACE ( 'NONE', #356, 0.02345000000000000556 ) ;
#346 = EDGE_CURVE ( 'NONE', #217, #183, #394, .T. ) ;
#347 = AXIS2_PLACEMENT_3D ( 'NONE', #48, #166, #136 ) ;
#348 = ORIENTED_EDGE ( 'NONE', *, *, #265, .T. ) ;
#349 = PRESENTATION_LAYER_ASSIGNMENT (  '', '', ( #299 ) ) ;
#350 = DIRECTION ( 'NONE',  ( -0.5000000000000012212, -6.123233995736780827E-17, -0.8660254037844379305 ) ) ;
#351 = PRESENTATION_STYLE_ASSIGNMENT (( #294 ) ) ;
#352 = EDGE_LOOP ( 'NONE', ( #316, #139, #129, #386 ) ) ;
#353 = VERTEX_POINT ( 'NONE', #292 ) ;
#354 = CARTESIAN_POINT ( 'NONE',  ( 7.649083282848620773E-18, 0.0000000000000000000, 1.438909818483803837 ) ) ;
#355 =( CONVERSION_BASED_UNIT ( 'INCH', #228 ) LENGTH_UNIT ( ) NAMED_UNIT ( #115 ) );
#356 = AXIS2_PLACEMENT_3D ( 'NONE', #195, #190, #113 ) ;
#357 = ORIENTED_EDGE ( 'NONE', *, *, #273, .T. ) ;
#358 = AXIS2_PLACEMENT_3D ( 'NONE', #33, #212, #367 ) ;
#359 = ORIENTED_EDGE ( 'NONE', *, *, #63, .F. ) ;
#360 = DIRECTION ( 'NONE',  ( -1.252096997096120642E-16, -0.0000000000000000000, -1.000000000000000000 ) ) ;
#361 = FILL_AREA_STYLE ('',( #117 ) ) ;
#362 = EDGE_CURVE ( 'NONE', #197, #183, #329, .T. ) ;
#363 = CARTESIAN_POINT ( 'NONE',  ( 0.02345000000000000903, 0.0000000000000000000, 1.438909818483803837 ) ) ;
#364 = FACE_OUTER_BOUND ( 'NONE', #138, .T. ) ;
#365 = DIRECTION ( 'NONE',  ( -0.8571673007021137769, -1.049727191138620545E-16, -0.5150380749100518241 ) ) ;
#366 = CIRCLE ( 'NONE', #358, 0.02344999999999999862 ) ;
#367 = DIRECTION ( 'NONE',  ( -1.000000000000000000, 0.0000000000000000000, 0.0000000000000000000 ) ) ;
#368 = ADVANCED_FACE ( 'NONE', ( #39 ), #342, .T. ) ;
#369 = PRODUCT_DEFINITION ( 'UNKNOWN', '', #90, #40 ) ;
#370 = DIRECTION ( 'NONE',  ( -1.252096997096120642E-16, -0.0000000000000000000, -1.000000000000000000 ) ) ;
#371 = ADVANCED_FACE ( 'NONE', ( #61 ), #85, .T. ) ;
#372 = CLOSED_SHELL ( 'NONE', ( #54, #68, #371, #385, #176, #173, #295, #368, #153, #341, #142, #127, #250, #206 ) ) ;
#373 = EDGE_LOOP ( 'NONE', ( #344, #168, #100, #388 ) ) ;
#374 = AXIS2_PLACEMENT_3D ( 'NONE', #172, #109, #52 ) ;
#375 = EDGE_LOOP ( 'NONE', ( #279, #6, #391, #282 ) ) ;
#376 =( NAMED_UNIT ( * ) PLANE_ANGLE_UNIT ( ) SI_UNIT ( $, .RADIAN. ) );
#377 = EDGE_LOOP ( 'NONE', ( #71, #164, #20, #255 ) ) ;
#378 = ORIENTED_EDGE ( 'NONE', *, *, #362, .T. ) ;
#379 = EDGE_CURVE ( 'NONE', #16, #225, #318, .T. ) ;
#380 = DIRECTION ( 'NONE',  ( 1.252096997096120642E-16, 0.0000000000000000000, -1.000000000000000000 ) ) ;
#381 = DIRECTION ( 'NONE',  ( 1.000000000000000000, 0.0000000000000000000, 0.0000000000000000000 ) ) ;
#382 = CIRCLE ( 'NONE', #245, 0.02345000000000000903 ) ;
#383 = ORIENTED_EDGE ( 'NONE', *, *, #278, .F. ) ;
#384 = FACE_OUTER_BOUND ( 'NONE', #84, .T. ) ;
#385 = ADVANCED_FACE ( 'NONE', ( #18 ), #331, .T. ) ;
#386 = ORIENTED_EDGE ( 'NONE', *, *, #96, .F. ) ;
#387 = DIRECTION ( 'NONE',  ( -0.0000000000000000000, -0.0000000000000000000, -1.000000000000000000 ) ) ;
#388 = ORIENTED_EDGE ( 'NONE', *, *, #19, .F. ) ;
#389 = DIRECTION ( 'NONE',  ( 0.8571673007021137769, 0.0000000000000000000, 0.5150380749100514910 ) ) ;
#390 = AXIS2_PLACEMENT_3D ( 'NONE', #332, #360, #272 ) ;
#391 = ORIENTED_EDGE ( 'NONE', *, *, #36, .T. ) ;
#392 = AXIS2_PLACEMENT_3D ( 'NONE', #179, #305, #149 ) ;
#393 = CARTESIAN_POINT ( 'NONE',  ( -0.02344999999999999168, -2.871796744000543383E-18, 1.438909818483803837 ) ) ;
#394 = LINE ( 'NONE', #82, #145 ) ;
#395 = AXIS2_PLACEMENT_3D ( 'NONE', #148, #232, #141 ) ;
#396 = DIRECTION ( 'NONE',  ( -0.8571673007021137769, 1.049727191138620545E-16, 0.5150380749100518241 ) ) ;
#397 = CARTESIAN_POINT ( 'NONE',  ( 7.649083282848620773E-18, 0.0000000000000000000, 1.438909818483803837 ) ) ;
ENDSEC;
END-ISO-10303-21;
