ISO-10303-21;
HEADER;
FILE_DESCRIPTION (( 'STEP AP214' ),
    '1' );
FILE_NAME ('Micro_BMR-027-2.STEP',
    '2021-09-03T13:59:36',
    ( '' ),
    ( '' ),
    'SwSTEP 2.0',
    'SolidWorks 2020',
    '' );
FILE_SCHEMA (( 'AUTOMOTIVE_DESIGN' ));
ENDSEC;

DATA;
#1 = VERTEX_POINT ( 'NONE', #242 ) ;
#2 = CARTESIAN_POINT ( 'NONE',  ( 0.01348650000000000890, 0.0000000000000000000, 0.08100000000000000255 ) ) ;
#3 = DIRECTION ( 'NONE',  ( 1.000000000000000000, 0.0000000000000000000, 0.0000000000000000000 ) ) ;
#4 = VERTEX_POINT ( 'NONE', #152 ) ;
#5 = DIRECTION ( 'NONE',  ( 1.000000000000000000, 0.0000000000000000000, 0.0000000000000000000 ) ) ;
#6 = ORIENTED_EDGE ( 'NONE', *, *, #259, .F. ) ;
#7 =( GEOMETRIC_REPRESENTATION_CONTEXT ( 3 ) GLOBAL_UNCERTAINTY_ASSIGNED_CONTEXT ( ( #311 ) ) GLOBAL_UNIT_ASSIGNED_CONTEXT ( ( #139, #212, #231 ) ) REPRESENTATION_CONTEXT ( 'NONE', 'WORKASPACE' ) );
#8 = ORIENTED_EDGE ( 'NONE', *, *, #49, .F. ) ;
#9 = VERTEX_POINT ( 'NONE', #40 ) ;
#10 = LENGTH_MEASURE_WITH_UNIT ( LENGTH_MEASURE( 0.02539999999999999897 ), #143 );
#11 = DIRECTION ( 'NONE',  ( 1.224646799147353207E-16, 1.000000000000000000, -0.0000000000000000000 ) ) ;
#12 = EDGE_CURVE ( 'NONE', #225, #77, #147, .T. ) ;
#13 = EDGE_CURVE ( 'NONE', #1, #4, #21, .T. ) ;
#14 = CARTESIAN_POINT ( 'NONE',  ( 0.0000000000000000000, 0.0000000000000000000, 0.0000000000000000000 ) ) ;
#15 = ADVANCED_FACE ( 'NONE', ( #42 ), #190, .T. ) ;
#16 = DIRECTION ( 'NONE',  ( -1.000000000000000000, 0.0000000000000000000, 0.0000000000000000000 ) ) ;
#17 = CIRCLE ( 'NONE', #95, 0.01348649999999999849 ) ;
#18 = ADVANCED_FACE ( 'NONE', ( #247 ), #154, .T. ) ;
#19 = DIRECTION ( 'NONE',  ( -0.0000000000000000000, -0.0000000000000000000, -1.000000000000000000 ) ) ;
#20 = DIRECTION ( 'NONE',  ( -1.224646799147353454E-16, -0.0000000000000000000, -1.000000000000000000 ) ) ;
#21 = CIRCLE ( 'NONE', #98, 0.06250000000000002776 ) ;
#22 = PRESENTATION_LAYER_ASSIGNMENT (  '', '', ( #121 ) ) ;
#23 = ORIENTED_EDGE ( 'NONE', *, *, #221, .F. ) ;
#24 = CARTESIAN_POINT ( 'NONE',  ( 2.477429858505117094E-18, 0.0000000000000000000, 0.0000000000000000000 ) ) ;
#25 = EDGE_LOOP ( 'NONE', ( #210, #254 ) ) ;
#26 = DIRECTION ( 'NONE',  ( 0.0000000000000000000, 0.0000000000000000000, 1.000000000000000000 ) ) ;
#27 = DIRECTION ( 'NONE',  ( 1.000000000000000000, 0.0000000000000000000, 0.0000000000000000000 ) ) ;
#28 = VERTEX_POINT ( 'NONE', #218 ) ;
#29 = ADVANCED_FACE ( 'NONE', ( #246 ), #125, .T. ) ;
#30 =( LENGTH_UNIT ( ) NAMED_UNIT ( * ) SI_UNIT ( $, .METRE. ) );
#31 = ORIENTED_EDGE ( 'NONE', *, *, #49, .T. ) ;
#32 = AXIS2_PLACEMENT_3D ( 'NONE', #78, #26, #3 ) ;
#33 = CARTESIAN_POINT ( 'NONE',  ( 1.651619905670078319E-18, 0.0000000000000000000, 0.01348650000000000022 ) ) ;
#34 = CARTESIAN_POINT ( 'NONE',  ( -0.04750000000000064587, 0.0000000000000000000, 1.500000000000000222 ) ) ;
#35 = ORIENTED_EDGE ( 'NONE', *, *, #74, .T. ) ;
#36 = PRESENTATION_STYLE_ASSIGNMENT (( #234 ) ) ;
#37 = CIRCLE ( 'NONE', #108, 0.01348650000000000022 ) ;
#38 = SURFACE_STYLE_FILL_AREA ( #264 ) ;
#39 = ADVANCED_BREP_SHAPE_REPRESENTATION ( 'Micro_BMR-027-2', ( #248, #250 ), #229 ) ;
#40 = CARTESIAN_POINT ( 'NONE',  ( -0.04750000000000064587, 0.0000000000000000000, 1.500000000000000222 ) ) ;
#41 = CARTESIAN_POINT ( 'NONE',  ( 0.0000000000000000000, 0.0000000000000000000, 0.0000000000000000000 ) ) ;
#42 = FACE_OUTER_BOUND ( 'NONE', #118, .T. ) ;
#43 = EDGE_CURVE ( 'NONE', #225, #305, #324, .T. ) ;
#44 = AXIS2_PLACEMENT_3D ( 'NONE', #151, #245, #197 ) ;
#45 = CYLINDRICAL_SURFACE ( 'NONE', #44, 0.06250000000000002776 ) ;
#46 = DIRECTION ( 'NONE',  ( -1.224646799147353454E-16, -0.0000000000000000000, -1.000000000000000000 ) ) ;
#47 = PRODUCT_DEFINITION ( 'UNKNOWN', '', #100, #87 ) ;
#48 = SPHERICAL_SURFACE ( 'NONE', #50, 0.01348650000000000022 ) ;
#49 = EDGE_CURVE ( 'NONE', #202, #232, #228, .T. ) ;
#50 = AXIS2_PLACEMENT_3D ( 'NONE', #137, #275, #298 ) ;
#51 = EDGE_LOOP ( 'NONE', ( #8, #82, #57 ) ) ;
#52 = DIRECTION ( 'NONE',  ( 0.0000000000000000000, 0.0000000000000000000, -1.000000000000000000 ) ) ;
#53 = DIRECTION ( 'NONE',  ( -1.000000000000000000, 1.224646799147352961E-16, 0.0000000000000000000 ) ) ;
#54 = ORIENTED_EDGE ( 'NONE', *, *, #272, .T. ) ;
#55 = CARTESIAN_POINT ( 'NONE',  ( 9.919639073093563665E-18, 0.0000000000000000000, 0.08100000000000000255 ) ) ;
#56 = FILL_AREA_STYLE ('',( #90 ) ) ;
#57 = ORIENTED_EDGE ( 'NONE', *, *, #241, .F. ) ;
#58 = PRESENTATION_LAYER_ASSIGNMENT (  '', '', ( #66 ) ) ;
#59 = DIRECTION ( 'NONE',  ( -0.7071067811865462405, 0.0000000000000000000, -0.7071067811865486830 ) ) ;
#60 = ORIENTED_EDGE ( 'NONE', *, *, #110, .F. ) ;
#61 =( CONVERSION_BASED_UNIT ( 'INCH', #64 ) LENGTH_UNIT ( ) NAMED_UNIT ( #274 ) );
#62 = DIRECTION ( 'NONE',  ( -1.224646799147353454E-16, -0.0000000000000000000, -1.000000000000000000 ) ) ;
#63 = ORIENTED_EDGE ( 'NONE', *, *, #74, .F. ) ;
#64 = LENGTH_MEASURE_WITH_UNIT ( LENGTH_MEASURE( 0.02539999999999999897 ), #303 );
#65 = EDGE_LOOP ( 'NONE', ( #185, #31, #79 ) ) ;
#66 = STYLED_ITEM ( 'NONE', ( #134 ), #248 ) ;
#67 = LINE ( 'NONE', #89, #81 ) ;
#68 = CARTESIAN_POINT ( 'NONE',  ( 1.651619905670078319E-18, 0.0000000000000000000, 0.01348650000000000022 ) ) ;
#69 = PLANE ( 'NONE',  #278 ) ;
#70 = FACE_OUTER_BOUND ( 'NONE', #223, .T. ) ;
#71 =( GEOMETRIC_REPRESENTATION_CONTEXT ( 3 ) GLOBAL_UNCERTAINTY_ASSIGNED_CONTEXT ( ( #287 ) ) GLOBAL_UNIT_ASSIGNED_CONTEXT ( ( #309, #183, #187 ) ) REPRESENTATION_CONTEXT ( 'NONE', 'WORKASPACE' ) );
#72 = CARTESIAN_POINT ( 'NONE',  ( -0.01348650000000000022, 0.0000000000000000000, 1.651619905670078319E-18 ) ) ;
#73 = DIRECTION ( 'NONE',  ( 0.0000000000000000000, 0.0000000000000000000, 1.000000000000000000 ) ) ;
#74 = EDGE_CURVE ( 'NONE', #225, #4, #291, .T. ) ;
#75 = CARTESIAN_POINT ( 'NONE',  ( 0.01348650000000000890, 0.0000000000000000000, 0.08100000000000000255 ) ) ;
#76 = AXIS2_PLACEMENT_3D ( 'NONE', #33, #11, #53 ) ;
#77 = VERTEX_POINT ( 'NONE', #170 ) ;
#78 = CARTESIAN_POINT ( 'NONE',  ( 0.0000000000000000000, 0.0000000000000000000, 1.500000000000000222 ) ) ;
#79 = ORIENTED_EDGE ( 'NONE', *, *, #205, .F. ) ;
#80 = CARTESIAN_POINT ( 'NONE',  ( 0.0000000000000000000, 0.0000000000000000000, 1.500000000000000222 ) ) ;
#81 = VECTOR ( 'NONE', #111, 39.37007874015748143 ) ;
#82 = ORIENTED_EDGE ( 'NONE', *, *, #222, .T. ) ;
#83 = APPLICATION_CONTEXT ( 'automotive_design' ) ;
#84 = ORIENTED_EDGE ( 'NONE', *, *, #171, .T. ) ;
#85 = LINE ( 'NONE', #34, #236 ) ;
#86 = SHAPE_DEFINITION_REPRESENTATION ( #127, #39 ) ;
#87 = PRODUCT_DEFINITION_CONTEXT ( 'detailed design', #310, 'design' ) ;
#88 = EDGE_CURVE ( 'NONE', #138, #28, #269, .T. ) ;
#89 = CARTESIAN_POINT ( 'NONE',  ( 0.01348650000000000022, 1.651619905670077742E-18, -1.651619905670078319E-18 ) ) ;
#90 = FILL_AREA_STYLE_COLOUR ( '', #186 ) ;
#91 = ORIENTED_EDGE ( 'NONE', *, *, #244, .F. ) ;
#92 = DIRECTION ( 'NONE',  ( -1.224646799147353454E-16, -0.0000000000000000000, -1.000000000000000000 ) ) ;
#93 = DIRECTION ( 'NONE',  ( -1.224646799147353454E-16, -0.0000000000000000000, -1.000000000000000000 ) ) ;
#94 = AXIS2_PLACEMENT_3D ( 'NONE', #68, #123, #216 ) ;
#95 = AXIS2_PLACEMENT_3D ( 'NONE', #133, #20, #146 ) ;
#96 = CARTESIAN_POINT ( 'NONE',  ( 1.651619905670078319E-18, 0.0000000000000000000, 0.01348650000000000022 ) ) ;
#97 = DIRECTION ( 'NONE',  ( 0.0000000000000000000, 0.0000000000000000000, -1.000000000000000000 ) ) ;
#98 = AXIS2_PLACEMENT_3D ( 'NONE', #122, #148, #120 ) ;
#99 = CIRCLE ( 'NONE', #325, 0.04750000000000064587 ) ;
#100 = PRODUCT_DEFINITION_FORMATION_WITH_SPECIFIED_SOURCE ( 'ANY', '', #124, .NOT_KNOWN. ) ;
#101 = DIRECTION ( 'NONE',  ( -1.000000000000000000, 0.0000000000000000000, 0.0000000000000000000 ) ) ;
#102 = ADVANCED_FACE ( 'NONE', ( #70 ), #45, .T. ) ;
#103 = AXIS2_PLACEMENT_3D ( 'NONE', #220, #149, #198 ) ;
#104 = DIRECTION ( 'NONE',  ( 0.0000000000000000000, 0.0000000000000000000, -1.000000000000000000 ) ) ;
#105 = VERTEX_POINT ( 'NONE', #106 ) ;
#106 = CARTESIAN_POINT ( 'NONE',  ( -0.06250000000000002776, 0.0000000000000000000, 1.485000000000000764 ) ) ;
#107 = CLOSED_SHELL ( 'NONE', ( #163, #15, #280, #18, #253, #102, #233, #119, #136, #316, #29 ) ) ;
#108 = AXIS2_PLACEMENT_3D ( 'NONE', #322, #237, #255 ) ;
#109 = ORIENTED_EDGE ( 'NONE', *, *, #112, .F. ) ;
#110 = EDGE_CURVE ( 'NONE', #305, #1, #126, .T. ) ;
#111 = DIRECTION ( 'NONE',  ( -1.224646799147353454E-16, -0.0000000000000000000, -1.000000000000000000 ) ) ;
#112 = EDGE_CURVE ( 'NONE', #28, #105, #319, .T. ) ;
#113 = ORIENTED_EDGE ( 'NONE', *, *, #241, .T. ) ;
#114 = CYLINDRICAL_SURFACE ( 'NONE', #155, 0.01348650000000000022 ) ;
#115 = EDGE_LOOP ( 'NONE', ( #181, #35, #141, #60 ) ) ;
#116 = CONICAL_SURFACE ( 'NONE', #300, 0.04750000000000064587, 0.7853981633974466137 ) ;
#117 = DIRECTION ( 'NONE',  ( -0.0000000000000000000, -0.0000000000000000000, -1.000000000000000000 ) ) ;
#118 = EDGE_LOOP ( 'NONE', ( #262, #208, #113, #206 ) ) ;
#119 = ADVANCED_FACE ( 'NONE', ( #252 ), #116, .T. ) ;
#120 = DIRECTION ( 'NONE',  ( 1.000000000000000000, 0.0000000000000000000, 0.0000000000000000000 ) ) ;
#121 = STYLED_ITEM ( 'NONE', ( #36 ), #39 ) ;
#122 = CARTESIAN_POINT ( 'NONE',  ( 4.396106917575674977E-17, 0.0000000000000000000, 0.3589693714658311885 ) ) ;
#123 = DIRECTION ( 'NONE',  ( 0.0000000000000000000, -1.000000000000000000, 0.0000000000000000000 ) ) ;
#124 = PRODUCT ( 'Micro_BMR-027-2', 'Micro_BMR-027-2', '', ( #207 ) ) ;
#125 = SPHERICAL_SURFACE ( 'NONE', #144, 0.01348650000000000022 ) ;
#126 = LINE ( 'NONE', #75, #318 ) ;
#127 = PRODUCT_DEFINITION_SHAPE ( 'NONE', 'NONE',  #47 ) ;
#128 = DIRECTION ( 'NONE',  ( 1.224646799147353454E-16, 0.0000000000000000000, 1.000000000000000000 ) ) ;
#129 = CIRCLE ( 'NONE', #76, 0.01348650000000000022 ) ;
#130 = ORIENTED_EDGE ( 'NONE', *, *, #294, .F. ) ;
#131 = ORIENTED_EDGE ( 'NONE', *, *, #110, .T. ) ;
#132 = CARTESIAN_POINT ( 'NONE',  ( 9.919639073093563665E-18, 0.0000000000000000000, 0.08100000000000000255 ) ) ;
#133 = CARTESIAN_POINT ( 'NONE',  ( 9.919639073093563665E-18, 0.0000000000000000000, 0.08100000000000000255 ) ) ;
#134 = PRESENTATION_STYLE_ASSIGNMENT (( #162 ) ) ;
#135 = ORIENTED_EDGE ( 'NONE', *, *, #12, .T. ) ;
#136 = ADVANCED_FACE ( 'NONE', ( #321 ), #312, .T. ) ;
#137 = CARTESIAN_POINT ( 'NONE',  ( 1.651619905670078319E-18, 0.0000000000000000000, 0.01348650000000000022 ) ) ;
#138 = VERTEX_POINT ( 'NONE', #227 ) ;
#139 =( CONVERSION_BASED_UNIT ( 'INCH', #301 ) LENGTH_UNIT ( ) NAMED_UNIT ( #192 ) );
#140 = FACE_OUTER_BOUND ( 'NONE', #25, .T. ) ;
#141 = ORIENTED_EDGE ( 'NONE', *, *, #244, .T. ) ;
#142 = DIRECTION ( 'NONE',  ( 1.000000000000000000, 0.0000000000000000000, 0.0000000000000000000 ) ) ;
#143 =( LENGTH_UNIT ( ) NAMED_UNIT ( * ) SI_UNIT ( $, .METRE. ) );
#144 = AXIS2_PLACEMENT_3D ( 'NONE', #96, #313, #271 ) ;
#145 = VECTOR ( 'NONE', #268, 39.37007874015748854 ) ;
#146 = DIRECTION ( 'NONE',  ( -1.000000000000000000, 0.0000000000000000000, 0.0000000000000000000 ) ) ;
#147 = LINE ( 'NONE', #72, #173 ) ;
#148 = DIRECTION ( 'NONE',  ( -1.224646799147353454E-16, -0.0000000000000000000, -1.000000000000000000 ) ) ;
#149 = DIRECTION ( 'NONE',  ( 0.0000000000000000000, 0.0000000000000000000, -1.000000000000000000 ) ) ;
#150 = AXIS2_PLACEMENT_3D ( 'NONE', #176, #128, #156 ) ;
#151 = CARTESIAN_POINT ( 'NONE',  ( 0.0000000000000000000, 0.0000000000000000000, 1.500000000000000222 ) ) ;
#152 = CARTESIAN_POINT ( 'NONE',  ( -0.06249999999999997918, 0.0000000000000000000, 0.3589693714658311885 ) ) ;
#153 = CARTESIAN_POINT ( 'NONE',  ( 0.04750000000000064587, 5.817072295950006528E-18, 1.500000000000000222 ) ) ;
#154 = CONICAL_SURFACE ( 'NONE', #317, 0.04750000000000064587, 0.7853981633974466137 ) ;
#155 = AXIS2_PLACEMENT_3D ( 'NONE', #189, #92, #286 ) ;
#156 = DIRECTION ( 'NONE',  ( -1.000000000000000000, 0.0000000000000000000, 1.582513064953995103E-16 ) ) ;
#157 = EDGE_CURVE ( 'NONE', #105, #28, #177, .T. ) ;
#158 = VECTOR ( 'NONE', #19, 39.37007874015748143 ) ;
#159 = EDGE_LOOP ( 'NONE', ( #130, #213, #135, #251 ) ) ;
#160 = EDGE_LOOP ( 'NONE', ( #63, #168, #131, #230 ) ) ;
#161 = FACE_OUTER_BOUND ( 'NONE', #51, .T. ) ;
#162 = SURFACE_STYLE_USAGE ( .BOTH. , #265 ) ;
#163 = ADVANCED_FACE ( 'NONE', ( #161 ), #48, .T. ) ;
#164 = EDGE_LOOP ( 'NONE', ( #297, #299, #91, #188 ) ) ;
#165 = ORIENTED_EDGE ( 'NONE', *, *, #13, .F. ) ;
#166 = CARTESIAN_POINT ( 'NONE',  ( 4.396106917575674977E-17, 0.0000000000000000000, 0.3589693714658311885 ) ) ;
#167 = DIRECTION ( 'NONE',  ( -0.0000000000000000000, -0.0000000000000000000, -1.000000000000000000 ) ) ;
#168 = ORIENTED_EDGE ( 'NONE', *, *, #266, .F. ) ;
#169 = FACE_OUTER_BOUND ( 'NONE', #159, .T. ) ;
#170 = CARTESIAN_POINT ( 'NONE',  ( -0.01348649999999999849, 0.0000000000000000000, 0.01348650000000000196 ) ) ;
#171 = EDGE_CURVE ( 'NONE', #105, #4, #273, .T. ) ;
#172 = CARTESIAN_POINT ( 'NONE',  ( 0.0000000000000000000, 0.0000000000000000000, 1.500000000000000222 ) ) ;
#173 = VECTOR ( 'NONE', #314, 39.37007874015748143 ) ;
#174 = COLOUR_RGB ( '',0.7921568627450980005, 0.8196078431372548767, 0.9333333333333333481 ) ;
#175 = DIRECTION ( 'NONE',  ( -1.000000000000000000, 0.0000000000000000000, 1.224646799147353454E-16 ) ) ;
#176 = CARTESIAN_POINT ( 'NONE',  ( 1.651619905670078319E-18, 0.0000000000000000000, 0.01348650000000000022 ) ) ;
#177 = CIRCLE ( 'NONE', #217, 0.06250000000000002776 ) ;
#178 = DIRECTION ( 'NONE',  ( 0.1736481776669314137, 0.0000000000000000000, 0.9848077530122077983 ) ) ;
#179 = ORIENTED_EDGE ( 'NONE', *, *, #157, .F. ) ;
#180 = VECTOR ( 'NONE', #167, 39.37007874015748143 ) ;
#181 = ORIENTED_EDGE ( 'NONE', *, *, #43, .F. ) ;
#182 = ORIENTED_EDGE ( 'NONE', *, *, #88, .T. ) ;
#183 =( NAMED_UNIT ( * ) PLANE_ANGLE_UNIT ( ) SI_UNIT ( $, .RADIAN. ) );
#184 = DIRECTION ( 'NONE',  ( 1.000000000000000000, 0.0000000000000000000, 0.0000000000000000000 ) ) ;
#185 = ORIENTED_EDGE ( 'NONE', *, *, #222, .F. ) ;
#186 = COLOUR_RGB ( '',0.7921568627450980005, 0.8196078431372548767, 0.9333333333333333481 ) ;
#187 =( NAMED_UNIT ( * ) SI_UNIT ( $, .STERADIAN. ) SOLID_ANGLE_UNIT ( ) );
#188 = ORIENTED_EDGE ( 'NONE', *, *, #171, .F. ) ;
#189 = CARTESIAN_POINT ( 'NONE',  ( 0.0000000000000000000, 0.0000000000000000000, 0.0000000000000000000 ) ) ;
#190 = CYLINDRICAL_SURFACE ( 'NONE', #277, 0.01348650000000000022 ) ;
#191 = AXIS2_PLACEMENT_3D ( 'NONE', #193, #46, #16 ) ;
#192 = DIMENSIONAL_EXPONENTS ( 1.000000000000000000, 0.0000000000000000000, 0.0000000000000000000, 0.0000000000000000000, 0.0000000000000000000, 0.0000000000000000000, 0.0000000000000000000 ) ;
#193 = CARTESIAN_POINT ( 'NONE',  ( 9.919639073093563665E-18, 0.0000000000000000000, 0.08100000000000000255 ) ) ;
#194 = DIRECTION ( 'NONE',  ( 1.000000000000000000, 0.0000000000000000000, -0.0000000000000000000 ) ) ;
#195 = CIRCLE ( 'NONE', #150, 0.01348650000000000022 ) ;
#196 = DIRECTION ( 'NONE',  ( -0.1736481776669312194, 2.126576849575783625E-17, 0.9848077530122080203 ) ) ;
#197 = DIRECTION ( 'NONE',  ( -1.000000000000000000, 0.0000000000000000000, 0.0000000000000000000 ) ) ;
#198 = DIRECTION ( 'NONE',  ( 1.000000000000000000, 0.0000000000000000000, 0.0000000000000000000 ) ) ;
#199 = EDGE_CURVE ( 'NONE', #138, #9, #99, .T. ) ;
#200 = UNCERTAINTY_MEASURE_WITH_UNIT (LENGTH_MEASURE( 1.000000000000000082E-05 ), #61, 'distance_accuracy_value', 'NONE');
#201 = DIRECTION ( 'NONE',  ( 1.000000000000000000, 0.0000000000000000000, 0.0000000000000000000 ) ) ;
#202 = VERTEX_POINT ( 'NONE', #24 ) ;
#203 = CARTESIAN_POINT ( 'NONE',  ( 0.0000000000000000000, 0.0000000000000000000, 1.485000000000000764 ) ) ;
#204 = AXIS2_PLACEMENT_3D ( 'NONE', #132, #276, #27 ) ;
#205 = EDGE_CURVE ( 'NONE', #77, #232, #195, .T. ) ;
#206 = ORIENTED_EDGE ( 'NONE', *, *, #12, .F. ) ;
#207 = PRODUCT_CONTEXT ( 'NONE', #83, 'mechanical' ) ;
#208 = ORIENTED_EDGE ( 'NONE', *, *, #294, .T. ) ;
#209 = CARTESIAN_POINT ( 'NONE',  ( -0.01348649999999998635, 4.652831200170519473E-18, 0.08100000000000000255 ) ) ;
#210 = ORIENTED_EDGE ( 'NONE', *, *, #259, .T. ) ;
#211 = DIRECTION ( 'NONE',  ( 0.0000000000000000000, 0.0000000000000000000, 1.000000000000000000 ) ) ;
#212 =( NAMED_UNIT ( * ) PLANE_ANGLE_UNIT ( ) SI_UNIT ( $, .RADIAN. ) );
#213 = ORIENTED_EDGE ( 'NONE', *, *, #266, .T. ) ;
#214 = DIRECTION ( 'NONE',  ( -1.000000000000000000, 0.0000000000000000000, 0.0000000000000000000 ) ) ;
#215 = FILL_AREA_STYLE_COLOUR ( '', #174 ) ;
#216 = DIRECTION ( 'NONE',  ( 0.0000000000000000000, 0.0000000000000000000, -1.000000000000000000 ) ) ;
#217 = AXIS2_PLACEMENT_3D ( 'NONE', #203, #52, #226 ) ;
#218 = CARTESIAN_POINT ( 'NONE',  ( 0.06250000000000002776, 7.654042494670959086E-18, 1.485000000000000764 ) ) ;
#219 = CARTESIAN_POINT ( 'NONE',  ( -0.01348649999999998635, 1.651619905670077549E-18, 0.08100000000000000255 ) ) ;
#220 = CARTESIAN_POINT ( 'NONE',  ( 0.0000000000000000000, 0.0000000000000000000, 1.485000000000000764 ) ) ;
#221 = EDGE_CURVE ( 'NONE', #28, #1, #320, .T. ) ;
#222 = EDGE_CURVE ( 'NONE', #202, #77, #129, .T. ) ;
#223 = EDGE_LOOP ( 'NONE', ( #23, #256, #84, #165 ) ) ;
#224 = CARTESIAN_POINT ( 'NONE',  ( 0.0000000000000000000, 0.0000000000000000000, 1.500000000000000222 ) ) ;
#225 = VERTEX_POINT ( 'NONE', #209 ) ;
#226 = DIRECTION ( 'NONE',  ( 1.000000000000000000, 0.0000000000000000000, 0.0000000000000000000 ) ) ;
#227 = CARTESIAN_POINT ( 'NONE',  ( 0.04750000000000064587, 6.735557395310483192E-18, 1.500000000000000222 ) ) ;
#228 = CIRCLE ( 'NONE', #94, 0.01348650000000000022 ) ;
#229 =( GEOMETRIC_REPRESENTATION_CONTEXT ( 3 ) GLOBAL_UNCERTAINTY_ASSIGNED_CONTEXT ( ( #200 ) ) GLOBAL_UNIT_ASSIGNED_CONTEXT ( ( #61, #238, #260 ) ) REPRESENTATION_CONTEXT ( 'NONE', 'WORKASPACE' ) );
#230 = ORIENTED_EDGE ( 'NONE', *, *, #13, .T. ) ;
#231 =( NAMED_UNIT ( * ) SI_UNIT ( $, .STERADIAN. ) SOLID_ANGLE_UNIT ( ) );
#232 = VERTEX_POINT ( 'NONE', #282 ) ;
#233 = ADVANCED_FACE ( 'NONE', ( #140 ), #69, .T. ) ;
#234 = SURFACE_STYLE_USAGE ( .BOTH. , #258 ) ;
#235 = CYLINDRICAL_SURFACE ( 'NONE', #243, 0.06250000000000002776 ) ;
#236 = VECTOR ( 'NONE', #59, 39.37007874015748854 ) ;
#237 = DIRECTION ( 'NONE',  ( 1.224646799147353454E-16, 0.0000000000000000000, 1.000000000000000000 ) ) ;
#238 =( NAMED_UNIT ( * ) PLANE_ANGLE_UNIT ( ) SI_UNIT ( $, .RADIAN. ) );
#239 = CARTESIAN_POINT ( 'NONE',  ( 0.06250000000000002776, 7.654042494670959086E-18, 1.500000000000000222 ) ) ;
#240 = DIRECTION ( 'NONE',  ( -1.000000000000000000, 0.0000000000000000000, 0.0000000000000000000 ) ) ;
#241 = EDGE_CURVE ( 'NONE', #232, #77, #37, .T. ) ;
#242 = CARTESIAN_POINT ( 'NONE',  ( 0.06250000000000006939, 7.654042494670963708E-18, 0.3589693714658311885 ) ) ;
#243 = AXIS2_PLACEMENT_3D ( 'NONE', #261, #117, #214 ) ;
#244 = EDGE_CURVE ( 'NONE', #4, #1, #257, .T. ) ;
#245 = DIRECTION ( 'NONE',  ( -0.0000000000000000000, -0.0000000000000000000, -1.000000000000000000 ) ) ;
#246 = FACE_OUTER_BOUND ( 'NONE', #65, .T. ) ;
#247 = FACE_OUTER_BOUND ( 'NONE', #307, .T. ) ;
#248 = MANIFOLD_SOLID_BREP ( 'Fillet1', #107 ) ;
#249 = CIRCLE ( 'NONE', #32, 0.04750000000000064587 ) ;
#250 = AXIS2_PLACEMENT_3D ( 'NONE', #41, #211, #142 ) ;
#251 = ORIENTED_EDGE ( 'NONE', *, *, #205, .T. ) ;
#252 = FACE_OUTER_BOUND ( 'NONE', #279, .T. ) ;
#253 = ADVANCED_FACE ( 'NONE', ( #304 ), #235, .T. ) ;
#254 = ORIENTED_EDGE ( 'NONE', *, *, #199, .T. ) ;
#255 = DIRECTION ( 'NONE',  ( -1.000000000000000000, 0.0000000000000000000, 1.582513064953995103E-16 ) ) ;
#256 = ORIENTED_EDGE ( 'NONE', *, *, #112, .T. ) ;
#257 = CIRCLE ( 'NONE', #306, 0.06250000000000002776 ) ;
#258 = SURFACE_SIDE_STYLE ('',( #38 ) ) ;
#259 = EDGE_CURVE ( 'NONE', #9, #138, #249, .T. ) ;
#260 =( NAMED_UNIT ( * ) SI_UNIT ( $, .STERADIAN. ) SOLID_ANGLE_UNIT ( ) );
#261 = CARTESIAN_POINT ( 'NONE',  ( 0.0000000000000000000, 0.0000000000000000000, 1.500000000000000222 ) ) ;
#262 = ORIENTED_EDGE ( 'NONE', *, *, #43, .T. ) ;
#263 = VECTOR ( 'NONE', #196, 39.37007874015747433 ) ;
#264 = FILL_AREA_STYLE ('',( #215 ) ) ;
#265 = SURFACE_SIDE_STYLE ('',( #323 ) ) ;
#266 = EDGE_CURVE ( 'NONE', #305, #225, #17, .T. ) ;
#267 = DIRECTION ( 'NONE',  ( 1.224646799147353454E-16, 0.0000000000000000000, 1.000000000000000000 ) ) ;
#268 = DIRECTION ( 'NONE',  ( 0.7071067811865462405, 8.659560562354916834E-17, -0.7071067811865486830 ) ) ;
#269 = LINE ( 'NONE', #153, #145 ) ;
#270 = CARTESIAN_POINT ( 'NONE',  ( 0.0000000000000000000, 0.0000000000000000000, 1.500000000000000222 ) ) ;
#271 = DIRECTION ( 'NONE',  ( 1.000000000000000000, 0.0000000000000000000, 0.0000000000000000000 ) ) ;
#272 = EDGE_CURVE ( 'NONE', #9, #105, #85, .T. ) ;
#273 = LINE ( 'NONE', #293, #158 ) ;
#274 = DIMENSIONAL_EXPONENTS ( 1.000000000000000000, 0.0000000000000000000, 0.0000000000000000000, 0.0000000000000000000, 0.0000000000000000000, 0.0000000000000000000, 0.0000000000000000000 ) ;
#275 = DIRECTION ( 'NONE',  ( 0.0000000000000000000, 1.000000000000000000, 0.0000000000000000000 ) ) ;
#276 = DIRECTION ( 'NONE',  ( 1.224646799147353454E-16, 0.0000000000000000000, 1.000000000000000000 ) ) ;
#277 = AXIS2_PLACEMENT_3D ( 'NONE', #14, #93, #175 ) ;
#278 = AXIS2_PLACEMENT_3D ( 'NONE', #172, #315, #194 ) ;
#279 = EDGE_LOOP ( 'NONE', ( #302, #6, #54, #109 ) ) ;
#280 = ADVANCED_FACE ( 'NONE', ( #308 ), #289, .T. ) ;
#281 = ORIENTED_EDGE ( 'NONE', *, *, #272, .F. ) ;
#282 = CARTESIAN_POINT ( 'NONE',  ( 0.01348650000000000196, 1.651619905670077742E-18, 0.01348649999999999849 ) ) ;
#283 = APPLICATION_PROTOCOL_DEFINITION ( 'draft international standard', 'automotive_design', 1998, #310 ) ;
#284 = PRODUCT_RELATED_PRODUCT_CATEGORY ( 'part', '', ( #124 ) ) ;
#285 = ORIENTED_EDGE ( 'NONE', *, *, #199, .F. ) ;
#286 = DIRECTION ( 'NONE',  ( -1.000000000000000000, 0.0000000000000000000, 1.224646799147353454E-16 ) ) ;
#287 = UNCERTAINTY_MEASURE_WITH_UNIT (LENGTH_MEASURE( 1.000000000000000082E-05 ), #309, 'distance_accuracy_value', 'NONE');
#288 = AXIS2_PLACEMENT_3D ( 'NONE', #55, #267, #5 ) ;
#289 = CONICAL_SURFACE ( 'NONE', #288, 0.01348649999999999849, 0.1745329251994339192 ) ;
#290 = APPLICATION_PROTOCOL_DEFINITION ( 'draft international standard', 'automotive_design', 1998, #83 ) ;
#291 = LINE ( 'NONE', #219, #263 ) ;
#292 = MECHANICAL_DESIGN_GEOMETRIC_PRESENTATION_REPRESENTATION (  '', ( #66 ), #7 ) ;
#293 = CARTESIAN_POINT ( 'NONE',  ( -0.06250000000000002776, 0.0000000000000000000, 1.500000000000000222 ) ) ;
#294 = EDGE_CURVE ( 'NONE', #305, #232, #67, .T. ) ;
#295 = MECHANICAL_DESIGN_GEOMETRIC_PRESENTATION_REPRESENTATION (  '', ( #121 ), #71 ) ;
#296 = DIMENSIONAL_EXPONENTS ( 1.000000000000000000, 0.0000000000000000000, 0.0000000000000000000, 0.0000000000000000000, 0.0000000000000000000, 0.0000000000000000000, 0.0000000000000000000 ) ;
#297 = ORIENTED_EDGE ( 'NONE', *, *, #157, .T. ) ;
#298 = DIRECTION ( 'NONE',  ( 1.000000000000000000, 0.0000000000000000000, 0.0000000000000000000 ) ) ;
#299 = ORIENTED_EDGE ( 'NONE', *, *, #221, .T. ) ;
#300 = AXIS2_PLACEMENT_3D ( 'NONE', #224, #104, #101 ) ;
#301 = LENGTH_MEASURE_WITH_UNIT ( LENGTH_MEASURE( 0.02539999999999999897 ), #30 );
#302 = ORIENTED_EDGE ( 'NONE', *, *, #88, .F. ) ;
#303 =( LENGTH_UNIT ( ) NAMED_UNIT ( * ) SI_UNIT ( $, .METRE. ) );
#304 = FACE_OUTER_BOUND ( 'NONE', #164, .T. ) ;
#305 = VERTEX_POINT ( 'NONE', #2 ) ;
#306 = AXIS2_PLACEMENT_3D ( 'NONE', #166, #62, #184 ) ;
#307 = EDGE_LOOP ( 'NONE', ( #285, #182, #179, #281 ) ) ;
#308 = FACE_OUTER_BOUND ( 'NONE', #115, .T. ) ;
#309 =( CONVERSION_BASED_UNIT ( 'INCH', #10 ) LENGTH_UNIT ( ) NAMED_UNIT ( #296 ) );
#310 = APPLICATION_CONTEXT ( 'automotive_design' ) ;
#311 = UNCERTAINTY_MEASURE_WITH_UNIT (LENGTH_MEASURE( 1.000000000000000082E-05 ), #139, 'distance_accuracy_value', 'NONE');
#312 = CONICAL_SURFACE ( 'NONE', #204, 0.01348649999999999849, 0.1745329251994339192 ) ;
#313 = DIRECTION ( 'NONE',  ( 0.0000000000000000000, 1.000000000000000000, 0.0000000000000000000 ) ) ;
#314 = DIRECTION ( 'NONE',  ( -1.224646799147353454E-16, -0.0000000000000000000, -1.000000000000000000 ) ) ;
#315 = DIRECTION ( 'NONE',  ( 0.0000000000000000000, 0.0000000000000000000, 1.000000000000000000 ) ) ;
#316 = ADVANCED_FACE ( 'NONE', ( #169 ), #114, .T. ) ;
#317 = AXIS2_PLACEMENT_3D ( 'NONE', #270, #97, #240 ) ;
#318 = VECTOR ( 'NONE', #178, 39.37007874015748143 ) ;
#319 = CIRCLE ( 'NONE', #103, 0.06250000000000002776 ) ;
#320 = LINE ( 'NONE', #239, #180 ) ;
#321 = FACE_OUTER_BOUND ( 'NONE', #160, .T. ) ;
#322 = CARTESIAN_POINT ( 'NONE',  ( 1.651619905670078319E-18, 0.0000000000000000000, 0.01348650000000000022 ) ) ;
#323 = SURFACE_STYLE_FILL_AREA ( #56 ) ;
#324 = CIRCLE ( 'NONE', #191, 0.01348649999999999849 ) ;
#325 = AXIS2_PLACEMENT_3D ( 'NONE', #80, #73, #201 ) ;
ENDSEC;
END-ISO-10303-21;
