ISO-10303-21;
HEADER;
FILE_DESCRIPTION (( 'STEP AP214' ),
    '1' );
FILE_NAME ('06405.STEP',
    '2023-07-05T16:02:32',
    ( '' ),
    ( '' ),
    'SwSTEP 2.0',
    'SolidWorks 2023',
    '' );
FILE_SCHEMA (( 'AUTOMOTIVE_DESIGN' ));
ENDSEC;

DATA;
#1 = SURFACE_STYLE_USAGE ( .BOTH. , #6 ) ;
#2 = LINE ( 'NONE', #152, #102 ) ;
#3 = DIRECTION ( 'NONE',  ( -1.000000000000000000, -1.365923996832137526E-16, 0.000000000000000000 ) ) ;
#4 = SURFACE_SIDE_STYLE ('',( #134 ) ) ;
#5 = DIMENSIONAL_EXPONENTS ( 1.000000000000000000, 0.000000000000000000, 0.000000000000000000, 0.000000000000000000, 0.000000000000000000, 0.000000000000000000, 0.000000000000000000 ) ;
#6 = SURFACE_SIDE_STYLE ('',( #46 ) ) ;
#7 = DIRECTION ( 'NONE',  ( 0.000000000000000000, 0.000000000000000000, 1.000000000000000000 ) ) ;
#8 = ORIENTED_EDGE ( 'NONE', *, *, #262, .T. ) ;
#9 = SHAPE_DEFINITION_REPRESENTATION ( #25, #29 ) ;
#10 = AXIS2_PLACEMENT_3D ( 'NONE', #93, #156, #3 ) ;
#11 = MECHANICAL_DESIGN_GEOMETRIC_PRESENTATION_REPRESENTATION (  '', ( #185 ), #248 ) ;
#12 = LINE ( 'NONE', #13, #209 ) ;
#13 = CARTESIAN_POINT ( 'NONE',  ( 0.000000000000000000, 0.000000000000000000, 0.000000000000000000 ) ) ;
#14 = FILL_AREA_STYLE_COLOUR ( '', #15 ) ;
#15 = COLOUR_RGB ( '',0.7921568627450980005, 0.8196078431372548767, 0.9333333333333333481 ) ;
#16 = DIRECTION ( 'NONE',  ( -1.223875815962772189E-16, 1.000000000000000000, -0.000000000000000000 ) ) ;
#17 = DIRECTION ( 'NONE',  ( -0.000000000000000000, -1.000000000000000000, -0.000000000000000000 ) ) ;
#18 = DIRECTION ( 'NONE',  ( 0.000000000000000000, 1.000000000000000000, 0.000000000000000000 ) ) ;
#19 =( CONVERSION_BASED_UNIT ( 'INCH', #106 ) LENGTH_UNIT ( ) NAMED_UNIT ( #184 ) );
#20 = COLOUR_RGB ( '',1.000000000000000000, 0.000000000000000000, 0.000000000000000000 ) ;
#21 = FILL_AREA_STYLE ('',( #26 ) ) ;
#22 = AXIS2_PLACEMENT_3D ( 'NONE', #170, #261, #70 ) ;
#23 = LINE ( 'NONE', #44, #140 ) ;
#24 = ORIENTED_EDGE ( 'NONE', *, *, #216, .F. ) ;
#25 = PRODUCT_DEFINITION_SHAPE ( 'NONE', 'NONE',  #263 ) ;
#26 = FILL_AREA_STYLE_COLOUR ( '', #20 ) ;
#27 = EDGE_LOOP ( 'NONE', ( #81, #8, #154 ) ) ;
#28 = EDGE_CURVE ( 'NONE', #42, #139, #2, .T. ) ;
#29 = ADVANCED_BREP_SHAPE_REPRESENTATION ( '06405', ( #120, #211, #188 ), #92 ) ;
#30 = MECHANICAL_DESIGN_GEOMETRIC_PRESENTATION_REPRESENTATION (  '', ( #259 ), #60 ) ;
#31 = SURFACE_SIDE_STYLE ('',( #190 ) ) ;
#32 = MECHANICAL_DESIGN_GEOMETRIC_PRESENTATION_REPRESENTATION (  '', ( #43 ), #166 ) ;
#33 = EDGE_CURVE ( 'NONE', #203, #114, #231, .T. ) ;
#34 = AXIS2_PLACEMENT_3D ( 'NONE', #199, #41, #98 ) ;
#35 = DIRECTION ( 'NONE',  ( 0.000000000000000000, 0.000000000000000000, -1.000000000000000000 ) ) ;
#36 = SURFACE_STYLE_USAGE ( .BOTH. , #31 ) ;
#37 = LINE ( 'NONE', #82, #39 ) ;
#38 =( LENGTH_UNIT ( ) NAMED_UNIT ( * ) SI_UNIT ( $, .METRE. ) );
#39 = VECTOR ( 'NONE', #143, 39.37007874015748143 ) ;
#40 = SURFACE_STYLE_FILL_AREA ( #68 ) ;
#41 = DIRECTION ( 'NONE',  ( 0.000000000000000000, 1.000000000000000000, 0.000000000000000000 ) ) ;
#42 = VERTEX_POINT ( 'NONE', #146 ) ;
#43 = STYLED_ITEM ( 'NONE', ( #198 ), #73 ) ;
#44 = CARTESIAN_POINT ( 'NONE',  ( 0.06249999999999996531, 2.000000000000000000, 7.654042494670939056E-18 ) ) ;
#45 = EDGE_LOOP ( 'NONE', ( #200, #48 ) ) ;
#46 = SURFACE_STYLE_FILL_AREA ( #21 ) ;
#47 = EDGE_LOOP ( 'NONE', ( #76, #217, #58 ) ) ;
#48 = ORIENTED_EDGE ( 'NONE', *, *, #155, .F. ) ;
#49 = EDGE_CURVE ( 'NONE', #139, #99, #264, .T. ) ;
#50 = DIRECTION ( 'NONE',  ( -1.000000000000000000, 0.000000000000000000, 0.000000000000000000 ) ) ;
#51 = CARTESIAN_POINT ( 'NONE',  ( 0.000000000000000000, 39.37007874015748143, 0.000000000000000000 ) ) ;
#52 =( CONVERSION_BASED_UNIT ( 'INCH', #55 ) LENGTH_UNIT ( ) NAMED_UNIT ( #245 ) );
#53 = MECHANICAL_DESIGN_GEOMETRIC_PRESENTATION_REPRESENTATION (  '', ( #161 ), #124 ) ;
#54 = DIRECTION ( 'NONE',  ( -1.000000000000000000, 0.000000000000000000, 0.000000000000000000 ) ) ;
#55 = LENGTH_MEASURE_WITH_UNIT ( LENGTH_MEASURE( 0.02539999999999999897 ), #38 );
#56 = PRESENTATION_STYLE_ASSIGNMENT (( #151 ) ) ;
#57 = UNCERTAINTY_MEASURE_WITH_UNIT (LENGTH_MEASURE( 1.000000000000000082E-05 ), #145, 'distance_accuracy_value', 'NONE');
#58 = ORIENTED_EDGE ( 'NONE', *, *, #49, .T. ) ;
#59 = MECHANICAL_DESIGN_GEOMETRIC_PRESENTATION_REPRESENTATION (  '', ( #78 ), #109 ) ;
#60 =( GEOMETRIC_REPRESENTATION_CONTEXT ( 3 ) GLOBAL_UNCERTAINTY_ASSIGNED_CONTEXT ( ( #130 ) ) GLOBAL_UNIT_ASSIGNED_CONTEXT ( ( #75, #179, #195 ) ) REPRESENTATION_CONTEXT ( 'NONE', 'WORKASPACE' ) );
#61 = ORIENTED_EDGE ( 'NONE', *, *, #142, .T. ) ;
#62 = FACE_OUTER_BOUND ( 'NONE', #121, .T. ) ;
#63 = DIRECTION ( 'NONE',  ( -1.223875815962772189E-16, 1.000000000000000000, -0.000000000000000000 ) ) ;
#64 = AXIS2_PLACEMENT_3D ( 'NONE', #207, #210, #54 ) ;
#65 = DIRECTION ( 'NONE',  ( -1.000000000000000000, -1.365923996832137526E-16, 0.000000000000000000 ) ) ;
#66 =( NAMED_UNIT ( * ) SI_UNIT ( $, .STERADIAN. ) SOLID_ANGLE_UNIT ( ) );
#67 = DIRECTION ( 'NONE',  ( 0.000000000000000000, 0.000000000000000000, 1.000000000000000000 ) ) ;
#68 = FILL_AREA_STYLE ('',( #260 ) ) ;
#69 = AXIS2_PLACEMENT_3D ( 'NONE', #51, #18, #67 ) ;
#70 = DIRECTION ( 'NONE',  ( -1.000000000000000000, -1.223875815962772189E-16, 0.000000000000000000 ) ) ;
#71 = CARTESIAN_POINT ( 'NONE',  ( 1.224646799147353700E-16, 2.000000000000000000, 0.000000000000000000 ) ) ;
#72 = AXIS2_PLACEMENT_3D ( 'NONE', #108, #16, #172 ) ;
#73 = ADVANCED_FACE ( 'NONE', ( #229 ), #91, .T. ) ;
#74 =( CONVERSION_BASED_UNIT ( 'INCH', #80 ) LENGTH_UNIT ( ) NAMED_UNIT ( #5 ) );
#75 =( CONVERSION_BASED_UNIT ( 'INCH', #241 ) LENGTH_UNIT ( ) NAMED_UNIT ( #136 ) );
#76 = ORIENTED_EDGE ( 'NONE', *, *, #262, .F. ) ;
#77 = SURFACE_STYLE_FILL_AREA ( #95 ) ;
#78 = STYLED_ITEM ( 'NONE', ( #230 ), #120 ) ;
#79 = FACE_OUTER_BOUND ( 'NONE', #47, .T. ) ;
#80 = LENGTH_MEASURE_WITH_UNIT ( LENGTH_MEASURE( 0.02539999999999999897 ), #237 );
#81 = ORIENTED_EDGE ( 'NONE', *, *, #28, .F. ) ;
#82 = CARTESIAN_POINT ( 'NONE',  ( -0.06249999999999972938, 2.000000000000000000, 0.000000000000000000 ) ) ;
#83 = DIRECTION ( 'NONE',  ( 1.000000000000000000, 1.223875815962772189E-16, 0.000000000000000000 ) ) ;
#84 = CLOSED_SHELL ( 'NONE', ( #111, #201, #187, #105 ) ) ;
#85 = LENGTH_MEASURE_WITH_UNIT ( LENGTH_MEASURE( 0.02539999999999999897 ), #112 );
#86 = CARTESIAN_POINT ( 'NONE',  ( 0.06250000000000008327, 2.000000000000000000, 7.654042494670945219E-18 ) ) ;
#87 = FILL_AREA_STYLE_COLOUR ( '', #169 ) ;
#88 = CIRCLE ( 'NONE', #72, 0.06249999999999996531 ) ;
#89 =( NAMED_UNIT ( * ) SI_UNIT ( $, .STERADIAN. ) SOLID_ANGLE_UNIT ( ) );
#90 = CARTESIAN_POINT ( 'NONE',  ( 0.000000000000000000, 0.03608439182435142084, 0.06249999999999997918 ) ) ;
#91 = CONICAL_SURFACE ( 'NONE', #69, 68.19097667594039081, 1.047197551196599852 ) ;
#92 =( GEOMETRIC_REPRESENTATION_CONTEXT ( 3 ) GLOBAL_UNCERTAINTY_ASSIGNED_CONTEXT ( ( #57 ) ) GLOBAL_UNIT_ASSIGNED_CONTEXT ( ( #145, #204, #202 ) ) REPRESENTATION_CONTEXT ( 'NONE', 'WORKASPACE' ) );
#93 = CARTESIAN_POINT ( 'NONE',  ( 3.628235616585349371E-16, 0.03608439182435149023, 0.000000000000000000 ) ) ;
#94 = ORIENTED_EDGE ( 'NONE', *, *, #227, .T. ) ;
#95 = FILL_AREA_STYLE ('',( #173 ) ) ;
#96 = EDGE_CURVE ( 'NONE', #114, #220, #37, .T. ) ;
#97 = AXIS2_PLACEMENT_3D ( 'NONE', #233, #128, #107 ) ;
#98 = DIRECTION ( 'NONE',  ( 0.000000000000000000, 0.000000000000000000, 1.000000000000000000 ) ) ;
#99 = VERTEX_POINT ( 'NONE', #165 ) ;
#100 = UNCERTAINTY_MEASURE_WITH_UNIT (LENGTH_MEASURE( 1.000000000000000082E-05 ), #19, 'distance_accuracy_value', 'NONE');
#101 = PRODUCT_CONTEXT ( 'NONE', #244, 'mechanical' ) ;
#102 = VECTOR ( 'NONE', #251, 39.37007874015748143 ) ;
#103 = DIRECTION ( 'NONE',  ( 0.000000000000000000, -0.000000000000000000, 1.000000000000000000 ) ) ;
#104 = FACE_OUTER_BOUND ( 'NONE', #246, .T. ) ;
#105 = ADVANCED_FACE ( 'NONE', ( #104 ), #164, .F. ) ;
#106 = LENGTH_MEASURE_WITH_UNIT ( LENGTH_MEASURE( 0.02539999999999999897 ), #129 );
#107 = DIRECTION ( 'NONE',  ( 0.000000000000000000, 0.000000000000000000, -1.000000000000000000 ) ) ;
#108 = CARTESIAN_POINT ( 'NONE',  ( 1.224646799147353700E-16, 2.000000000000000000, 0.000000000000000000 ) ) ;
#109 =( GEOMETRIC_REPRESENTATION_CONTEXT ( 3 ) GLOBAL_UNCERTAINTY_ASSIGNED_CONTEXT ( ( #243 ) ) GLOBAL_UNIT_ASSIGNED_CONTEXT ( ( #52, #126, #193 ) ) REPRESENTATION_CONTEXT ( 'NONE', 'WORKASPACE' ) );
#110 = SURFACE_SIDE_STYLE ('',( #40 ) ) ;
#111 = ADVANCED_FACE ( 'NONE', ( #62 ), #225, .T. ) ;
#112 =( LENGTH_UNIT ( ) NAMED_UNIT ( * ) SI_UNIT ( $, .METRE. ) );
#113 = DIRECTION ( 'NONE',  ( -1.223875815962772189E-16, 1.000000000000000000, -0.000000000000000000 ) ) ;
#114 = VERTEX_POINT ( 'NONE', #125 ) ;
#115 = PRODUCT_DEFINITION_CONTEXT ( 'detailed design', #255, 'design' ) ;
#116 = CIRCLE ( 'NONE', #10, 0.06249999999999972938 ) ;
#117 = AXIS2_PLACEMENT_3D ( 'NONE', #252, #63, #50 ) ;
#118 = PRODUCT ( '06405', '06405', '', ( #101 ) ) ;
#119 = ORIENTED_EDGE ( 'NONE', *, *, #216, .T. ) ;
#120 = MANIFOLD_SOLID_BREP ( 'Revolve - Cutting Edge', #258 ) ;
#121 = EDGE_LOOP ( 'NONE', ( #94, #119, #157, #160 ) ) ;
#122 = ORIENTED_EDGE ( 'NONE', *, *, #96, .T. ) ;
#123 = APPLICATION_PROTOCOL_DEFINITION ( 'draft international standard', 'automotive_design', 1998, #255 ) ;
#124 =( GEOMETRIC_REPRESENTATION_CONTEXT ( 3 ) GLOBAL_UNCERTAINTY_ASSIGNED_CONTEXT ( ( #100 ) ) GLOBAL_UNIT_ASSIGNED_CONTEXT ( ( #19, #189, #66 ) ) REPRESENTATION_CONTEXT ( 'NONE', 'WORKASPACE' ) );
#125 = CARTESIAN_POINT ( 'NONE',  ( -0.06249999999999936856, 0.03608439182435148329, 0.000000000000000000 ) ) ;
#126 =( NAMED_UNIT ( * ) PLANE_ANGLE_UNIT ( ) SI_UNIT ( $, .RADIAN. ) );
#127 = CIRCLE ( 'NONE', #64, 0.06249999999999996531 ) ;
#128 = DIRECTION ( 'NONE',  ( -0.000000000000000000, -1.000000000000000000, -0.000000000000000000 ) ) ;
#129 =( LENGTH_UNIT ( ) NAMED_UNIT ( * ) SI_UNIT ( $, .METRE. ) );
#130 = UNCERTAINTY_MEASURE_WITH_UNIT (LENGTH_MEASURE( 1.000000000000000082E-05 ), #75, 'distance_accuracy_value', 'NONE');
#131 = PLANE ( 'NONE',  #174 ) ;
#132 = ORIENTED_EDGE ( 'NONE', *, *, #227, .F. ) ;
#133 = AXIS2_PLACEMENT_3D ( 'NONE', #223, #253, #65 ) ;
#134 = SURFACE_STYLE_FILL_AREA ( #167 ) ;
#135 =( LENGTH_UNIT ( ) NAMED_UNIT ( * ) SI_UNIT ( $, .METRE. ) );
#136 = DIMENSIONAL_EXPONENTS ( 1.000000000000000000, 0.000000000000000000, 0.000000000000000000, 0.000000000000000000, 0.000000000000000000, 0.000000000000000000, 0.000000000000000000 ) ;
#137 =( NAMED_UNIT ( * ) PLANE_ANGLE_UNIT ( ) SI_UNIT ( $, .RADIAN. ) );
#138 = UNCERTAINTY_MEASURE_WITH_UNIT (LENGTH_MEASURE( 1.000000000000000082E-05 ), #74, 'distance_accuracy_value', 'NONE');
#139 = VERTEX_POINT ( 'NONE', #90 ) ;
#140 = VECTOR ( 'NONE', #113, 39.37007874015748143 ) ;
#141 = EDGE_LOOP ( 'NONE', ( #132, #236 ) ) ;
#142 = EDGE_CURVE ( 'NONE', #182, #220, #127, .T. ) ;
#143 = DIRECTION ( 'NONE',  ( -1.223875815962772189E-16, 1.000000000000000000, -0.000000000000000000 ) ) ;
#144 = AXIS2_PLACEMENT_3D ( 'NONE', #71, #256, #232 ) ;
#145 =( CONVERSION_BASED_UNIT ( 'INCH', #194 ) LENGTH_UNIT ( ) NAMED_UNIT ( #205 ) );
#146 = CARTESIAN_POINT ( 'NONE',  ( 0.000000000000000000, 0.000000000000000000, 0.000000000000000000 ) ) ;
#147 = COLOUR_RGB ( '',1.000000000000000000, 0.000000000000000000, 0.000000000000000000 ) ;
#148 = FACE_OUTER_BOUND ( 'NONE', #177, .T. ) ;
#149 = FACE_OUTER_BOUND ( 'NONE', #141, .T. ) ;
#150 = PLANE ( 'NONE',  #22 ) ;
#151 = SURFACE_STYLE_USAGE ( .BOTH. , #110 ) ;
#152 = CARTESIAN_POINT ( 'NONE',  ( 0.000000000000000000, 0.000000000000000000, 0.000000000000000000 ) ) ;
#153 = SURFACE_SIDE_STYLE ('',( #77 ) ) ;
#154 = ORIENTED_EDGE ( 'NONE', *, *, #155, .T. ) ;
#155 = EDGE_CURVE ( 'NONE', #99, #139, #208, .T. ) ;
#156 = DIRECTION ( 'NONE',  ( -1.223875815962772189E-16, 1.000000000000000000, -0.000000000000000000 ) ) ;
#157 = ORIENTED_EDGE ( 'NONE', *, *, #175, .F. ) ;
#158 = PRESENTATION_STYLE_ASSIGNMENT (( #1 ) ) ;
#159 = PRODUCT_RELATED_PRODUCT_CATEGORY ( 'part', '', ( #118 ) ) ;
#160 = ORIENTED_EDGE ( 'NONE', *, *, #96, .F. ) ;
#161 = STYLED_ITEM ( 'NONE', ( #56 ), #211 ) ;
#162 = PRESENTATION_LAYER_ASSIGNMENT (  '', '', ( #259 ) ) ;
#163 = CARTESIAN_POINT ( 'NONE',  ( 0.000000000000000000, 0.03608439182435149023, 0.000000000000000000 ) ) ;
#164 = PLANE ( 'NONE',  #192 ) ;
#165 = CARTESIAN_POINT ( 'NONE',  ( 7.654042494670954463E-18, 0.03608439182435142084, -0.06249999999999997918 ) ) ;
#166 =( GEOMETRIC_REPRESENTATION_CONTEXT ( 3 ) GLOBAL_UNCERTAINTY_ASSIGNED_CONTEXT ( ( #180 ) ) GLOBAL_UNIT_ASSIGNED_CONTEXT ( ( #213, #168, #89 ) ) REPRESENTATION_CONTEXT ( 'NONE', 'WORKASPACE' ) );
#167 = FILL_AREA_STYLE ('',( #87 ) ) ;
#168 =( NAMED_UNIT ( * ) PLANE_ANGLE_UNIT ( ) SI_UNIT ( $, .RADIAN. ) );
#169 = COLOUR_RGB ( '',1.000000000000000000, 0.000000000000000000, 0.000000000000000000 ) ;
#170 = CARTESIAN_POINT ( 'NONE',  ( 3.628235616585349371E-16, 0.03608439182435149023, 0.000000000000000000 ) ) ;
#171 = PRESENTATION_LAYER_ASSIGNMENT (  '', '', ( #185 ) ) ;
#172 = DIRECTION ( 'NONE',  ( -1.000000000000000000, 0.000000000000000000, 0.000000000000000000 ) ) ;
#173 = FILL_AREA_STYLE_COLOUR ( '', #147 ) ;
#174 = AXIS2_PLACEMENT_3D ( 'NONE', #163, #183, #103 ) ;
#175 = EDGE_CURVE ( 'NONE', #220, #182, #88, .T. ) ;
#176 =( NAMED_UNIT ( * ) SI_UNIT ( $, .STERADIAN. ) SOLID_ANGLE_UNIT ( ) );
#177 = EDGE_LOOP ( 'NONE', ( #24, #242, #122, #197 ) ) ;
#178 = PRESENTATION_STYLE_ASSIGNMENT (( #218 ) ) ;
#179 =( NAMED_UNIT ( * ) PLANE_ANGLE_UNIT ( ) SI_UNIT ( $, .RADIAN. ) );
#180 = UNCERTAINTY_MEASURE_WITH_UNIT (LENGTH_MEASURE( 1.000000000000000082E-05 ), #213, 'distance_accuracy_value', 'NONE');
#181 = COLOUR_RGB ( '',0.7921568627450980005, 0.8196078431372548767, 0.9333333333333333481 ) ;
#182 = VERTEX_POINT ( 'NONE', #86 ) ;
#183 = DIRECTION ( 'NONE',  ( 0.000000000000000000, 1.000000000000000000, 0.000000000000000000 ) ) ;
#184 = DIMENSIONAL_EXPONENTS ( 1.000000000000000000, 0.000000000000000000, 0.000000000000000000, 0.000000000000000000, 0.000000000000000000, 0.000000000000000000, 0.000000000000000000 ) ;
#185 = STYLED_ITEM ( 'NONE', ( #178 ), #234 ) ;
#186 =( LENGTH_UNIT ( ) NAMED_UNIT ( * ) SI_UNIT ( $, .METRE. ) );
#187 = ADVANCED_FACE ( 'NONE', ( #148 ), #212, .T. ) ;
#188 = AXIS2_PLACEMENT_3D ( 'NONE', #219, #7, #249 ) ;
#189 =( NAMED_UNIT ( * ) PLANE_ANGLE_UNIT ( ) SI_UNIT ( $, .RADIAN. ) );
#190 = SURFACE_STYLE_FILL_AREA ( #254 ) ;
#191 = CARTESIAN_POINT ( 'NONE',  ( -0.06249999999999984734, 2.000000000000000000, 0.000000000000000000 ) ) ;
#192 = AXIS2_PLACEMENT_3D ( 'NONE', #228, #250, #83 ) ;
#193 =( NAMED_UNIT ( * ) SI_UNIT ( $, .STERADIAN. ) SOLID_ANGLE_UNIT ( ) );
#194 = LENGTH_MEASURE_WITH_UNIT ( LENGTH_MEASURE( 0.02539999999999999897 ), #186 );
#195 =( NAMED_UNIT ( * ) SI_UNIT ( $, .STERADIAN. ) SOLID_ANGLE_UNIT ( ) );
#196 = PRODUCT_DEFINITION_FORMATION_WITH_SPECIFIED_SOURCE ( 'ANY', '', #118, .NOT_KNOWN. ) ;
#197 = ORIENTED_EDGE ( 'NONE', *, *, #142, .F. ) ;
#198 = PRESENTATION_STYLE_ASSIGNMENT (( #239 ) ) ;
#199 = CARTESIAN_POINT ( 'NONE',  ( 0.000000000000000000, 39.37007874015748143, 0.000000000000000000 ) ) ;
#200 = ORIENTED_EDGE ( 'NONE', *, *, #49, .F. ) ;
#201 = ADVANCED_FACE ( 'NONE', ( #149 ), #150, .F. ) ;
#202 =( NAMED_UNIT ( * ) SI_UNIT ( $, .STERADIAN. ) SOLID_ANGLE_UNIT ( ) );
#203 = VERTEX_POINT ( 'NONE', #215 ) ;
#204 =( NAMED_UNIT ( * ) PLANE_ANGLE_UNIT ( ) SI_UNIT ( $, .RADIAN. ) );
#205 = DIMENSIONAL_EXPONENTS ( 1.000000000000000000, 0.000000000000000000, 0.000000000000000000, 0.000000000000000000, 0.000000000000000000, 0.000000000000000000, 0.000000000000000000 ) ;
#206 = DIRECTION ( 'NONE',  ( 1.060575238724908024E-16, 0.4999999999999981681, -0.8660254037844397068 ) ) ;
#207 = CARTESIAN_POINT ( 'NONE',  ( 1.224646799147353700E-16, 2.000000000000000000, 0.000000000000000000 ) ) ;
#208 = CIRCLE ( 'NONE', #97, 0.06249999999999999306 ) ;
#209 = VECTOR ( 'NONE', #206, 39.37007874015748143 ) ;
#210 = DIRECTION ( 'NONE',  ( -1.223875815962772189E-16, 1.000000000000000000, -0.000000000000000000 ) ) ;
#211 = MANIFOLD_SOLID_BREP ( 'Revolve - Tool Body (Pointed)', #84 ) ;
#212 = CYLINDRICAL_SURFACE ( 'NONE', #144, 0.06249999999999984734 ) ;
#213 =( CONVERSION_BASED_UNIT ( 'INCH', #85 ) LENGTH_UNIT ( ) NAMED_UNIT ( #221 ) );
#214 = PRESENTATION_LAYER_ASSIGNMENT (  '', '', ( #43 ) ) ;
#215 = CARTESIAN_POINT ( 'NONE',  ( 0.06250000000000008327, 0.03608439182435150411, 7.654042494670946760E-18 ) ) ;
#216 = EDGE_CURVE ( 'NONE', #203, #182, #23, .T. ) ;
#217 = ORIENTED_EDGE ( 'NONE', *, *, #28, .T. ) ;
#218 = SURFACE_STYLE_USAGE ( .BOTH. , #153 ) ;
#219 = CARTESIAN_POINT ( 'NONE',  ( 0.000000000000000000, 0.000000000000000000, 0.000000000000000000 ) ) ;
#220 = VERTEX_POINT ( 'NONE', #191 ) ;
#221 = DIMENSIONAL_EXPONENTS ( 1.000000000000000000, 0.000000000000000000, 0.000000000000000000, 0.000000000000000000, 0.000000000000000000, 0.000000000000000000, 0.000000000000000000 ) ;
#222 = PRESENTATION_LAYER_ASSIGNMENT (  '', '', ( #161 ) ) ;
#223 = CARTESIAN_POINT ( 'NONE',  ( 3.628235616585349371E-16, 0.03608439182435149023, 0.000000000000000000 ) ) ;
#224 = APPLICATION_PROTOCOL_DEFINITION ( 'draft international standard', 'automotive_design', 1998, #244 ) ;
#225 = CYLINDRICAL_SURFACE ( 'NONE', #117, 0.06249999999999984734 ) ;
#226 = PRESENTATION_LAYER_ASSIGNMENT (  '', '', ( #78 ) ) ;
#227 = EDGE_CURVE ( 'NONE', #114, #203, #116, .T. ) ;
#228 = CARTESIAN_POINT ( 'NONE',  ( 0.06250000000000008327, 2.000000000000000000, 0.000000000000000000 ) ) ;
#229 = FACE_OUTER_BOUND ( 'NONE', #27, .T. ) ;
#230 = PRESENTATION_STYLE_ASSIGNMENT (( #36 ) ) ;
#231 = CIRCLE ( 'NONE', #133, 0.06249999999999972938 ) ;
#232 = DIRECTION ( 'NONE',  ( -1.000000000000000000, 0.000000000000000000, 0.000000000000000000 ) ) ;
#233 = CARTESIAN_POINT ( 'NONE',  ( 0.000000000000000000, 0.03608439182435142084, 0.000000000000000000 ) ) ;
#234 = ADVANCED_FACE ( 'NONE', ( #79 ), #265, .T. ) ;
#235 = FACE_OUTER_BOUND ( 'NONE', #45, .T. ) ;
#236 = ORIENTED_EDGE ( 'NONE', *, *, #33, .F. ) ;
#237 =( LENGTH_UNIT ( ) NAMED_UNIT ( * ) SI_UNIT ( $, .METRE. ) );
#238 = ORIENTED_EDGE ( 'NONE', *, *, #175, .T. ) ;
#239 = SURFACE_STYLE_USAGE ( .BOTH. , #4 ) ;
#240 = ADVANCED_FACE ( 'NONE', ( #235 ), #131, .T. ) ;
#241 = LENGTH_MEASURE_WITH_UNIT ( LENGTH_MEASURE( 0.02539999999999999897 ), #135 );
#242 = ORIENTED_EDGE ( 'NONE', *, *, #33, .T. ) ;
#243 = UNCERTAINTY_MEASURE_WITH_UNIT (LENGTH_MEASURE( 1.000000000000000082E-05 ), #52, 'distance_accuracy_value', 'NONE');
#244 = APPLICATION_CONTEXT ( 'automotive_design' ) ;
#245 = DIMENSIONAL_EXPONENTS ( 1.000000000000000000, 0.000000000000000000, 0.000000000000000000, 0.000000000000000000, 0.000000000000000000, 0.000000000000000000, 0.000000000000000000 ) ;
#246 = EDGE_LOOP ( 'NONE', ( #238, #61 ) ) ;
#247 = AXIS2_PLACEMENT_3D ( 'NONE', #257, #17, #35 ) ;
#248 =( GEOMETRIC_REPRESENTATION_CONTEXT ( 3 ) GLOBAL_UNCERTAINTY_ASSIGNED_CONTEXT ( ( #138 ) ) GLOBAL_UNIT_ASSIGNED_CONTEXT ( ( #74, #137, #176 ) ) REPRESENTATION_CONTEXT ( 'NONE', 'WORKASPACE' ) );
#249 = DIRECTION ( 'NONE',  ( 1.000000000000000000, 0.000000000000000000, 0.000000000000000000 ) ) ;
#250 = DIRECTION ( 'NONE',  ( 1.223875815962772189E-16, -1.000000000000000000, 0.000000000000000000 ) ) ;
#251 = DIRECTION ( 'NONE',  ( 0.000000000000000000, 0.4999999999999981681, 0.8660254037844397068 ) ) ;
#252 = CARTESIAN_POINT ( 'NONE',  ( 1.224646799147353700E-16, 2.000000000000000000, 0.000000000000000000 ) ) ;
#253 = DIRECTION ( 'NONE',  ( -1.223875815962772189E-16, 1.000000000000000000, -0.000000000000000000 ) ) ;
#254 = FILL_AREA_STYLE ('',( #14 ) ) ;
#255 = APPLICATION_CONTEXT ( 'automotive_design' ) ;
#256 = DIRECTION ( 'NONE',  ( -1.223875815962772189E-16, 1.000000000000000000, -0.000000000000000000 ) ) ;
#257 = CARTESIAN_POINT ( 'NONE',  ( 0.000000000000000000, 0.03608439182435142084, 0.000000000000000000 ) ) ;
#258 = CLOSED_SHELL ( 'NONE', ( #73, #240, #234 ) ) ;
#259 = STYLED_ITEM ( 'NONE', ( #158 ), #240 ) ;
#260 = FILL_AREA_STYLE_COLOUR ( '', #181 ) ;
#261 = DIRECTION ( 'NONE',  ( -1.223875815962772189E-16, 1.000000000000000000, 0.000000000000000000 ) ) ;
#262 = EDGE_CURVE ( 'NONE', #42, #99, #12, .T. ) ;
#263 = PRODUCT_DEFINITION ( 'UNKNOWN', '', #196, #115 ) ;
#264 = CIRCLE ( 'NONE', #247, 0.06249999999999999306 ) ;
#265 = CONICAL_SURFACE ( 'NONE', #34, 68.19097667594039081, 1.047197551196599852 ) ;
ENDSEC;
END-ISO-10303-21;
