ISO-10303-21;
HEADER;
FILE_DESCRIPTION (( 'STEP AP214' ),
    '1' );
FILE_NAME ('00497.STEP',
    '2023-06-22T14:09:46',
    ( '' ),
    ( '' ),
    'SwSTEP 2.0',
    'SolidWorks 2023',
    '' );
FILE_SCHEMA (( 'AUTOMOTIVE_DESIGN' ));
ENDSEC;

DATA;
#1 = EDGE_LOOP ( 'NONE', ( #35, #45, #265, #291 ) ) ;
#2 = DIRECTION ( 'NONE',  ( -1.000000000000000000, 0.000000000000000000, 0.000000000000000000 ) ) ;
#3 = CARTESIAN_POINT ( 'NONE',  ( 3.061616997868383018E-17, 0.000000000000000000, 0.2500000000000000000 ) ) ;
#4 = CIRCLE ( 'NONE', #225, 0.2500000000000001110 ) ;
#5 = DIRECTION ( 'NONE',  ( -6.123233995736763571E-17, 1.000000000000000000, -0.000000000000000000 ) ) ;
#6 = DIRECTION ( 'NONE',  ( -1.000000000000000000, 0.000000000000000000, 0.000000000000000000 ) ) ;
#7 = FILL_AREA_STYLE_COLOUR ( '', #21 ) ;
#8 = CARTESIAN_POINT ( 'NONE',  ( 0.000000000000000000, 0.000000000000000000, -0.2500000000000000000 ) ) ;
#9 = ORIENTED_EDGE ( 'NONE', *, *, #101, .T. ) ;
#10 = ADVANCED_FACE ( 'NONE', ( #221 ), #148, .T. ) ;
#11 = MECHANICAL_DESIGN_GEOMETRIC_PRESENTATION_REPRESENTATION (  '', ( #130 ), #81 ) ;
#12 = DIRECTION ( 'NONE',  ( 1.000000000000000000, 0.000000000000000000, 0.000000000000000000 ) ) ;
#13 = CARTESIAN_POINT ( 'NONE',  ( 1.516480271171051896E-32, 2.000000000000000000, 0.000000000000000000 ) ) ;
#14 = PLANE ( 'NONE',  #89 ) ;
#15 =( LENGTH_UNIT ( ) NAMED_UNIT ( * ) SI_UNIT ( $, .METRE. ) );
#16 = CIRCLE ( 'NONE', #187, 0.2500000000000000000 ) ;
#17 = AXIS2_PLACEMENT_3D ( 'NONE', #79, #234, #98 ) ;
#18 = EDGE_CURVE ( 'NONE', #124, #125, #174, .T. ) ;
#19 = LENGTH_MEASURE_WITH_UNIT ( LENGTH_MEASURE( 0.02539999999999999897 ), #204 );
#20 = SURFACE_SIDE_STYLE ('',( #228 ) ) ;
#21 = COLOUR_RGB ( '',1.000000000000000000, 0.000000000000000000, 0.000000000000000000 ) ;
#22 = EDGE_LOOP ( 'NONE', ( #306, #9 ) ) ;
#23 = ADVANCED_FACE ( 'NONE', ( #39 ), #247, .T. ) ;
#24 = ORIENTED_EDGE ( 'NONE', *, *, #141, .F. ) ;
#25 = COLOUR_RGB ( '',0.7921568627450980005, 0.8196078431372548767, 0.9333333333333333481 ) ;
#26 = AXIS2_PLACEMENT_3D ( 'NONE', #202, #178, #12 ) ;
#27 = LINE ( 'NONE', #166, #156 ) ;
#28 = ORIENTED_EDGE ( 'NONE', *, *, #18, .F. ) ;
#29 = DIRECTION ( 'NONE',  ( -0.000000000000000000, -1.000000000000000000, -0.000000000000000000 ) ) ;
#30 = ADVANCED_FACE ( 'NONE', ( #86 ), #114, .T. ) ;
#31 = PLANE ( 'NONE',  #290 ) ;
#32 = LENGTH_MEASURE_WITH_UNIT ( LENGTH_MEASURE( 0.02539999999999999897 ), #240 );
#33 = CARTESIAN_POINT ( 'NONE',  ( 0.000000000000000000, 0.000000000000000000, 0.000000000000000000 ) ) ;
#34 = DIRECTION ( 'NONE',  ( -6.123233995736763571E-17, 1.000000000000000000, -0.000000000000000000 ) ) ;
#35 = ORIENTED_EDGE ( 'NONE', *, *, #241, .F. ) ;
#36 = FACE_OUTER_BOUND ( 'NONE', #260, .T. ) ;
#37 = CARTESIAN_POINT ( 'NONE',  ( 0.000000000000000000, 0.000000000000000000, 0.000000000000000000 ) ) ;
#38 = SURFACE_STYLE_USAGE ( .BOTH. , #246 ) ;
#39 = FACE_OUTER_BOUND ( 'NONE', #1, .T. ) ;
#40 = APPLICATION_CONTEXT ( 'automotive_design' ) ;
#41 = PRODUCT_DEFINITION_CONTEXT ( 'detailed design', #47, 'design' ) ;
#42 = AXIS2_PLACEMENT_3D ( 'NONE', #123, #99, #196 ) ;
#43 = DIRECTION ( 'NONE',  ( 1.000000000000000000, 6.123233995736763571E-17, 0.000000000000000000 ) ) ;
#44 = PRESENTATION_STYLE_ASSIGNMENT (( #38 ) ) ;
#45 = ORIENTED_EDGE ( 'NONE', *, *, #195, .T. ) ;
#46 = CARTESIAN_POINT ( 'NONE',  ( 0.000000000000000000, 2.000000000000000000, -0.2500000000000000000 ) ) ;
#47 = APPLICATION_CONTEXT ( 'automotive_design' ) ;
#48 =( GEOMETRIC_REPRESENTATION_CONTEXT ( 3 ) GLOBAL_UNCERTAINTY_ASSIGNED_CONTEXT ( ( #203 ) ) GLOBAL_UNIT_ASSIGNED_CONTEXT ( ( #69, #250, #67 ) ) REPRESENTATION_CONTEXT ( 'NONE', 'WORKASPACE' ) );
#49 = AXIS2_PLACEMENT_3D ( 'NONE', #77, #236, #6 ) ;
#50 =( NAMED_UNIT ( * ) SI_UNIT ( $, .STERADIAN. ) SOLID_ANGLE_UNIT ( ) );
#51 = DIRECTION ( 'NONE',  ( -1.000000000000000000, -6.123233995736763571E-17, 0.000000000000000000 ) ) ;
#52 = VERTEX_POINT ( 'NONE', #305 ) ;
#53 = PRESENTATION_STYLE_ASSIGNMENT (( #242 ) ) ;
#54 =( NAMED_UNIT ( * ) PLANE_ANGLE_UNIT ( ) SI_UNIT ( $, .RADIAN. ) );
#55 = DIMENSIONAL_EXPONENTS ( 1.000000000000000000, 0.000000000000000000, 0.000000000000000000, 0.000000000000000000, 0.000000000000000000, 0.000000000000000000, 0.000000000000000000 ) ;
#56 = AXIS2_PLACEMENT_3D ( 'NONE', #33, #283, #75 ) ;
#57 = ORIENTED_EDGE ( 'NONE', *, *, #253, .F. ) ;
#58 = DIRECTION ( 'NONE',  ( 0.000000000000000000, 0.000000000000000000, -1.000000000000000000 ) ) ;
#59 = STYLED_ITEM ( 'NONE', ( #106 ), #23 ) ;
#60 = FILL_AREA_STYLE ('',( #267 ) ) ;
#61 = DIRECTION ( 'NONE',  ( -1.000000000000000000, 0.000000000000000000, 0.000000000000000000 ) ) ;
#62 =( LENGTH_UNIT ( ) NAMED_UNIT ( * ) SI_UNIT ( $, .METRE. ) );
#63 = PRODUCT_CONTEXT ( 'NONE', #40, 'mechanical' ) ;
#64 = MANIFOLD_SOLID_BREP ( 'Revolve - Tool Body (Straight Shanked)', #80 ) ;
#65 = LENGTH_MEASURE_WITH_UNIT ( LENGTH_MEASURE( 0.02539999999999999897 ), #15 );
#66 = STYLED_ITEM ( 'NONE', ( #268 ), #10 ) ;
#67 =( NAMED_UNIT ( * ) SI_UNIT ( $, .STERADIAN. ) SOLID_ANGLE_UNIT ( ) );
#68 = CIRCLE ( 'NONE', #17, 0.2500000000000001110 ) ;
#69 =( CONVERSION_BASED_UNIT ( 'INCH', #65 ) LENGTH_UNIT ( ) NAMED_UNIT ( #138 ) );
#70 = ADVANCED_BREP_SHAPE_REPRESENTATION ( '00497', ( #162, #64, #26 ), #134 ) ;
#71 = PRESENTATION_LAYER_ASSIGNMENT (  '', '', ( #66 ) ) ;
#72 = DIRECTION ( 'NONE',  ( 0.000000000000000000, 0.000000000000000000, -1.000000000000000000 ) ) ;
#73 = CARTESIAN_POINT ( 'NONE',  ( 4.686749320818301603E-34, 2.000000000000000000, 0.000000000000000000 ) ) ;
#74 =( GEOMETRIC_REPRESENTATION_CONTEXT ( 3 ) GLOBAL_UNCERTAINTY_ASSIGNED_CONTEXT ( ( #214 ) ) GLOBAL_UNIT_ASSIGNED_CONTEXT ( ( #186, #150, #229 ) ) REPRESENTATION_CONTEXT ( 'NONE', 'WORKASPACE' ) );
#75 = DIRECTION ( 'NONE',  ( 0.000000000000000000, 0.000000000000000000, -1.000000000000000000 ) ) ;
#76 = DIRECTION ( 'NONE',  ( -6.123233995736763571E-17, 1.000000000000000000, 0.000000000000000000 ) ) ;
#77 = CARTESIAN_POINT ( 'NONE',  ( 1.516480271171051896E-32, 2.000000000000000000, 0.000000000000000000 ) ) ;
#78 = SURFACE_STYLE_FILL_AREA ( #191 ) ;
#79 = CARTESIAN_POINT ( 'NONE',  ( -1.224646799147352714E-16, 4.000000000000000000, 0.000000000000000000 ) ) ;
#80 = CLOSED_SHELL ( 'NONE', ( #30, #235, #302, #92 ) ) ;
#81 =( GEOMETRIC_REPRESENTATION_CONTEXT ( 3 ) GLOBAL_UNCERTAINTY_ASSIGNED_CONTEXT ( ( #154 ) ) GLOBAL_UNIT_ASSIGNED_CONTEXT ( ( #129, #182, #102 ) ) REPRESENTATION_CONTEXT ( 'NONE', 'WORKASPACE' ) );
#82 = DIRECTION ( 'NONE',  ( -0.000000000000000000, -1.000000000000000000, -0.000000000000000000 ) ) ;
#83 = DIMENSIONAL_EXPONENTS ( 1.000000000000000000, 0.000000000000000000, 0.000000000000000000, 0.000000000000000000, 0.000000000000000000, 0.000000000000000000, 0.000000000000000000 ) ;
#84 = DIRECTION ( 'NONE',  ( 0.000000000000000000, 0.000000000000000000, -1.000000000000000000 ) ) ;
#85 = PRESENTATION_LAYER_ASSIGNMENT (  '', '', ( #276 ) ) ;
#86 = FACE_OUTER_BOUND ( 'NONE', #281, .T. ) ;
#87 = UNCERTAINTY_MEASURE_WITH_UNIT (LENGTH_MEASURE( 1.000000000000000082E-05 ), #97, 'distance_accuracy_value', 'NONE');
#88 = FACE_OUTER_BOUND ( 'NONE', #127, .T. ) ;
#89 = AXIS2_PLACEMENT_3D ( 'NONE', #199, #295, #84 ) ;
#90 = DIRECTION ( 'NONE',  ( 0.000000000000000000, 0.000000000000000000, -1.000000000000000000 ) ) ;
#91 =( GEOMETRIC_REPRESENTATION_CONTEXT ( 3 ) GLOBAL_UNCERTAINTY_ASSIGNED_CONTEXT ( ( #307 ) ) GLOBAL_UNIT_ASSIGNED_CONTEXT ( ( #121, #192, #100 ) ) REPRESENTATION_CONTEXT ( 'NONE', 'WORKASPACE' ) );
#92 = ADVANCED_FACE ( 'NONE', ( #88 ), #271, .F. ) ;
#93 =( LENGTH_UNIT ( ) NAMED_UNIT ( * ) SI_UNIT ( $, .METRE. ) );
#94 = COLOUR_RGB ( '',0.7921568627450980005, 0.8196078431372548767, 0.9333333333333333481 ) ;
#95 = PRODUCT_DEFINITION_FORMATION_WITH_SPECIFIED_SOURCE ( 'ANY', '', #151, .NOT_KNOWN. ) ;
#96 = CARTESIAN_POINT ( 'NONE',  ( 0.2500000000000000555, 2.000000000000000000, 3.061616997868384251E-17 ) ) ;
#97 =( CONVERSION_BASED_UNIT ( 'INCH', #172 ) LENGTH_UNIT ( ) NAMED_UNIT ( #118 ) );
#98 = DIRECTION ( 'NONE',  ( -1.000000000000000000, 0.000000000000000000, 0.000000000000000000 ) ) ;
#99 = DIRECTION ( 'NONE',  ( 0.000000000000000000, 1.000000000000000000, 0.000000000000000000 ) ) ;
#100 =( NAMED_UNIT ( * ) SI_UNIT ( $, .STERADIAN. ) SOLID_ANGLE_UNIT ( ) );
#101 = EDGE_CURVE ( 'NONE', #209, #254, #144, .T. ) ;
#102 =( NAMED_UNIT ( * ) SI_UNIT ( $, .STERADIAN. ) SOLID_ANGLE_UNIT ( ) );
#103 = APPLICATION_PROTOCOL_DEFINITION ( 'draft international standard', 'automotive_design', 1998, #47 ) ;
#104 = DIMENSIONAL_EXPONENTS ( 1.000000000000000000, 0.000000000000000000, 0.000000000000000000, 0.000000000000000000, 0.000000000000000000, 0.000000000000000000, 0.000000000000000000 ) ;
#105 = EDGE_LOOP ( 'NONE', ( #143, #279, #220, #147 ) ) ;
#106 = PRESENTATION_STYLE_ASSIGNMENT (( #208 ) ) ;
#107 = PRESENTATION_LAYER_ASSIGNMENT (  '', '', ( #113 ) ) ;
#108 = SURFACE_SIDE_STYLE ('',( #201 ) ) ;
#109 = FILL_AREA_STYLE ('',( #251 ) ) ;
#110 = CARTESIAN_POINT ( 'NONE',  ( 0.000000000000000000, 0.000000000000000000, 0.000000000000000000 ) ) ;
#111 = DIRECTION ( 'NONE',  ( -6.123233995736763571E-17, 1.000000000000000000, -0.000000000000000000 ) ) ;
#112 = EDGE_CURVE ( 'NONE', #177, #285, #4, .T. ) ;
#113 = STYLED_ITEM ( 'NONE', ( #185 ), #64 ) ;
#114 = CYLINDRICAL_SURFACE ( 'NONE', #167, 0.2500000000000000555 ) ;
#115 = CLOSED_SHELL ( 'NONE', ( #10, #146, #23, #158 ) ) ;
#116 = CARTESIAN_POINT ( 'NONE',  ( 3.061616997868383018E-17, 0.000000000000000000, 0.2500000000000000000 ) ) ;
#117 = ORIENTED_EDGE ( 'NONE', *, *, #205, .T. ) ;
#118 = DIMENSIONAL_EXPONENTS ( 1.000000000000000000, 0.000000000000000000, 0.000000000000000000, 0.000000000000000000, 0.000000000000000000, 0.000000000000000000, 0.000000000000000000 ) ;
#119 = CARTESIAN_POINT ( 'NONE',  ( 0.000000000000000000, 2.000000000000000000, 0.000000000000000000 ) ) ;
#120 = LINE ( 'NONE', #257, #233 ) ;
#121 =( CONVERSION_BASED_UNIT ( 'INCH', #32 ) LENGTH_UNIT ( ) NAMED_UNIT ( #83 ) );
#122 =( NAMED_UNIT ( * ) PLANE_ANGLE_UNIT ( ) SI_UNIT ( $, .RADIAN. ) );
#123 = CARTESIAN_POINT ( 'NONE',  ( 0.000000000000000000, 2.000000000000000000, 0.000000000000000000 ) ) ;
#124 = VERTEX_POINT ( 'NONE', #239 ) ;
#125 = VERTEX_POINT ( 'NONE', #96 ) ;
#126 = AXIS2_PLACEMENT_3D ( 'NONE', #275, #161, #90 ) ;
#127 = EDGE_LOOP ( 'NONE', ( #171, #189 ) ) ;
#128 = DIMENSIONAL_EXPONENTS ( 1.000000000000000000, 0.000000000000000000, 0.000000000000000000, 0.000000000000000000, 0.000000000000000000, 0.000000000000000000, 0.000000000000000000 ) ;
#129 =( CONVERSION_BASED_UNIT ( 'INCH', #298 ) LENGTH_UNIT ( ) NAMED_UNIT ( #104 ) );
#130 = STYLED_ITEM ( 'NONE', ( #300 ), #158 ) ;
#131 = DIRECTION ( 'NONE',  ( 6.123233995736763571E-17, -1.000000000000000000, 0.000000000000000000 ) ) ;
#132 = EDGE_CURVE ( 'NONE', #200, #52, #16, .T. ) ;
#133 = AXIS2_PLACEMENT_3D ( 'NONE', #155, #131, #43 ) ;
#134 =( GEOMETRIC_REPRESENTATION_CONTEXT ( 3 ) GLOBAL_UNCERTAINTY_ASSIGNED_CONTEXT ( ( #274 ) ) GLOBAL_UNIT_ASSIGNED_CONTEXT ( ( #259, #54, #262 ) ) REPRESENTATION_CONTEXT ( 'NONE', 'WORKASPACE' ) );
#135 = DIRECTION ( 'NONE',  ( -0.000000000000000000, -1.000000000000000000, -0.000000000000000000 ) ) ;
#136 =( GEOMETRIC_REPRESENTATION_CONTEXT ( 3 ) GLOBAL_UNCERTAINTY_ASSIGNED_CONTEXT ( ( #87 ) ) GLOBAL_UNIT_ASSIGNED_CONTEXT ( ( #97, #142, #139 ) ) REPRESENTATION_CONTEXT ( 'NONE', 'WORKASPACE' ) );
#137 = CYLINDRICAL_SURFACE ( 'NONE', #245, 0.2500000000000000555 ) ;
#138 = DIMENSIONAL_EXPONENTS ( 1.000000000000000000, 0.000000000000000000, 0.000000000000000000, 0.000000000000000000, 0.000000000000000000, 0.000000000000000000, 0.000000000000000000 ) ;
#139 =( NAMED_UNIT ( * ) SI_UNIT ( $, .STERADIAN. ) SOLID_ANGLE_UNIT ( ) );
#140 = CARTESIAN_POINT ( 'NONE',  ( 0.000000000000000000, 0.000000000000000000, -0.2500000000000000000 ) ) ;
#141 = EDGE_CURVE ( 'NONE', #254, #209, #222, .T. ) ;
#142 =( NAMED_UNIT ( * ) PLANE_ANGLE_UNIT ( ) SI_UNIT ( $, .RADIAN. ) );
#143 = ORIENTED_EDGE ( 'NONE', *, *, #205, .F. ) ;
#144 = CIRCLE ( 'NONE', #198, 0.2500000000000000000 ) ;
#145 =( GEOMETRIC_REPRESENTATION_CONTEXT ( 3 ) GLOBAL_UNCERTAINTY_ASSIGNED_CONTEXT ( ( #278 ) ) GLOBAL_UNIT_ASSIGNED_CONTEXT ( ( #207, #122, #50 ) ) REPRESENTATION_CONTEXT ( 'NONE', 'WORKASPACE' ) );
#146 = ADVANCED_FACE ( 'NONE', ( #36 ), #261, .T. ) ;
#147 = ORIENTED_EDGE ( 'NONE', *, *, #112, .F. ) ;
#148 = CYLINDRICAL_SURFACE ( 'NONE', #232, 0.2500000000000000000 ) ;
#149 = SURFACE_STYLE_FILL_AREA ( #60 ) ;
#150 =( NAMED_UNIT ( * ) PLANE_ANGLE_UNIT ( ) SI_UNIT ( $, .RADIAN. ) );
#151 = PRODUCT ( '00497', '00497', '', ( #63 ) ) ;
#152 = SURFACE_STYLE_FILL_AREA ( #159 ) ;
#153 = SHAPE_DEFINITION_REPRESENTATION ( #160, #70 ) ;
#154 = UNCERTAINTY_MEASURE_WITH_UNIT (LENGTH_MEASURE( 1.000000000000000082E-05 ), #129, 'distance_accuracy_value', 'NONE');
#155 = CARTESIAN_POINT ( 'NONE',  ( 0.2500000000000000000, 4.000000000000000000, 0.000000000000000000 ) ) ;
#156 = VECTOR ( 'NONE', #286, 39.37007874015748143 ) ;
#157 = AXIS2_PLACEMENT_3D ( 'NONE', #289, #284, #238 ) ;
#158 = ADVANCED_FACE ( 'NONE', ( #293 ), #14, .T. ) ;
#159 = FILL_AREA_STYLE ('',( #184 ) ) ;
#160 = PRODUCT_DEFINITION_SHAPE ( 'NONE', 'NONE',  #272 ) ;
#161 = DIRECTION ( 'NONE',  ( -0.000000000000000000, -1.000000000000000000, -0.000000000000000000 ) ) ;
#162 = MANIFOLD_SOLID_BREP ( 'Revolve - Cutting Edge', #115 ) ;
#163 = MECHANICAL_DESIGN_GEOMETRIC_PRESENTATION_REPRESENTATION (  '', ( #276 ), #136 ) ;
#164 = PRODUCT_RELATED_PRODUCT_CATEGORY ( 'part', '', ( #151 ) ) ;
#165 = ORIENTED_EDGE ( 'NONE', *, *, #175, .F. ) ;
#166 = CARTESIAN_POINT ( 'NONE',  ( 0.2499999999999999167, 4.000000000000000000, 3.061616997868383634E-17 ) ) ;
#167 = AXIS2_PLACEMENT_3D ( 'NONE', #183, #111, #61 ) ;
#168 = VECTOR ( 'NONE', #29, 39.37007874015748143 ) ;
#169 = CARTESIAN_POINT ( 'NONE',  ( 0.2500000000000000555, 4.000000000000000000, 3.061616997868384251E-17 ) ) ;
#170 = LENGTH_MEASURE_WITH_UNIT ( LENGTH_MEASURE( 0.02539999999999999897 ), #93 );
#171 = ORIENTED_EDGE ( 'NONE', *, *, #301, .T. ) ;
#172 = LENGTH_MEASURE_WITH_UNIT ( LENGTH_MEASURE( 0.02539999999999999897 ), #215 );
#173 = ORIENTED_EDGE ( 'NONE', *, *, #301, .F. ) ;
#174 = CIRCLE ( 'NONE', #280, 0.2500000000000000000 ) ;
#175 = EDGE_CURVE ( 'NONE', #125, #124, #292, .T. ) ;
#176 = SURFACE_SIDE_STYLE ('',( #78 ) ) ;
#177 = VERTEX_POINT ( 'NONE', #169 ) ;
#178 = DIRECTION ( 'NONE',  ( 0.000000000000000000, 0.000000000000000000, 1.000000000000000000 ) ) ;
#179 = SURFACE_STYLE_FILL_AREA ( #217 ) ;
#180 = EDGE_LOOP ( 'NONE', ( #28, #165 ) ) ;
#181 = MECHANICAL_DESIGN_GEOMETRIC_PRESENTATION_REPRESENTATION (  '', ( #255 ), #145 ) ;
#182 =( NAMED_UNIT ( * ) PLANE_ANGLE_UNIT ( ) SI_UNIT ( $, .RADIAN. ) );
#183 = CARTESIAN_POINT ( 'NONE',  ( -1.224646799147352714E-16, 4.000000000000000000, 0.000000000000000000 ) ) ;
#184 = FILL_AREA_STYLE_COLOUR ( '', #25 ) ;
#185 = PRESENTATION_STYLE_ASSIGNMENT (( #248 ) ) ;
#186 =( CONVERSION_BASED_UNIT ( 'INCH', #19 ) LENGTH_UNIT ( ) NAMED_UNIT ( #297 ) );
#187 = AXIS2_PLACEMENT_3D ( 'NONE', #119, #258, #264 ) ;
#188 = VECTOR ( 'NONE', #135, 39.37007874015748143 ) ;
#189 = ORIENTED_EDGE ( 'NONE', *, *, #112, .T. ) ;
#190 = PRESENTATION_LAYER_ASSIGNMENT (  '', '', ( #130 ) ) ;
#191 = FILL_AREA_STYLE ('',( #7 ) ) ;
#192 =( NAMED_UNIT ( * ) PLANE_ANGLE_UNIT ( ) SI_UNIT ( $, .RADIAN. ) );
#193 = LINE ( 'NONE', #116, #188 ) ;
#194 = ORIENTED_EDGE ( 'NONE', *, *, #210, .F. ) ;
#195 = EDGE_CURVE ( 'NONE', #52, #200, #226, .T. ) ;
#196 = DIRECTION ( 'NONE',  ( 0.000000000000000000, -0.000000000000000000, 1.000000000000000000 ) ) ;
#197 = ORIENTED_EDGE ( 'NONE', *, *, #18, .T. ) ;
#198 = AXIS2_PLACEMENT_3D ( 'NONE', #110, #206, #72 ) ;
#199 = CARTESIAN_POINT ( 'NONE',  ( 0.000000000000000000, 0.000000000000000000, 0.000000000000000000 ) ) ;
#200 = VERTEX_POINT ( 'NONE', #46 ) ;
#201 = SURFACE_STYLE_FILL_AREA ( #270 ) ;
#202 = CARTESIAN_POINT ( 'NONE',  ( 0.000000000000000000, 0.000000000000000000, 0.000000000000000000 ) ) ;
#203 = UNCERTAINTY_MEASURE_WITH_UNIT (LENGTH_MEASURE( 1.000000000000000082E-05 ), #69, 'distance_accuracy_value', 'NONE');
#204 =( LENGTH_UNIT ( ) NAMED_UNIT ( * ) SI_UNIT ( $, .METRE. ) );
#205 = EDGE_CURVE ( 'NONE', #125, #177, #27, .T. ) ;
#206 = DIRECTION ( 'NONE',  ( -0.000000000000000000, -1.000000000000000000, -0.000000000000000000 ) ) ;
#207 =( CONVERSION_BASED_UNIT ( 'INCH', #277 ) LENGTH_UNIT ( ) NAMED_UNIT ( #55 ) );
#208 = SURFACE_STYLE_USAGE ( .BOTH. , #20 ) ;
#209 = VERTEX_POINT ( 'NONE', #3 ) ;
#210 = EDGE_CURVE ( 'NONE', #124, #285, #120, .T. ) ;
#211 = COLOUR_RGB ( '',1.000000000000000000, 0.000000000000000000, 0.000000000000000000 ) ;
#212 = DIRECTION ( 'NONE',  ( -6.123233995736763571E-17, 1.000000000000000000, -0.000000000000000000 ) ) ;
#213 = FACE_OUTER_BOUND ( 'NONE', #105, .T. ) ;
#214 = UNCERTAINTY_MEASURE_WITH_UNIT (LENGTH_MEASURE( 1.000000000000000082E-05 ), #186, 'distance_accuracy_value', 'NONE');
#215 =( LENGTH_UNIT ( ) NAMED_UNIT ( * ) SI_UNIT ( $, .METRE. ) );
#216 = CARTESIAN_POINT ( 'NONE',  ( -1.224646799147352714E-16, 4.000000000000000000, 0.000000000000000000 ) ) ;
#217 = FILL_AREA_STYLE ('',( #294 ) ) ;
#218 = ORIENTED_EDGE ( 'NONE', *, *, #241, .T. ) ;
#219 = FACE_OUTER_BOUND ( 'NONE', #180, .T. ) ;
#220 = ORIENTED_EDGE ( 'NONE', *, *, #210, .T. ) ;
#221 = FACE_OUTER_BOUND ( 'NONE', #243, .T. ) ;
#222 = CIRCLE ( 'NONE', #56, 0.2500000000000000000 ) ;
#223 = SURFACE_STYLE_USAGE ( .BOTH. , #108 ) ;
#224 = APPLICATION_PROTOCOL_DEFINITION ( 'draft international standard', 'automotive_design', 1998, #40 ) ;
#225 = AXIS2_PLACEMENT_3D ( 'NONE', #252, #212, #308 ) ;
#226 = CIRCLE ( 'NONE', #157, 0.2500000000000000000 ) ;
#227 = SURFACE_SIDE_STYLE ('',( #152 ) ) ;
#228 = SURFACE_STYLE_FILL_AREA ( #109 ) ;
#229 =( NAMED_UNIT ( * ) SI_UNIT ( $, .STERADIAN. ) SOLID_ANGLE_UNIT ( ) );
#230 = PRESENTATION_LAYER_ASSIGNMENT (  '', '', ( #59 ) ) ;
#231 = ORIENTED_EDGE ( 'NONE', *, *, #132, .F. ) ;
#232 = AXIS2_PLACEMENT_3D ( 'NONE', #37, #82, #58 ) ;
#233 = VECTOR ( 'NONE', #34, 39.37007874015748143 ) ;
#234 = DIRECTION ( 'NONE',  ( -6.123233995736763571E-17, 1.000000000000000000, -0.000000000000000000 ) ) ;
#235 = ADVANCED_FACE ( 'NONE', ( #219 ), #31, .F. ) ;
#236 = DIRECTION ( 'NONE',  ( -6.123233995736763571E-17, 1.000000000000000000, -0.000000000000000000 ) ) ;
#237 = ORIENTED_EDGE ( 'NONE', *, *, #132, .T. ) ;
#238 = DIRECTION ( 'NONE',  ( 0.000000000000000000, 0.000000000000000000, -1.000000000000000000 ) ) ;
#239 = CARTESIAN_POINT ( 'NONE',  ( -0.2500000000000000000, 2.000000000000000000, 0.000000000000000000 ) ) ;
#240 =( LENGTH_UNIT ( ) NAMED_UNIT ( * ) SI_UNIT ( $, .METRE. ) );
#241 = EDGE_CURVE ( 'NONE', #52, #209, #193, .T. ) ;
#242 = SURFACE_STYLE_USAGE ( .BOTH. , #176 ) ;
#243 = EDGE_LOOP ( 'NONE', ( #237, #218, #24, #57 ) ) ;
#244 = MECHANICAL_DESIGN_GEOMETRIC_PRESENTATION_REPRESENTATION (  '', ( #66 ), #91 ) ;
#245 = AXIS2_PLACEMENT_3D ( 'NONE', #216, #5, #2 ) ;
#246 = SURFACE_SIDE_STYLE ('',( #149 ) ) ;
#247 = CYLINDRICAL_SURFACE ( 'NONE', #126, 0.2500000000000000000 ) ;
#248 = SURFACE_STYLE_USAGE ( .BOTH. , #227 ) ;
#249 = COLOUR_RGB ( '',1.000000000000000000, 0.000000000000000000, 0.000000000000000000 ) ;
#250 =( NAMED_UNIT ( * ) PLANE_ANGLE_UNIT ( ) SI_UNIT ( $, .RADIAN. ) );
#251 = FILL_AREA_STYLE_COLOUR ( '', #299 ) ;
#252 = CARTESIAN_POINT ( 'NONE',  ( -1.224646799147352714E-16, 4.000000000000000000, 0.000000000000000000 ) ) ;
#253 = EDGE_CURVE ( 'NONE', #200, #254, #282, .T. ) ;
#254 = VERTEX_POINT ( 'NONE', #140 ) ;
#255 = STYLED_ITEM ( 'NONE', ( #44 ), #162 ) ;
#256 = CARTESIAN_POINT ( 'NONE',  ( -0.2500000000000002776, 4.000000000000000000, 0.000000000000000000 ) ) ;
#257 = CARTESIAN_POINT ( 'NONE',  ( -0.2500000000000002220, 4.000000000000000000, 0.000000000000000000 ) ) ;
#258 = DIRECTION ( 'NONE',  ( -0.000000000000000000, -1.000000000000000000, -0.000000000000000000 ) ) ;
#259 =( CONVERSION_BASED_UNIT ( 'INCH', #170 ) LENGTH_UNIT ( ) NAMED_UNIT ( #128 ) );
#260 = EDGE_LOOP ( 'NONE', ( #231, #263 ) ) ;
#261 = PLANE ( 'NONE',  #42 ) ;
#262 =( NAMED_UNIT ( * ) SI_UNIT ( $, .STERADIAN. ) SOLID_ANGLE_UNIT ( ) );
#263 = ORIENTED_EDGE ( 'NONE', *, *, #195, .F. ) ;
#264 = DIRECTION ( 'NONE',  ( 0.000000000000000000, 0.000000000000000000, -1.000000000000000000 ) ) ;
#265 = ORIENTED_EDGE ( 'NONE', *, *, #253, .T. ) ;
#266 = SURFACE_SIDE_STYLE ('',( #179 ) ) ;
#267 = FILL_AREA_STYLE_COLOUR ( '', #94 ) ;
#268 = PRESENTATION_STYLE_ASSIGNMENT (( #296 ) ) ;
#269 = PRESENTATION_LAYER_ASSIGNMENT (  '', '', ( #255 ) ) ;
#270 = FILL_AREA_STYLE ('',( #273 ) ) ;
#271 = PLANE ( 'NONE',  #133 ) ;
#272 = PRODUCT_DEFINITION ( 'UNKNOWN', '', #95, #41 ) ;
#273 = FILL_AREA_STYLE_COLOUR ( '', #211 ) ;
#274 = UNCERTAINTY_MEASURE_WITH_UNIT (LENGTH_MEASURE( 1.000000000000000082E-05 ), #259, 'distance_accuracy_value', 'NONE');
#275 = CARTESIAN_POINT ( 'NONE',  ( 0.000000000000000000, 0.000000000000000000, 0.000000000000000000 ) ) ;
#276 = STYLED_ITEM ( 'NONE', ( #53 ), #146 ) ;
#277 = LENGTH_MEASURE_WITH_UNIT ( LENGTH_MEASURE( 0.02539999999999999897 ), #309 );
#278 = UNCERTAINTY_MEASURE_WITH_UNIT (LENGTH_MEASURE( 1.000000000000000082E-05 ), #207, 'distance_accuracy_value', 'NONE');
#279 = ORIENTED_EDGE ( 'NONE', *, *, #175, .T. ) ;
#280 = AXIS2_PLACEMENT_3D ( 'NONE', #13, #287, #303 ) ;
#281 = EDGE_LOOP ( 'NONE', ( #197, #117, #173, #194 ) ) ;
#282 = LINE ( 'NONE', #8, #168 ) ;
#283 = DIRECTION ( 'NONE',  ( -0.000000000000000000, -1.000000000000000000, -0.000000000000000000 ) ) ;
#284 = DIRECTION ( 'NONE',  ( -0.000000000000000000, -1.000000000000000000, -0.000000000000000000 ) ) ;
#285 = VERTEX_POINT ( 'NONE', #256 ) ;
#286 = DIRECTION ( 'NONE',  ( -6.123233995736763571E-17, 1.000000000000000000, -0.000000000000000000 ) ) ;
#287 = DIRECTION ( 'NONE',  ( -6.123233995736763571E-17, 1.000000000000000000, -0.000000000000000000 ) ) ;
#288 = MECHANICAL_DESIGN_GEOMETRIC_PRESENTATION_REPRESENTATION (  '', ( #113 ), #48 ) ;
#289 = CARTESIAN_POINT ( 'NONE',  ( 0.000000000000000000, 2.000000000000000000, 0.000000000000000000 ) ) ;
#290 = AXIS2_PLACEMENT_3D ( 'NONE', #73, #76, #51 ) ;
#291 = ORIENTED_EDGE ( 'NONE', *, *, #101, .F. ) ;
#292 = CIRCLE ( 'NONE', #49, 0.2500000000000000000 ) ;
#293 = FACE_OUTER_BOUND ( 'NONE', #22, .T. ) ;
#294 = FILL_AREA_STYLE_COLOUR ( '', #249 ) ;
#295 = DIRECTION ( 'NONE',  ( 0.000000000000000000, -1.000000000000000000, -0.000000000000000000 ) ) ;
#296 = SURFACE_STYLE_USAGE ( .BOTH. , #266 ) ;
#297 = DIMENSIONAL_EXPONENTS ( 1.000000000000000000, 0.000000000000000000, 0.000000000000000000, 0.000000000000000000, 0.000000000000000000, 0.000000000000000000, 0.000000000000000000 ) ;
#298 = LENGTH_MEASURE_WITH_UNIT ( LENGTH_MEASURE( 0.02539999999999999897 ), #62 );
#299 = COLOUR_RGB ( '',1.000000000000000000, 0.000000000000000000, 0.000000000000000000 ) ;
#300 = PRESENTATION_STYLE_ASSIGNMENT (( #223 ) ) ;
#301 = EDGE_CURVE ( 'NONE', #285, #177, #68, .T. ) ;
#302 = ADVANCED_FACE ( 'NONE', ( #213 ), #137, .T. ) ;
#303 = DIRECTION ( 'NONE',  ( -1.000000000000000000, 0.000000000000000000, 0.000000000000000000 ) ) ;
#304 = MECHANICAL_DESIGN_GEOMETRIC_PRESENTATION_REPRESENTATION (  '', ( #59 ), #74 ) ;
#305 = CARTESIAN_POINT ( 'NONE',  ( 3.061616997868383018E-17, 2.000000000000000000, 0.2500000000000000000 ) ) ;
#306 = ORIENTED_EDGE ( 'NONE', *, *, #141, .T. ) ;
#307 = UNCERTAINTY_MEASURE_WITH_UNIT (LENGTH_MEASURE( 1.000000000000000082E-05 ), #121, 'distance_accuracy_value', 'NONE');
#308 = DIRECTION ( 'NONE',  ( -1.000000000000000000, 0.000000000000000000, 0.000000000000000000 ) ) ;
#309 =( LENGTH_UNIT ( ) NAMED_UNIT ( * ) SI_UNIT ( $, .METRE. ) );
ENDSEC;
END-ISO-10303-21;
