ISO-10303-21;
HEADER;
FILE_DESCRIPTION (( 'STEP AP214' ),
    '1' );
FILE_NAME ('Micro_AEMM-025-3X.STEP',
    '2022-03-15T14:23:45',
    ( '' ),
    ( '' ),
    'SwSTEP 2.0',
    'SolidWorks 2022',
    '' );
FILE_SCHEMA (( 'AUTOMOTIVE_DESIGN' ));
ENDSEC;

DATA;
#1 = LENGTH_MEASURE_WITH_UNIT ( LENGTH_MEASURE( 0.02539999999999999897 ), #114 );
#2 = EDGE_LOOP ( 'NONE', ( #117, #8, #43, #3 ) ) ;
#3 = ORIENTED_EDGE ( 'NONE', *, *, #197, .F. ) ;
#4 =( NAMED_UNIT ( * ) SI_UNIT ( $, .STERADIAN. ) SOLID_ANGLE_UNIT ( ) );
#5 = EDGE_CURVE ( 'NONE', #140, #233, #25, .T. ) ;
#6 = VERTEX_POINT ( 'NONE', #220 ) ;
#7 = AXIS2_PLACEMENT_3D ( 'NONE', #52, #102, #199 ) ;
#8 = ORIENTED_EDGE ( 'NONE', *, *, #82, .T. ) ;
#9 = CARTESIAN_POINT ( 'NONE',  ( 0.000000000000000000, 0.000000000000000000, 1.953504000000000129 ) ) ;
#10 = FACE_OUTER_BOUND ( 'NONE', #110, .T. ) ;
#11 = CARTESIAN_POINT ( 'NONE',  ( 2.892860668945878169E-17, 0.000000000000000000, 0.2362200000000000133 ) ) ;
#12 = DIMENSIONAL_EXPONENTS ( 1.000000000000000000, 0.000000000000000000, 0.000000000000000000, 0.000000000000000000, 0.000000000000000000, 0.000000000000000000, 0.000000000000000000 ) ;
#13 = DIRECTION ( 'NONE',  ( -1.000000000000000000, 0.000000000000000000, 0.000000000000000000 ) ) ;
#14 = AXIS2_PLACEMENT_3D ( 'NONE', #9, #189, #293 ) ;
#15 = EDGE_CURVE ( 'NONE', #233, #254, #161, .T. ) ;
#16 = ADVANCED_FACE ( 'NONE', ( #70 ), #124, .T. ) ;
#17 = DIRECTION ( 'NONE',  ( 0.1736481776669313304, 0.000000000000000000, 0.9848077530122077983 ) ) ;
#18 = CIRCLE ( 'NONE', #134, 0.04916328750000000664 ) ;
#19 = ORIENTED_EDGE ( 'NONE', *, *, #65, .F. ) ;
#20 = DIRECTION ( 'NONE',  ( -1.224646799147353207E-16, -0.000000000000000000, -1.000000000000000000 ) ) ;
#21 = ORIENTED_EDGE ( 'NONE', *, *, #231, .T. ) ;
#22 = EDGE_LOOP ( 'NONE', ( #259, #218, #262, #285 ) ) ;
#23 = CARTESIAN_POINT ( 'NONE',  ( 0.000000000000000000, 0.000000000000000000, 1.968503999999999809 ) ) ;
#24 = FILL_AREA_STYLE ('',( #50 ) ) ;
#25 = LINE ( 'NONE', #47, #36 ) ;
#26 = ADVANCED_FACE ( 'NONE', ( #143 ), #107, .T. ) ;
#27 = PRESENTATION_STYLE_ASSIGNMENT (( #215 ) ) ;
#28 = CARTESIAN_POINT ( 'NONE',  ( 7.373312137594241536E-34, 0.000000000000000000, 6.020766267243607560E-18 ) ) ;
#29 = PRESENTATION_LAYER_ASSIGNMENT (  '', '', ( #119 ) ) ;
#30 = DIMENSIONAL_EXPONENTS ( 1.000000000000000000, 0.000000000000000000, 0.000000000000000000, 0.000000000000000000, 0.000000000000000000, 0.000000000000000000, 0.000000000000000000 ) ;
#31 = DIRECTION ( 'NONE',  ( -1.224646799147353207E-16, -0.000000000000000000, -1.000000000000000000 ) ) ;
#32 = LINE ( 'NONE', #79, #157 ) ;
#33 = FACE_OUTER_BOUND ( 'NONE', #137, .T. ) ;
#34 = CYLINDRICAL_SURFACE ( 'NONE', #39, 0.07874000000000000443 ) ;
#35 = PRODUCT_DEFINITION_SHAPE ( 'NONE', 'NONE',  #144 ) ;
#36 = VECTOR ( 'NONE', #237, 39.37007874015748854 ) ;
#37 = DIRECTION ( 'NONE',  ( -1.224646799147353207E-16, -0.000000000000000000, -1.000000000000000000 ) ) ;
#38 = ORIENTED_EDGE ( 'NONE', *, *, #283, .F. ) ;
#39 = AXIS2_PLACEMENT_3D ( 'NONE', #155, #84, #131 ) ;
#40 = DIRECTION ( 'NONE',  ( -0.1736481776669311639, 2.126576849575782392E-17, 0.9848077530122080203 ) ) ;
#41 = ORIENTED_EDGE ( 'NONE', *, *, #5, .F. ) ;
#42 = DIRECTION ( 'NONE',  ( 1.000000000000000000, 0.000000000000000000, 0.000000000000000000 ) ) ;
#43 = ORIENTED_EDGE ( 'NONE', *, *, #87, .F. ) ;
#44 = AXIS2_PLACEMENT_3D ( 'NONE', #11, #190, #145 ) ;
#45 = APPLICATION_PROTOCOL_DEFINITION ( 'draft international standard', 'automotive_design', 1998, #122 ) ;
#46 = ORIENTED_EDGE ( 'NONE', *, *, #77, .T. ) ;
#47 = CARTESIAN_POINT ( 'NONE',  ( -0.06374000000000018540, 0.000000000000000000, 1.968503999999999809 ) ) ;
#48 = ORIENTED_EDGE ( 'NONE', *, *, #132, .F. ) ;
#49 = DIRECTION ( 'NONE',  ( -0.000000000000000000, -0.000000000000000000, -1.000000000000000000 ) ) ;
#50 = FILL_AREA_STYLE_COLOUR ( '', #228 ) ;
#51 =( LENGTH_UNIT ( ) NAMED_UNIT ( * ) SI_UNIT ( $, .METRE. ) );
#52 = CARTESIAN_POINT ( 'NONE',  ( 0.000000000000000000, 0.000000000000000000, 1.968503999999999809 ) ) ;
#53 = AXIS2_PLACEMENT_3D ( 'NONE', #222, #152, #226 ) ;
#54 = ADVANCED_FACE ( 'NONE', ( #10 ), #195, .T. ) ;
#55 = DIRECTION ( 'NONE',  ( -1.224646799147353207E-16, -0.000000000000000000, -1.000000000000000000 ) ) ;
#56 = VECTOR ( 'NONE', #224, 39.37007874015748143 ) ;
#57 = AXIS2_PLACEMENT_3D ( 'NONE', #165, #98, #100 ) ;
#58 = LENGTH_MEASURE_WITH_UNIT ( LENGTH_MEASURE( 0.02539999999999999897 ), #51 );
#59 = APPLICATION_PROTOCOL_DEFINITION ( 'draft international standard', 'automotive_design', 1998, #217 ) ;
#60 = ADVANCED_FACE ( 'NONE', ( #148 ), #263, .T. ) ;
#61 = AXIS2_PLACEMENT_3D ( 'NONE', #246, #248, #298 ) ;
#62 = ORIENTED_EDGE ( 'NONE', *, *, #202, .T. ) ;
#63 = CARTESIAN_POINT ( 'NONE',  ( -0.04916328749999997888, 6.020766267243608331E-18, 0.2362200000000000133 ) ) ;
#64 = VERTEX_POINT ( 'NONE', #216 ) ;
#65 = EDGE_CURVE ( 'NONE', #233, #6, #264, .T. ) ;
#66 = EDGE_LOOP ( 'NONE', ( #188, #121, #21, #93 ) ) ;
#67 =( GEOMETRIC_REPRESENTATION_CONTEXT ( 3 ) GLOBAL_UNCERTAINTY_ASSIGNED_CONTEXT ( ( #73 ) ) GLOBAL_UNIT_ASSIGNED_CONTEXT ( ( #227, #208, #4 ) ) REPRESENTATION_CONTEXT ( 'NONE', 'WORKASPACE' ) );
#68 = EDGE_LOOP ( 'NONE', ( #86, #185, #256, #48 ) ) ;
#69 = DIRECTION ( 'NONE',  ( -1.000000000000000000, 0.000000000000000000, 1.224646799147353207E-16 ) ) ;
#70 = FACE_OUTER_BOUND ( 'NONE', #238, .T. ) ;
#71 = CONICAL_SURFACE ( 'NONE', #249, 0.06374000000000018540, 0.7853981633974522758 ) ;
#72 = DIRECTION ( 'NONE',  ( -0.000000000000000000, -0.000000000000000000, -1.000000000000000000 ) ) ;
#73 = UNCERTAINTY_MEASURE_WITH_UNIT (LENGTH_MEASURE( 1.000000000000000082E-05 ), #227, 'distance_accuracy_value', 'NONE');
#74 = DIRECTION ( 'NONE',  ( -1.224646799147353207E-16, -0.000000000000000000, -1.000000000000000000 ) ) ;
#75 = CARTESIAN_POINT ( 'NONE',  ( 0.07874000000000004607, 9.642868896486264672E-18, 0.4039578718853090167 ) ) ;
#76 = ADVANCED_FACE ( 'NONE', ( #96 ), #71, .T. ) ;
#77 = EDGE_CURVE ( 'NONE', #164, #254, #244, .T. ) ;
#78 = PRESENTATION_LAYER_ASSIGNMENT (  '', '', ( #261 ) ) ;
#79 = CARTESIAN_POINT ( 'NONE',  ( 0.07874000000000000443, 9.642868896486258509E-18, 1.968503999999999809 ) ) ;
#80 = CIRCLE ( 'NONE', #94, 0.04916328749999999276 ) ;
#81 = PLANE ( 'NONE',  #61 ) ;
#82 = EDGE_CURVE ( 'NONE', #64, #133, #290, .T. ) ;
#83 = CARTESIAN_POINT ( 'NONE',  ( 7.373312137594241536E-34, 0.000000000000000000, 6.020766267243607560E-18 ) ) ;
#84 = DIRECTION ( 'NONE',  ( -0.000000000000000000, -0.000000000000000000, -1.000000000000000000 ) ) ;
#85 = VECTOR ( 'NONE', #49, 39.37007874015748143 ) ;
#86 = ORIENTED_EDGE ( 'NONE', *, *, #77, .F. ) ;
#87 = EDGE_CURVE ( 'NONE', #112, #133, #287, .T. ) ;
#88 = SHAPE_DEFINITION_REPRESENTATION ( #35, #177 ) ;
#89 = EDGE_LOOP ( 'NONE', ( #115, #236 ) ) ;
#90 = AXIS2_PLACEMENT_3D ( 'NONE', #289, #72, #288 ) ;
#91 = DIRECTION ( 'NONE',  ( 1.000000000000000000, 0.000000000000000000, 0.000000000000000000 ) ) ;
#92 = VERTEX_POINT ( 'NONE', #266 ) ;
#93 = ORIENTED_EDGE ( 'NONE', *, *, #175, .T. ) ;
#94 = AXIS2_PLACEMENT_3D ( 'NONE', #83, #55, #176 ) ;
#95 = MANIFOLD_SOLID_BREP ( 'Cut-Revolve1', #154 ) ;
#96 = FACE_OUTER_BOUND ( 'NONE', #68, .T. ) ;
#97 = DIRECTION ( 'NONE',  ( -1.000000000000000000, 0.000000000000000000, 0.000000000000000000 ) ) ;
#98 = DIRECTION ( 'NONE',  ( 1.224646799147353207E-16, 0.000000000000000000, 1.000000000000000000 ) ) ;
#99 = EDGE_CURVE ( 'NONE', #254, #240, #32, .T. ) ;
#100 = DIRECTION ( 'NONE',  ( 1.000000000000000000, 0.000000000000000000, 0.000000000000000000 ) ) ;
#101 = CARTESIAN_POINT ( 'NONE',  ( 0.04916328749999999276, 6.020766267243607560E-18, -9.478001694819074349E-34 ) ) ;
#102 = DIRECTION ( 'NONE',  ( 0.000000000000000000, 0.000000000000000000, 1.000000000000000000 ) ) ;
#103 = VECTOR ( 'NONE', #17, 39.37007874015748143 ) ;
#104 = DIRECTION ( 'NONE',  ( 1.000000000000000000, 0.000000000000000000, 0.000000000000000000 ) ) ;
#105 = CARTESIAN_POINT ( 'NONE',  ( 0.06374000000000018540, 8.724383797125754882E-18, 1.968503999999999809 ) ) ;
#106 = CARTESIAN_POINT ( 'NONE',  ( -0.07874000000000000443, 0.000000000000000000, 1.953504000000000129 ) ) ;
#107 = CONICAL_SURFACE ( 'NONE', #57, 0.04916328750000000664, 0.1745329251994338360 ) ;
#108 = SURFACE_SIDE_STYLE ('',( #251 ) ) ;
#109 = ORIENTED_EDGE ( 'NONE', *, *, #243, .T. ) ;
#110 = EDGE_LOOP ( 'NONE', ( #209, #163, #162, #19 ) ) ;
#111 = CARTESIAN_POINT ( 'NONE',  ( 0.000000000000000000, 0.000000000000000000, 0.000000000000000000 ) ) ;
#112 = VERTEX_POINT ( 'NONE', #170 ) ;
#113 = AXIS2_PLACEMENT_3D ( 'NONE', #28, #74, #166 ) ;
#114 =( LENGTH_UNIT ( ) NAMED_UNIT ( * ) SI_UNIT ( $, .METRE. ) );
#115 = ORIENTED_EDGE ( 'NONE', *, *, #87, .T. ) ;
#116 = LENGTH_MEASURE_WITH_UNIT ( LENGTH_MEASURE( 0.02539999999999999897 ), #252 );
#117 = ORIENTED_EDGE ( 'NONE', *, *, #129, .T. ) ;
#118 = DIRECTION ( 'NONE',  ( 0.000000000000000000, 0.000000000000000000, -1.000000000000000000 ) ) ;
#119 = STYLED_ITEM ( 'NONE', ( #27 ), #95 ) ;
#120 = ORIENTED_EDGE ( 'NONE', *, *, #129, .F. ) ;
#121 = ORIENTED_EDGE ( 'NONE', *, *, #202, .F. ) ;
#122 = APPLICATION_CONTEXT ( 'automotive_design' ) ;
#123 = CARTESIAN_POINT ( 'NONE',  ( -0.07874000000000000443, 0.000000000000000000, 1.968503999999999809 ) ) ;
#124 = CONICAL_SURFACE ( 'NONE', #44, 0.04916328750000000664, 0.1745329251994338360 ) ;
#125 = ORIENTED_EDGE ( 'NONE', *, *, #187, .F. ) ;
#126 =( CONVERSION_BASED_UNIT ( 'INCH', #58 ) LENGTH_UNIT ( ) NAMED_UNIT ( #12 ) );
#127 = CARTESIAN_POINT ( 'NONE',  ( -0.06374000000000018540, 0.000000000000000000, 1.968503999999999809 ) ) ;
#128 = CARTESIAN_POINT ( 'NONE',  ( 2.892860668945878169E-17, 0.000000000000000000, 0.2362200000000000133 ) ) ;
#129 = EDGE_CURVE ( 'NONE', #92, #64, #18, .T. ) ;
#130 = DIRECTION ( 'NONE',  ( 1.000000000000000000, 0.000000000000000000, 0.000000000000000000 ) ) ;
#131 = DIRECTION ( 'NONE',  ( -1.000000000000000000, 0.000000000000000000, 0.000000000000000000 ) ) ;
#132 = EDGE_CURVE ( 'NONE', #254, #233, #299, .T. ) ;
#133 = VERTEX_POINT ( 'NONE', #101 ) ;
#134 = AXIS2_PLACEMENT_3D ( 'NONE', #221, #37, #250 ) ;
#135 = CARTESIAN_POINT ( 'NONE',  ( 0.000000000000000000, 0.000000000000000000, 1.968503999999999809 ) ) ;
#136 = ORIENTED_EDGE ( 'NONE', *, *, #82, .F. ) ;
#137 = EDGE_LOOP ( 'NONE', ( #38, #46, #286, #41 ) ) ;
#138 = ADVANCED_FACE ( 'NONE', ( #173 ), #34, .T. ) ;
#139 =( NAMED_UNIT ( * ) SI_UNIT ( $, .STERADIAN. ) SOLID_ANGLE_UNIT ( ) );
#140 = VERTEX_POINT ( 'NONE', #127 ) ;
#141 = AXIS2_PLACEMENT_3D ( 'NONE', #135, #210, #280 ) ;
#142 =( CONVERSION_BASED_UNIT ( 'INCH', #116 ) LENGTH_UNIT ( ) NAMED_UNIT ( #30 ) );
#143 = FACE_OUTER_BOUND ( 'NONE', #66, .T. ) ;
#144 = PRODUCT_DEFINITION ( 'UNKNOWN', '', #295, #150 ) ;
#145 = DIRECTION ( 'NONE',  ( 1.000000000000000000, 0.000000000000000000, 0.000000000000000000 ) ) ;
#146 = CIRCLE ( 'NONE', #141, 0.06374000000000018540 ) ;
#147 = EDGE_CURVE ( 'NONE', #140, #164, #291, .T. ) ;
#148 = FACE_OUTER_BOUND ( 'NONE', #2, .T. ) ;
#149 = SURFACE_STYLE_FILL_AREA ( #24 ) ;
#150 = PRODUCT_DEFINITION_CONTEXT ( 'detailed design', #217, 'design' ) ;
#151 = AXIS2_PLACEMENT_3D ( 'NONE', #111, #180, #91 ) ;
#152 = DIRECTION ( 'NONE',  ( 0.000000000000000000, 0.000000000000000000, -1.000000000000000000 ) ) ;
#153 = LINE ( 'NONE', #272, #56 ) ;
#154 = CLOSED_SHELL ( 'NONE', ( #60, #16, #168, #54, #138, #201, #76, #26, #278, #229 ) ) ;
#155 = CARTESIAN_POINT ( 'NONE',  ( 0.000000000000000000, 0.000000000000000000, 1.968503999999999809 ) ) ;
#156 =( NAMED_UNIT ( * ) PLANE_ANGLE_UNIT ( ) SI_UNIT ( $, .RADIAN. ) );
#157 = VECTOR ( 'NONE', #196, 39.37007874015748143 ) ;
#158 = DIRECTION ( 'NONE',  ( 0.000000000000000000, 0.000000000000000000, 1.000000000000000000 ) ) ;
#159 = CYLINDRICAL_SURFACE ( 'NONE', #183, 0.04916328750000000664 ) ;
#160 = ORIENTED_EDGE ( 'NONE', *, *, #283, .T. ) ;
#161 = CIRCLE ( 'NONE', #14, 0.07874000000000000443 ) ;
#162 = ORIENTED_EDGE ( 'NONE', *, *, #243, .F. ) ;
#163 = ORIENTED_EDGE ( 'NONE', *, *, #99, .T. ) ;
#164 = VERTEX_POINT ( 'NONE', #105 ) ;
#165 = CARTESIAN_POINT ( 'NONE',  ( 2.892860668945878169E-17, 0.000000000000000000, 0.2362200000000000133 ) ) ;
#166 = DIRECTION ( 'NONE',  ( -1.000000000000000000, 0.000000000000000000, 1.224646799147353207E-16 ) ) ;
#167 = CARTESIAN_POINT ( 'NONE',  ( 0.000000000000000000, 0.000000000000000000, 0.000000000000000000 ) ) ;
#168 = ADVANCED_FACE ( 'NONE', ( #33 ), #193, .T. ) ;
#169 = DIRECTION ( 'NONE',  ( -1.224646799147353207E-16, -0.000000000000000000, -1.000000000000000000 ) ) ;
#170 = CARTESIAN_POINT ( 'NONE',  ( -0.04916328749999999276, 0.000000000000000000, 1.204153253448721512E-17 ) ) ;
#171 = CARTESIAN_POINT ( 'NONE',  ( 4.947057147947202128E-17, 0.000000000000000000, 0.4039578718853090167 ) ) ;
#172 = VECTOR ( 'NONE', #213, 39.37007874015748854 ) ;
#173 = FACE_OUTER_BOUND ( 'NONE', #22, .T. ) ;
#174 = CARTESIAN_POINT ( 'NONE',  ( 0.000000000000000000, 0.000000000000000000, 1.968503999999999809 ) ) ;
#175 = EDGE_CURVE ( 'NONE', #240, #6, #192, .T. ) ;
#176 = DIRECTION ( 'NONE',  ( -1.000000000000000000, 0.000000000000000000, 1.224646799147353207E-16 ) ) ;
#177 = ADVANCED_BREP_SHAPE_REPRESENTATION ( 'Micro_AEMM-025-3X', ( #95, #151 ), #211 ) ;
#178 = LINE ( 'NONE', #276, #103 ) ;
#179 = FACE_OUTER_BOUND ( 'NONE', #230, .T. ) ;
#180 = DIRECTION ( 'NONE',  ( 0.000000000000000000, 0.000000000000000000, 1.000000000000000000 ) ) ;
#181 = FILL_AREA_STYLE_COLOUR ( '', #219 ) ;
#182 = ORIENTED_EDGE ( 'NONE', *, *, #147, .T. ) ;
#183 = AXIS2_PLACEMENT_3D ( 'NONE', #235, #20, #260 ) ;
#184 = CARTESIAN_POINT ( 'NONE',  ( 0.07874000000000000443, 9.642868896486258509E-18, 1.953504000000000129 ) ) ;
#185 = ORIENTED_EDGE ( 'NONE', *, *, #147, .F. ) ;
#186 = ORIENTED_EDGE ( 'NONE', *, *, #231, .F. ) ;
#187 = EDGE_CURVE ( 'NONE', #133, #112, #80, .T. ) ;
#188 = ORIENTED_EDGE ( 'NONE', *, *, #273, .F. ) ;
#189 = DIRECTION ( 'NONE',  ( 0.000000000000000000, 0.000000000000000000, -1.000000000000000000 ) ) ;
#190 = DIRECTION ( 'NONE',  ( 1.224646799147353207E-16, 0.000000000000000000, 1.000000000000000000 ) ) ;
#191 = CARTESIAN_POINT ( 'NONE',  ( 0.06374000000000018540, 7.805898697765251255E-18, 1.968503999999999809 ) ) ;
#192 = CIRCLE ( 'NONE', #296, 0.07874000000000000443 ) ;
#193 = CONICAL_SURFACE ( 'NONE', #253, 0.06374000000000018540, 0.7853981633974522758 ) ;
#194 = DIRECTION ( 'NONE',  ( -1.224646799147353207E-16, -0.000000000000000000, -1.000000000000000000 ) ) ;
#195 = CYLINDRICAL_SURFACE ( 'NONE', #90, 0.07874000000000000443 ) ;
#196 = DIRECTION ( 'NONE',  ( -0.000000000000000000, -0.000000000000000000, -1.000000000000000000 ) ) ;
#197 = EDGE_CURVE ( 'NONE', #92, #112, #153, .T. ) ;
#198 = AXIS2_PLACEMENT_3D ( 'NONE', #128, #274, #297 ) ;
#199 = DIRECTION ( 'NONE',  ( 1.000000000000000000, 0.000000000000000000, -0.000000000000000000 ) ) ;
#200 = CARTESIAN_POINT ( 'NONE',  ( 0.000000000000000000, 0.000000000000000000, 1.968503999999999809 ) ) ;
#201 = ADVANCED_FACE ( 'NONE', ( #225 ), #247, .T. ) ;
#202 = EDGE_CURVE ( 'NONE', #64, #92, #275, .T. ) ;
#203 = FACE_OUTER_BOUND ( 'NONE', #89, .T. ) ;
#204 = DIRECTION ( 'NONE',  ( 0.000000000000000000, 0.000000000000000000, -1.000000000000000000 ) ) ;
#205 = AXIS2_PLACEMENT_3D ( 'NONE', #174, #158, #104 ) ;
#206 = MECHANICAL_DESIGN_GEOMETRIC_PRESENTATION_REPRESENTATION (  '', ( #261 ), #67 ) ;
#207 = DIMENSIONAL_EXPONENTS ( 1.000000000000000000, 0.000000000000000000, 0.000000000000000000, 0.000000000000000000, 0.000000000000000000, 0.000000000000000000, 0.000000000000000000 ) ;
#208 =( NAMED_UNIT ( * ) PLANE_ANGLE_UNIT ( ) SI_UNIT ( $, .RADIAN. ) );
#209 = ORIENTED_EDGE ( 'NONE', *, *, #15, .T. ) ;
#210 = DIRECTION ( 'NONE',  ( 0.000000000000000000, 0.000000000000000000, 1.000000000000000000 ) ) ;
#211 =( GEOMETRIC_REPRESENTATION_CONTEXT ( 3 ) GLOBAL_UNCERTAINTY_ASSIGNED_CONTEXT ( ( #241 ) ) GLOBAL_UNIT_ASSIGNED_CONTEXT ( ( #142, #255, #139 ) ) REPRESENTATION_CONTEXT ( 'NONE', 'WORKASPACE' ) );
#212 = ORIENTED_EDGE ( 'NONE', *, *, #273, .T. ) ;
#213 = DIRECTION ( 'NONE',  ( 0.7071067811865502373, 8.659560562354966138E-17, -0.7071067811865446862 ) ) ;
#214 = VECTOR ( 'NONE', #169, 39.37007874015748143 ) ;
#215 = SURFACE_STYLE_USAGE ( .BOTH. , #242 ) ;
#216 = CARTESIAN_POINT ( 'NONE',  ( 0.04916328750000002745, 0.000000000000000000, 0.2362200000000000133 ) ) ;
#217 = APPLICATION_CONTEXT ( 'automotive_design' ) ;
#218 = ORIENTED_EDGE ( 'NONE', *, *, #132, .T. ) ;
#219 = COLOUR_RGB ( '',0.7921568627450980005, 0.8196078431372548767, 0.9333333333333333481 ) ;
#220 = CARTESIAN_POINT ( 'NONE',  ( -0.07873999999999994892, 0.000000000000000000, 0.4039578718853090167 ) ) ;
#221 = CARTESIAN_POINT ( 'NONE',  ( 2.892860668945878169E-17, 0.000000000000000000, 0.2362200000000000133 ) ) ;
#222 = CARTESIAN_POINT ( 'NONE',  ( 0.000000000000000000, 0.000000000000000000, 1.953504000000000129 ) ) ;
#223 = VECTOR ( 'NONE', #40, 39.37007874015747433 ) ;
#224 = DIRECTION ( 'NONE',  ( -1.224646799147353207E-16, -0.000000000000000000, -1.000000000000000000 ) ) ;
#225 = FACE_OUTER_BOUND ( 'NONE', #265, .T. ) ;
#226 = DIRECTION ( 'NONE',  ( 1.000000000000000000, 0.000000000000000000, 0.000000000000000000 ) ) ;
#227 =( CONVERSION_BASED_UNIT ( 'INCH', #1 ) LENGTH_UNIT ( ) NAMED_UNIT ( #207 ) );
#228 = COLOUR_RGB ( '',0.7921568627450980005, 0.8196078431372548767, 0.9333333333333333481 ) ;
#229 = ADVANCED_FACE ( 'NONE', ( #203 ), #81, .F. ) ;
#230 = EDGE_LOOP ( 'NONE', ( #136, #62, #282, #125 ) ) ;
#231 = EDGE_CURVE ( 'NONE', #64, #240, #178, .T. ) ;
#232 = PRESENTATION_STYLE_ASSIGNMENT (( #257 ) ) ;
#233 = VERTEX_POINT ( 'NONE', #106 ) ;
#234 = AXIS2_PLACEMENT_3D ( 'NONE', #171, #31, #42 ) ;
#235 = CARTESIAN_POINT ( 'NONE',  ( 0.000000000000000000, 0.000000000000000000, 0.000000000000000000 ) ) ;
#236 = ORIENTED_EDGE ( 'NONE', *, *, #187, .T. ) ;
#237 = DIRECTION ( 'NONE',  ( -0.7071067811865502373, 0.000000000000000000, -0.7071067811865446862 ) ) ;
#238 = EDGE_LOOP ( 'NONE', ( #120, #212, #109, #186 ) ) ;
#239 = AXIS2_PLACEMENT_3D ( 'NONE', #167, #194, #69 ) ;
#240 = VERTEX_POINT ( 'NONE', #75 ) ;
#241 = UNCERTAINTY_MEASURE_WITH_UNIT (LENGTH_MEASURE( 1.000000000000000082E-05 ), #142, 'distance_accuracy_value', 'NONE');
#242 = SURFACE_SIDE_STYLE ('',( #149 ) ) ;
#243 = EDGE_CURVE ( 'NONE', #6, #240, #281, .T. ) ;
#244 = LINE ( 'NONE', #191, #172 ) ;
#245 = MECHANICAL_DESIGN_GEOMETRIC_PRESENTATION_REPRESENTATION (  '', ( #119 ), #270 ) ;
#246 = CARTESIAN_POINT ( 'NONE',  ( 0.000000000000000000, 0.000000000000000000, 0.000000000000000000 ) ) ;
#247 = PLANE ( 'NONE',  #7 ) ;
#248 = DIRECTION ( 'NONE',  ( 0.000000000000000000, 0.000000000000000000, 1.000000000000000000 ) ) ;
#249 = AXIS2_PLACEMENT_3D ( 'NONE', #23, #118, #97 ) ;
#250 = DIRECTION ( 'NONE',  ( -1.000000000000000000, 0.000000000000000000, 0.000000000000000000 ) ) ;
#251 = SURFACE_STYLE_FILL_AREA ( #277 ) ;
#252 =( LENGTH_UNIT ( ) NAMED_UNIT ( * ) SI_UNIT ( $, .METRE. ) );
#253 = AXIS2_PLACEMENT_3D ( 'NONE', #200, #204, #13 ) ;
#254 = VERTEX_POINT ( 'NONE', #184 ) ;
#255 =( NAMED_UNIT ( * ) PLANE_ANGLE_UNIT ( ) SI_UNIT ( $, .RADIAN. ) );
#256 = ORIENTED_EDGE ( 'NONE', *, *, #5, .T. ) ;
#257 = SURFACE_STYLE_USAGE ( .BOTH. , #108 ) ;
#258 = PRODUCT_RELATED_PRODUCT_CATEGORY ( 'part', '', ( #268 ) ) ;
#259 = ORIENTED_EDGE ( 'NONE', *, *, #99, .F. ) ;
#260 = DIRECTION ( 'NONE',  ( -1.000000000000000000, 0.000000000000000000, 1.224646799147353207E-16 ) ) ;
#261 = STYLED_ITEM ( 'NONE', ( #232 ), #177 ) ;
#262 = ORIENTED_EDGE ( 'NONE', *, *, #65, .T. ) ;
#263 = CYLINDRICAL_SURFACE ( 'NONE', #239, 0.04916328750000000664 ) ;
#264 = LINE ( 'NONE', #123, #85 ) ;
#265 = EDGE_LOOP ( 'NONE', ( #182, #160 ) ) ;
#266 = CARTESIAN_POINT ( 'NONE',  ( -0.04916328749999997888, 7.831817581864934190E-18, 0.2362200000000000133 ) ) ;
#267 = UNCERTAINTY_MEASURE_WITH_UNIT (LENGTH_MEASURE( 1.000000000000000082E-05 ), #126, 'distance_accuracy_value', 'NONE');
#268 = PRODUCT ( 'Micro_AEMM-025-3X', 'Micro_AEMM-025-3X', '', ( #279 ) ) ;
#269 = CARTESIAN_POINT ( 'NONE',  ( 4.947057147947202128E-17, 0.000000000000000000, 0.4039578718853090167 ) ) ;
#270 =( GEOMETRIC_REPRESENTATION_CONTEXT ( 3 ) GLOBAL_UNCERTAINTY_ASSIGNED_CONTEXT ( ( #267 ) ) GLOBAL_UNIT_ASSIGNED_CONTEXT ( ( #126, #156, #294 ) ) REPRESENTATION_CONTEXT ( 'NONE', 'WORKASPACE' ) );
#271 = DIRECTION ( 'NONE',  ( -1.224646799147353207E-16, -0.000000000000000000, -1.000000000000000000 ) ) ;
#272 = CARTESIAN_POINT ( 'NONE',  ( -0.04916328750000000664, 0.000000000000000000, 6.020766267243608331E-18 ) ) ;
#273 = EDGE_CURVE ( 'NONE', #92, #6, #284, .T. ) ;
#274 = DIRECTION ( 'NONE',  ( -1.224646799147353207E-16, -0.000000000000000000, -1.000000000000000000 ) ) ;
#275 = CIRCLE ( 'NONE', #198, 0.04916328750000000664 ) ;
#276 = CARTESIAN_POINT ( 'NONE',  ( 0.04916328750000002745, 0.000000000000000000, 0.2362200000000000133 ) ) ;
#277 = FILL_AREA_STYLE ('',( #181 ) ) ;
#278 = ADVANCED_FACE ( 'NONE', ( #179 ), #159, .T. ) ;
#279 = PRODUCT_CONTEXT ( 'NONE', #122, 'mechanical' ) ;
#280 = DIRECTION ( 'NONE',  ( 1.000000000000000000, 0.000000000000000000, 0.000000000000000000 ) ) ;
#281 = CIRCLE ( 'NONE', #234, 0.07874000000000000443 ) ;
#282 = ORIENTED_EDGE ( 'NONE', *, *, #197, .T. ) ;
#283 = EDGE_CURVE ( 'NONE', #164, #140, #146, .T. ) ;
#284 = LINE ( 'NONE', #63, #223 ) ;
#285 = ORIENTED_EDGE ( 'NONE', *, *, #175, .F. ) ;
#286 = ORIENTED_EDGE ( 'NONE', *, *, #15, .F. ) ;
#287 = CIRCLE ( 'NONE', #113, 0.04916328749999999276 ) ;
#288 = DIRECTION ( 'NONE',  ( -1.000000000000000000, 0.000000000000000000, 0.000000000000000000 ) ) ;
#289 = CARTESIAN_POINT ( 'NONE',  ( 0.000000000000000000, 0.000000000000000000, 1.968503999999999809 ) ) ;
#290 = LINE ( 'NONE', #292, #214 ) ;
#291 = CIRCLE ( 'NONE', #205, 0.06374000000000018540 ) ;
#292 = CARTESIAN_POINT ( 'NONE',  ( 0.04916328750000000664, 6.020766267243608331E-18, -6.020766267243608331E-18 ) ) ;
#293 = DIRECTION ( 'NONE',  ( 1.000000000000000000, 0.000000000000000000, 0.000000000000000000 ) ) ;
#294 =( NAMED_UNIT ( * ) SI_UNIT ( $, .STERADIAN. ) SOLID_ANGLE_UNIT ( ) );
#295 = PRODUCT_DEFINITION_FORMATION_WITH_SPECIFIED_SOURCE ( 'ANY', '', #268, .NOT_KNOWN. ) ;
#296 = AXIS2_PLACEMENT_3D ( 'NONE', #269, #271, #130 ) ;
#297 = DIRECTION ( 'NONE',  ( -1.000000000000000000, 0.000000000000000000, 0.000000000000000000 ) ) ;
#298 = DIRECTION ( 'NONE',  ( 1.000000000000000000, 0.000000000000000000, -0.000000000000000000 ) ) ;
#299 = CIRCLE ( 'NONE', #53, 0.07874000000000000443 ) ;
ENDSEC;
END-ISO-10303-21;
