ISO-10303-21;
HEADER;
FILE_DESCRIPTION (( 'STEP AP214' ),
    '1' );
FILE_NAME ('48135.STEP',
    '2023-06-22T21:13:43',
    ( '' ),
    ( '' ),
    'SwSTEP 2.0',
    'SolidWorks 2023',
    '' );
FILE_SCHEMA (( 'AUTOMOTIVE_DESIGN' ));
ENDSEC;

DATA;
#1 = COLOUR_RGB ( '',1.000000000000000000, 0.000000000000000000, 0.000000000000000000 ) ;
#2 = FILL_AREA_STYLE_COLOUR ( '', #1 ) ;
#3 = ORIENTED_EDGE ( 'NONE', *, *, #203, .T. ) ;
#4 = SURFACE_STYLE_FILL_AREA ( #31 ) ;
#5 = LENGTH_MEASURE_WITH_UNIT ( LENGTH_MEASURE( 0.02539999999999999897 ), #175 );
#6 = SURFACE_SIDE_STYLE ('',( #86 ) ) ;
#7 = EDGE_CURVE ( 'NONE', #98, #125, #170, .T. ) ;
#8 =( NAMED_UNIT ( * ) SI_UNIT ( $, .STERADIAN. ) SOLID_ANGLE_UNIT ( ) );
#9 = FILL_AREA_STYLE ('',( #222 ) ) ;
#10 = MANIFOLD_SOLID_BREP ( 'Revolve - Cutting Edge', #208 ) ;
#11 = MANIFOLD_SOLID_BREP ( 'Revolve - Tool Body (Straight Shanked)', #246 ) ;
#12 =( CONVERSION_BASED_UNIT ( 'INCH', #200 ) LENGTH_UNIT ( ) NAMED_UNIT ( #135 ) );
#13 = DIMENSIONAL_EXPONENTS ( 1.000000000000000000, 0.000000000000000000, 0.000000000000000000, 0.000000000000000000, 0.000000000000000000, 0.000000000000000000, 0.000000000000000000 ) ;
#14 = MECHANICAL_DESIGN_GEOMETRIC_PRESENTATION_REPRESENTATION (  '', ( #72 ), #151 ) ;
#15 = DIRECTION ( 'NONE',  ( -3.061616997868386099E-17, 1.000000000000000000, -0.000000000000000000 ) ) ;
#16 = STYLED_ITEM ( 'NONE', ( #277 ), #297 ) ;
#17 =( NAMED_UNIT ( * ) SI_UNIT ( $, .STERADIAN. ) SOLID_ANGLE_UNIT ( ) );
#18 = DIRECTION ( 'NONE',  ( -1.000000000000000000, 0.000000000000000000, 0.000000000000000000 ) ) ;
#19 =( NAMED_UNIT ( * ) PLANE_ANGLE_UNIT ( ) SI_UNIT ( $, .RADIAN. ) );
#20 = CARTESIAN_POINT ( 'NONE',  ( 0.000000000000000000, 0.000000000000000000, 0.000000000000000000 ) ) ;
#21 =( NAMED_UNIT ( * ) PLANE_ANGLE_UNIT ( ) SI_UNIT ( $, .RADIAN. ) );
#22 = VERTEX_POINT ( 'NONE', #137 ) ;
#23 = AXIS2_PLACEMENT_3D ( 'NONE', #228, #84, #206 ) ;
#24 =( GEOMETRIC_REPRESENTATION_CONTEXT ( 3 ) GLOBAL_UNCERTAINTY_ASSIGNED_CONTEXT ( ( #272 ) ) GLOBAL_UNIT_ASSIGNED_CONTEXT ( ( #96, #21, #120 ) ) REPRESENTATION_CONTEXT ( 'NONE', 'WORKASPACE' ) );
#25 = DIRECTION ( 'NONE',  ( -0.000000000000000000, -1.000000000000000000, -0.000000000000000000 ) ) ;
#26 = VERTEX_POINT ( 'NONE', #253 ) ;
#27 = EDGE_LOOP ( 'NONE', ( #79, #74, #193, #250 ) ) ;
#28 = EDGE_CURVE ( 'NONE', #22, #307, #104, .T. ) ;
#29 = SURFACE_SIDE_STYLE ('',( #245 ) ) ;
#30 = ORIENTED_EDGE ( 'NONE', *, *, #47, .F. ) ;
#31 = FILL_AREA_STYLE ('',( #153 ) ) ;
#32 = ADVANCED_FACE ( 'NONE', ( #37 ), #231, .T. ) ;
#33 = MECHANICAL_DESIGN_GEOMETRIC_PRESENTATION_REPRESENTATION (  '', ( #225 ), #197 ) ;
#34 = CIRCLE ( 'NONE', #188, 0.1250000000000000278 ) ;
#35 = SURFACE_STYLE_FILL_AREA ( #168 ) ;
#36 = SURFACE_STYLE_USAGE ( .BOTH. , #80 ) ;
#37 = FACE_OUTER_BOUND ( 'NONE', #199, .T. ) ;
#38 = CARTESIAN_POINT ( 'NONE',  ( -6.123233995736772199E-17, 3.000000000000000444, 0.000000000000000000 ) ) ;
#39 =( GEOMETRIC_REPRESENTATION_CONTEXT ( 3 ) GLOBAL_UNCERTAINTY_ASSIGNED_CONTEXT ( ( #190 ) ) GLOBAL_UNIT_ASSIGNED_CONTEXT ( ( #295, #19, #17 ) ) REPRESENTATION_CONTEXT ( 'NONE', 'WORKASPACE' ) );
#40 = CARTESIAN_POINT ( 'NONE',  ( -0.1250000000000001110, 3.000000000000000444, 0.000000000000000000 ) ) ;
#41 = PRODUCT_DEFINITION_FORMATION_WITH_SPECIFIED_SOURCE ( 'ANY', '', #209, .NOT_KNOWN. ) ;
#42 = PRODUCT_DEFINITION_CONTEXT ( 'detailed design', #239, 'design' ) ;
#43 = DIRECTION ( 'NONE',  ( -1.000000000000000000, -3.061616997868386099E-17, 0.000000000000000000 ) ) ;
#44 = CARTESIAN_POINT ( 'NONE',  ( 5.858436651022894110E-35, 1.000000000000000000, 0.000000000000000000 ) ) ;
#45 = STYLED_ITEM ( 'NONE', ( #58 ), #11 ) ;
#46 =( NAMED_UNIT ( * ) SI_UNIT ( $, .STERADIAN. ) SOLID_ANGLE_UNIT ( ) );
#47 = EDGE_CURVE ( 'NONE', #309, #172, #121, .T. ) ;
#48 = FILL_AREA_STYLE_COLOUR ( '', #278 ) ;
#49 = ORIENTED_EDGE ( 'NONE', *, *, #248, .F. ) ;
#50 =( CONVERSION_BASED_UNIT ( 'INCH', #306 ) LENGTH_UNIT ( ) NAMED_UNIT ( #237 ) );
#51 = ORIENTED_EDGE ( 'NONE', *, *, #59, .F. ) ;
#52 = VECTOR ( 'NONE', #211, 39.37007874015748143 ) ;
#53 = EDGE_LOOP ( 'NONE', ( #126, #78 ) ) ;
#54 = FILL_AREA_STYLE ('',( #2 ) ) ;
#55 = LENGTH_MEASURE_WITH_UNIT ( LENGTH_MEASURE( 0.02539999999999999897 ), #107 );
#56 = COLOUR_RGB ( '',1.000000000000000000, 0.000000000000000000, 0.000000000000000000 ) ;
#57 =( CONVERSION_BASED_UNIT ( 'INCH', #55 ) LENGTH_UNIT ( ) NAMED_UNIT ( #159 ) );
#58 = PRESENTATION_STYLE_ASSIGNMENT (( #36 ) ) ;
#59 = EDGE_CURVE ( 'NONE', #22, #172, #140, .T. ) ;
#60 = SURFACE_STYLE_USAGE ( .BOTH. , #132 ) ;
#61 = DIMENSIONAL_EXPONENTS ( 1.000000000000000000, 0.000000000000000000, 0.000000000000000000, 0.000000000000000000, 0.000000000000000000, 0.000000000000000000, 0.000000000000000000 ) ;
#62 = LENGTH_MEASURE_WITH_UNIT ( LENGTH_MEASURE( 0.02539999999999999897 ), #256 );
#63 = COLOUR_RGB ( '',0.7921568627450980005, 0.8196078431372548767, 0.9333333333333333481 ) ;
#64 = FILL_AREA_STYLE ('',( #82 ) ) ;
#65 = DIRECTION ( 'NONE',  ( -0.000000000000000000, -1.000000000000000000, -0.000000000000000000 ) ) ;
#66 = SURFACE_STYLE_USAGE ( .BOTH. , #139 ) ;
#67 = ADVANCED_FACE ( 'NONE', ( #69 ), #70, .T. ) ;
#68 = PRESENTATION_LAYER_ASSIGNMENT (  '', '', ( #201 ) ) ;
#69 = FACE_OUTER_BOUND ( 'NONE', #196, .T. ) ;
#70 = CYLINDRICAL_SURFACE ( 'NONE', #236, 0.1250000000000000555 ) ;
#71 = DIRECTION ( 'NONE',  ( -0.000000000000000000, -1.000000000000000000, -0.000000000000000000 ) ) ;
#72 = STYLED_ITEM ( 'NONE', ( #156 ), #10 ) ;
#73 = FILL_AREA_STYLE_COLOUR ( '', #56 ) ;
#74 = ORIENTED_EDGE ( 'NONE', *, *, #7, .T. ) ;
#75 = EDGE_LOOP ( 'NONE', ( #119, #267 ) ) ;
#76 = DIRECTION ( 'NONE',  ( -1.000000000000000000, 0.000000000000000000, 0.000000000000000000 ) ) ;
#77 = ORIENTED_EDGE ( 'NONE', *, *, #217, .T. ) ;
#78 = ORIENTED_EDGE ( 'NONE', *, *, #248, .T. ) ;
#79 = ORIENTED_EDGE ( 'NONE', *, *, #263, .T. ) ;
#80 = SURFACE_SIDE_STYLE ('',( #279 ) ) ;
#81 = AXIS2_PLACEMENT_3D ( 'NONE', #115, #94, #282 ) ;
#82 = FILL_AREA_STYLE_COLOUR ( '', #63 ) ;
#83 =( CONVERSION_BASED_UNIT ( 'INCH', #5 ) LENGTH_UNIT ( ) NAMED_UNIT ( #61 ) );
#84 = DIRECTION ( 'NONE',  ( -3.061616997868386099E-17, 1.000000000000000000, -0.000000000000000000 ) ) ;
#85 = EDGE_CURVE ( 'NONE', #26, #125, #270, .T. ) ;
#86 = SURFACE_STYLE_FILL_AREA ( #9 ) ;
#87 = AXIS2_PLACEMENT_3D ( 'NONE', #210, #238, #160 ) ;
#88 =( GEOMETRIC_REPRESENTATION_CONTEXT ( 3 ) GLOBAL_UNCERTAINTY_ASSIGNED_CONTEXT ( ( #105 ) ) GLOBAL_UNIT_ASSIGNED_CONTEXT ( ( #57, #152, #230 ) ) REPRESENTATION_CONTEXT ( 'NONE', 'WORKASPACE' ) );
#89 = DIRECTION ( 'NONE',  ( -0.000000000000000000, -1.000000000000000000, -0.000000000000000000 ) ) ;
#90 = UNCERTAINTY_MEASURE_WITH_UNIT (LENGTH_MEASURE( 1.000000000000000082E-05 ), #180, 'distance_accuracy_value', 'NONE');
#91 = DIRECTION ( 'NONE',  ( -0.000000000000000000, -1.000000000000000000, -0.000000000000000000 ) ) ;
#92 = AXIS2_PLACEMENT_3D ( 'NONE', #189, #235, #18 ) ;
#93 = CARTESIAN_POINT ( 'NONE',  ( 0.000000000000000000, 0.000000000000000000, 0.000000000000000000 ) ) ;
#94 = DIRECTION ( 'NONE',  ( -3.061616997868386099E-17, 1.000000000000000000, -0.000000000000000000 ) ) ;
#95 = FACE_OUTER_BOUND ( 'NONE', #100, .T. ) ;
#96 =( CONVERSION_BASED_UNIT ( 'INCH', #226 ) LENGTH_UNIT ( ) NAMED_UNIT ( #241 ) );
#97 = PRESENTATION_LAYER_ASSIGNMENT (  '', '', ( #225 ) ) ;
#98 = VERTEX_POINT ( 'NONE', #118 ) ;
#99 = CARTESIAN_POINT ( 'NONE',  ( 0.000000000000000000, 1.000000000000000000, 0.000000000000000000 ) ) ;
#100 = EDGE_LOOP ( 'NONE', ( #304, #128, #30, #103 ) ) ;
#101 = DIRECTION ( 'NONE',  ( 0.000000000000000000, 1.000000000000000000, 0.000000000000000000 ) ) ;
#102 = FACE_OUTER_BOUND ( 'NONE', #27, .T. ) ;
#103 = ORIENTED_EDGE ( 'NONE', *, *, #142, .F. ) ;
#104 = CIRCLE ( 'NONE', #23, 0.1250000000000000278 ) ;
#105 = UNCERTAINTY_MEASURE_WITH_UNIT (LENGTH_MEASURE( 1.000000000000000082E-05 ), #57, 'distance_accuracy_value', 'NONE');
#106 = ORIENTED_EDGE ( 'NONE', *, *, #268, .F. ) ;
#107 =( LENGTH_UNIT ( ) NAMED_UNIT ( * ) SI_UNIT ( $, .METRE. ) );
#108 = ADVANCED_FACE ( 'NONE', ( #216 ), #302, .F. ) ;
#109 = AXIS2_PLACEMENT_3D ( 'NONE', #99, #71, #167 ) ;
#110 =( NAMED_UNIT ( * ) PLANE_ANGLE_UNIT ( ) SI_UNIT ( $, .RADIAN. ) );
#111 = DIMENSIONAL_EXPONENTS ( 1.000000000000000000, 0.000000000000000000, 0.000000000000000000, 0.000000000000000000, 0.000000000000000000, 0.000000000000000000, 0.000000000000000000 ) ;
#112 = VECTOR ( 'NONE', #285, 39.37007874015748143 ) ;
#113 = CARTESIAN_POINT ( 'NONE',  ( 1.530808498934191509E-17, 0.000000000000000000, 0.1250000000000000000 ) ) ;
#114 = CARTESIAN_POINT ( 'NONE',  ( 0.000000000000000000, 0.000000000000000000, -0.1250000000000000000 ) ) ;
#115 = CARTESIAN_POINT ( 'NONE',  ( -6.123233995736772199E-17, 3.000000000000000444, 0.000000000000000000 ) ) ;
#116 = MECHANICAL_DESIGN_GEOMETRIC_PRESENTATION_REPRESENTATION (  '', ( #201 ), #39 ) ;
#117 = AXIS2_PLACEMENT_3D ( 'NONE', #155, #255, #233 ) ;
#118 = CARTESIAN_POINT ( 'NONE',  ( 1.530808498934191817E-17, 1.000000000000000000, 0.1250000000000000278 ) ) ;
#119 = ORIENTED_EDGE ( 'NONE', *, *, #47, .T. ) ;
#120 =( NAMED_UNIT ( * ) SI_UNIT ( $, .STERADIAN. ) SOLID_ANGLE_UNIT ( ) );
#121 = CIRCLE ( 'NONE', #81, 0.1250000000000000833 ) ;
#122 = MECHANICAL_DESIGN_GEOMETRIC_PRESENTATION_REPRESENTATION (  '', ( #16 ), #130 ) ;
#123 = ORIENTED_EDGE ( 'NONE', *, *, #263, .F. ) ;
#124 = PRESENTATION_STYLE_ASSIGNMENT (( #223 ) ) ;
#125 = VERTEX_POINT ( 'NONE', #113 ) ;
#126 = ORIENTED_EDGE ( 'NONE', *, *, #85, .T. ) ;
#127 = CYLINDRICAL_SURFACE ( 'NONE', #129, 0.1250000000000000000 ) ;
#128 = ORIENTED_EDGE ( 'NONE', *, *, #59, .T. ) ;
#129 = AXIS2_PLACEMENT_3D ( 'NONE', #247, #25, #303 ) ;
#130 =( GEOMETRIC_REPRESENTATION_CONTEXT ( 3 ) GLOBAL_UNCERTAINTY_ASSIGNED_CONTEXT ( ( #244 ) ) GLOBAL_UNIT_ASSIGNED_CONTEXT ( ( #83, #110, #274 ) ) REPRESENTATION_CONTEXT ( 'NONE', 'WORKASPACE' ) );
#131 = APPLICATION_PROTOCOL_DEFINITION ( 'draft international standard', 'automotive_design', 1998, #239 ) ;
#132 = SURFACE_SIDE_STYLE ('',( #4 ) ) ;
#133 = PRODUCT_DEFINITION_SHAPE ( 'NONE', 'NONE',  #212 ) ;
#134 = VECTOR ( 'NONE', #15, 39.37007874015748143 ) ;
#135 = DIMENSIONAL_EXPONENTS ( 1.000000000000000000, 0.000000000000000000, 0.000000000000000000, 0.000000000000000000, 0.000000000000000000, 0.000000000000000000, 0.000000000000000000 ) ;
#136 = PRODUCT_CONTEXT ( 'NONE', #149, 'mechanical' ) ;
#137 = CARTESIAN_POINT ( 'NONE',  ( 0.1250000000000000278, 1.000000000000000000, 1.530808498934192433E-17 ) ) ;
#138 = CARTESIAN_POINT ( 'NONE',  ( 0.000000000000000000, 1.000000000000000000, -0.1250000000000000278 ) ) ;
#139 = SURFACE_SIDE_STYLE ('',( #35 ) ) ;
#140 = LINE ( 'NONE', #164, #112 ) ;
#141 = DIRECTION ( 'NONE',  ( 0.000000000000000000, 0.000000000000000000, -1.000000000000000000 ) ) ;
#142 = EDGE_CURVE ( 'NONE', #307, #309, #258, .T. ) ;
#143 = STYLED_ITEM ( 'NONE', ( #124 ), #260 ) ;
#144 = DIRECTION ( 'NONE',  ( 0.000000000000000000, 0.000000000000000000, -1.000000000000000000 ) ) ;
#145 = FILL_AREA_STYLE ('',( #48 ) ) ;
#146 = ORIENTED_EDGE ( 'NONE', *, *, #7, .F. ) ;
#147 = AXIS2_PLACEMENT_3D ( 'NONE', #20, #89, #215 ) ;
#148 = VERTEX_POINT ( 'NONE', #138 ) ;
#149 = APPLICATION_CONTEXT ( 'automotive_design' ) ;
#150 = APPLICATION_PROTOCOL_DEFINITION ( 'draft international standard', 'automotive_design', 1998, #149 ) ;
#151 =( GEOMETRIC_REPRESENTATION_CONTEXT ( 3 ) GLOBAL_UNCERTAINTY_ASSIGNED_CONTEXT ( ( #90 ) ) GLOBAL_UNIT_ASSIGNED_CONTEXT ( ( #180, #276, #181 ) ) REPRESENTATION_CONTEXT ( 'NONE', 'WORKASPACE' ) );
#152 =( NAMED_UNIT ( * ) PLANE_ANGLE_UNIT ( ) SI_UNIT ( $, .RADIAN. ) );
#153 = FILL_AREA_STYLE_COLOUR ( '', #182 ) ;
#154 = SURFACE_STYLE_USAGE ( .BOTH. , #6 ) ;
#155 = CARTESIAN_POINT ( 'NONE',  ( 0.000000000000000000, 0.000000000000000000, 0.000000000000000000 ) ) ;
#156 = PRESENTATION_STYLE_ASSIGNMENT (( #154 ) ) ;
#157 = AXIS2_PLACEMENT_3D ( 'NONE', #38, #163, #299 ) ;
#158 =( LENGTH_UNIT ( ) NAMED_UNIT ( * ) SI_UNIT ( $, .METRE. ) );
#159 = DIMENSIONAL_EXPONENTS ( 1.000000000000000000, 0.000000000000000000, 0.000000000000000000, 0.000000000000000000, 0.000000000000000000, 0.000000000000000000, 0.000000000000000000 ) ;
#160 = DIRECTION ( 'NONE',  ( 1.000000000000000000, 3.061616997868386099E-17, 0.000000000000000000 ) ) ;
#161 = LINE ( 'NONE', #114, #52 ) ;
#162 = COLOUR_RGB ( '',0.7921568627450980005, 0.8196078431372548767, 0.9333333333333333481 ) ;
#163 = DIRECTION ( 'NONE',  ( -3.061616997868386099E-17, 1.000000000000000000, -0.000000000000000000 ) ) ;
#164 = CARTESIAN_POINT ( 'NONE',  ( 0.1249999999999999861, 3.000000000000000444, 1.530808498934192125E-17 ) ) ;
#165 = CIRCLE ( 'NONE', #92, 0.1250000000000000833 ) ;
#166 = CIRCLE ( 'NONE', #109, 0.1250000000000000278 ) ;
#167 = DIRECTION ( 'NONE',  ( 0.000000000000000000, 0.000000000000000000, -1.000000000000000000 ) ) ;
#168 = FILL_AREA_STYLE ('',( #73 ) ) ;
#169 = EDGE_LOOP ( 'NONE', ( #106, #292 ) ) ;
#170 = LINE ( 'NONE', #220, #232 ) ;
#171 = FACE_OUTER_BOUND ( 'NONE', #53, .T. ) ;
#172 = VERTEX_POINT ( 'NONE', #213 ) ;
#173 = PLANE ( 'NONE',  #290 ) ;
#174 = ORIENTED_EDGE ( 'NONE', *, *, #207, .F. ) ;
#175 =( LENGTH_UNIT ( ) NAMED_UNIT ( * ) SI_UNIT ( $, .METRE. ) );
#176 =( NAMED_UNIT ( * ) PLANE_ANGLE_UNIT ( ) SI_UNIT ( $, .RADIAN. ) );
#177 = PRESENTATION_LAYER_ASSIGNMENT (  '', '', ( #45 ) ) ;
#178 = ADVANCED_BREP_SHAPE_REPRESENTATION ( '48135', ( #10, #11, #265 ), #88 ) ;
#179 = SHAPE_DEFINITION_REPRESENTATION ( #133, #178 ) ;
#180 =( CONVERSION_BASED_UNIT ( 'INCH', #184 ) LENGTH_UNIT ( ) NAMED_UNIT ( #111 ) );
#181 =( NAMED_UNIT ( * ) SI_UNIT ( $, .STERADIAN. ) SOLID_ANGLE_UNIT ( ) );
#182 = COLOUR_RGB ( '',1.000000000000000000, 0.000000000000000000, 0.000000000000000000 ) ;
#183 = CIRCLE ( 'NONE', #259, 0.1250000000000000278 ) ;
#184 = LENGTH_MEASURE_WITH_UNIT ( LENGTH_MEASURE( 0.02539999999999999897 ), #204 );
#185 = ADVANCED_FACE ( 'NONE', ( #95 ), #280, .T. ) ;
#186 = DIRECTION ( 'NONE',  ( -3.061616997868386099E-17, 1.000000000000000000, -0.000000000000000000 ) ) ;
#187 = DIRECTION ( 'NONE',  ( 0.000000000000000000, 0.000000000000000000, -1.000000000000000000 ) ) ;
#188 = AXIS2_PLACEMENT_3D ( 'NONE', #262, #65, #141 ) ;
#189 = CARTESIAN_POINT ( 'NONE',  ( -6.123233995736772199E-17, 3.000000000000000444, 0.000000000000000000 ) ) ;
#190 = UNCERTAINTY_MEASURE_WITH_UNIT (LENGTH_MEASURE( 1.000000000000000082E-05 ), #295, 'distance_accuracy_value', 'NONE');
#191 = PLANE ( 'NONE',  #87 ) ;
#192 = ADVANCED_FACE ( 'NONE', ( #257 ), #191, .F. ) ;
#193 = ORIENTED_EDGE ( 'NONE', *, *, #85, .F. ) ;
#194 = SURFACE_STYLE_FILL_AREA ( #54 ) ;
#195 = DIRECTION ( 'NONE',  ( -0.000000000000000000, -1.000000000000000000, -0.000000000000000000 ) ) ;
#196 = EDGE_LOOP ( 'NONE', ( #51, #224, #227, #174 ) ) ;
#197 =( GEOMETRIC_REPRESENTATION_CONTEXT ( 3 ) GLOBAL_UNCERTAINTY_ASSIGNED_CONTEXT ( ( #308 ) ) GLOBAL_UNIT_ASSIGNED_CONTEXT ( ( #50, #218, #46 ) ) REPRESENTATION_CONTEXT ( 'NONE', 'WORKASPACE' ) );
#198 = FACE_OUTER_BOUND ( 'NONE', #251, .T. ) ;
#199 = EDGE_LOOP ( 'NONE', ( #146, #3, #77, #49 ) ) ;
#200 = LENGTH_MEASURE_WITH_UNIT ( LENGTH_MEASURE( 0.02539999999999999897 ), #158 );
#201 = STYLED_ITEM ( 'NONE', ( #234 ), #32 ) ;
#202 = PRESENTATION_LAYER_ASSIGNMENT (  '', '', ( #16 ) ) ;
#203 = EDGE_CURVE ( 'NONE', #98, #148, #34, .T. ) ;
#204 =( LENGTH_UNIT ( ) NAMED_UNIT ( * ) SI_UNIT ( $, .METRE. ) );
#205 = DIRECTION ( 'NONE',  ( 1.000000000000000000, 0.000000000000000000, 0.000000000000000000 ) ) ;
#206 = DIRECTION ( 'NONE',  ( -1.000000000000000000, 0.000000000000000000, 0.000000000000000000 ) ) ;
#207 = EDGE_CURVE ( 'NONE', #172, #309, #165, .T. ) ;
#208 = CLOSED_SHELL ( 'NONE', ( #254, #260, #32, #297 ) ) ;
#209 = PRODUCT ( '48135', '48135', '', ( #136 ) ) ;
#210 = CARTESIAN_POINT ( 'NONE',  ( 0.1250000000000000278, 3.000000000000000444, 0.000000000000000000 ) ) ;
#211 = DIRECTION ( 'NONE',  ( -0.000000000000000000, -1.000000000000000000, -0.000000000000000000 ) ) ;
#212 = PRODUCT_DEFINITION ( 'UNKNOWN', '', #41, #42 ) ;
#213 = CARTESIAN_POINT ( 'NONE',  ( 0.1250000000000000278, 3.000000000000000444, 1.530808498934192433E-17 ) ) ;
#214 = AXIS2_PLACEMENT_3D ( 'NONE', #298, #91, #187 ) ;
#215 = DIRECTION ( 'NONE',  ( 0.000000000000000000, 0.000000000000000000, -1.000000000000000000 ) ) ;
#216 = FACE_OUTER_BOUND ( 'NONE', #169, .T. ) ;
#217 = EDGE_CURVE ( 'NONE', #148, #26, #161, .T. ) ;
#218 =( NAMED_UNIT ( * ) PLANE_ANGLE_UNIT ( ) SI_UNIT ( $, .RADIAN. ) );
#219 = AXIS2_PLACEMENT_3D ( 'NONE', #93, #261, #144 ) ;
#220 = CARTESIAN_POINT ( 'NONE',  ( 1.530808498934191509E-17, 0.000000000000000000, 0.1250000000000000000 ) ) ;
#221 =( LENGTH_UNIT ( ) NAMED_UNIT ( * ) SI_UNIT ( $, .METRE. ) );
#222 = FILL_AREA_STYLE_COLOUR ( '', #162 ) ;
#223 = SURFACE_STYLE_USAGE ( .BOTH. , #29 ) ;
#224 = ORIENTED_EDGE ( 'NONE', *, *, #28, .T. ) ;
#225 = STYLED_ITEM ( 'NONE', ( #249 ), #254 ) ;
#226 = LENGTH_MEASURE_WITH_UNIT ( LENGTH_MEASURE( 0.02539999999999999897 ), #221 );
#227 = ORIENTED_EDGE ( 'NONE', *, *, #142, .T. ) ;
#228 = CARTESIAN_POINT ( 'NONE',  ( 7.582401355855259480E-33, 1.000000000000000000, 0.000000000000000000 ) ) ;
#229 = DIRECTION ( 'NONE',  ( 0.000000000000000000, 0.000000000000000000, 1.000000000000000000 ) ) ;
#230 =( NAMED_UNIT ( * ) SI_UNIT ( $, .STERADIAN. ) SOLID_ANGLE_UNIT ( ) );
#231 = CYLINDRICAL_SURFACE ( 'NONE', #219, 0.1250000000000000000 ) ;
#232 = VECTOR ( 'NONE', #195, 39.37007874015748143 ) ;
#233 = DIRECTION ( 'NONE',  ( 0.000000000000000000, 0.000000000000000000, -1.000000000000000000 ) ) ;
#234 = PRESENTATION_STYLE_ASSIGNMENT (( #60 ) ) ;
#235 = DIRECTION ( 'NONE',  ( -3.061616997868386099E-17, 1.000000000000000000, -0.000000000000000000 ) ) ;
#236 = AXIS2_PLACEMENT_3D ( 'NONE', #284, #186, #242 ) ;
#237 = DIMENSIONAL_EXPONENTS ( 1.000000000000000000, 0.000000000000000000, 0.000000000000000000, 0.000000000000000000, 0.000000000000000000, 0.000000000000000000, 0.000000000000000000 ) ;
#238 = DIRECTION ( 'NONE',  ( 3.061616997868386099E-17, -1.000000000000000000, 0.000000000000000000 ) ) ;
#239 = APPLICATION_CONTEXT ( 'automotive_design' ) ;
#240 = CARTESIAN_POINT ( 'NONE',  ( -0.1250000000000001388, 3.000000000000000444, 0.000000000000000000 ) ) ;
#241 = DIMENSIONAL_EXPONENTS ( 1.000000000000000000, 0.000000000000000000, 0.000000000000000000, 0.000000000000000000, 0.000000000000000000, 0.000000000000000000, 0.000000000000000000 ) ;
#242 = DIRECTION ( 'NONE',  ( -1.000000000000000000, 0.000000000000000000, 0.000000000000000000 ) ) ;
#243 = SURFACE_STYLE_USAGE ( .BOTH. , #271 ) ;
#244 = UNCERTAINTY_MEASURE_WITH_UNIT (LENGTH_MEASURE( 1.000000000000000082E-05 ), #83, 'distance_accuracy_value', 'NONE');
#245 = SURFACE_STYLE_FILL_AREA ( #145 ) ;
#246 = CLOSED_SHELL ( 'NONE', ( #185, #108, #67, #192 ) ) ;
#247 = CARTESIAN_POINT ( 'NONE',  ( 0.000000000000000000, 0.000000000000000000, 0.000000000000000000 ) ) ;
#248 = EDGE_CURVE ( 'NONE', #125, #26, #300, .T. ) ;
#249 = PRESENTATION_STYLE_ASSIGNMENT (( #243 ) ) ;
#250 = ORIENTED_EDGE ( 'NONE', *, *, #217, .F. ) ;
#251 = EDGE_LOOP ( 'NONE', ( #123, #288 ) ) ;
#252 = CARTESIAN_POINT ( 'NONE',  ( -0.1250000000000000278, 1.000000000000000000, 0.000000000000000000 ) ) ;
#253 = CARTESIAN_POINT ( 'NONE',  ( 0.000000000000000000, 0.000000000000000000, -0.1250000000000000000 ) ) ;
#254 = ADVANCED_FACE ( 'NONE', ( #102 ), #127, .T. ) ;
#255 = DIRECTION ( 'NONE',  ( 0.000000000000000000, -1.000000000000000000, -0.000000000000000000 ) ) ;
#256 =( LENGTH_UNIT ( ) NAMED_UNIT ( * ) SI_UNIT ( $, .METRE. ) );
#257 = FACE_OUTER_BOUND ( 'NONE', #75, .T. ) ;
#258 = LINE ( 'NONE', #40, #134 ) ;
#259 = AXIS2_PLACEMENT_3D ( 'NONE', #269, #266, #76 ) ;
#260 = ADVANCED_FACE ( 'NONE', ( #198 ), #173, .T. ) ;
#261 = DIRECTION ( 'NONE',  ( -0.000000000000000000, -1.000000000000000000, -0.000000000000000000 ) ) ;
#262 = CARTESIAN_POINT ( 'NONE',  ( 0.000000000000000000, 1.000000000000000000, 0.000000000000000000 ) ) ;
#263 = EDGE_CURVE ( 'NONE', #148, #98, #166, .T. ) ;
#264 = PRESENTATION_LAYER_ASSIGNMENT (  '', '', ( #143 ) ) ;
#265 = AXIS2_PLACEMENT_3D ( 'NONE', #293, #229, #205 ) ;
#266 = DIRECTION ( 'NONE',  ( -3.061616997868386099E-17, 1.000000000000000000, -0.000000000000000000 ) ) ;
#267 = ORIENTED_EDGE ( 'NONE', *, *, #207, .T. ) ;
#268 = EDGE_CURVE ( 'NONE', #307, #22, #183, .T. ) ;
#269 = CARTESIAN_POINT ( 'NONE',  ( 7.582401355855259480E-33, 1.000000000000000000, 0.000000000000000000 ) ) ;
#270 = CIRCLE ( 'NONE', #147, 0.1250000000000000000 ) ;
#271 = SURFACE_SIDE_STYLE ('',( #194 ) ) ;
#272 = UNCERTAINTY_MEASURE_WITH_UNIT (LENGTH_MEASURE( 1.000000000000000082E-05 ), #96, 'distance_accuracy_value', 'NONE');
#273 = CARTESIAN_POINT ( 'NONE',  ( 0.000000000000000000, 1.000000000000000000, 0.000000000000000000 ) ) ;
#274 =( NAMED_UNIT ( * ) SI_UNIT ( $, .STERADIAN. ) SOLID_ANGLE_UNIT ( ) );
#275 = PRESENTATION_LAYER_ASSIGNMENT (  '', '', ( #72 ) ) ;
#276 =( NAMED_UNIT ( * ) PLANE_ANGLE_UNIT ( ) SI_UNIT ( $, .RADIAN. ) );
#277 = PRESENTATION_STYLE_ASSIGNMENT (( #66 ) ) ;
#278 = COLOUR_RGB ( '',1.000000000000000000, 0.000000000000000000, 0.000000000000000000 ) ;
#279 = SURFACE_STYLE_FILL_AREA ( #64 ) ;
#280 = CYLINDRICAL_SURFACE ( 'NONE', #157, 0.1250000000000000555 ) ;
#281 = UNCERTAINTY_MEASURE_WITH_UNIT (LENGTH_MEASURE( 1.000000000000000082E-05 ), #12, 'distance_accuracy_value', 'NONE');
#282 = DIRECTION ( 'NONE',  ( -1.000000000000000000, 0.000000000000000000, 0.000000000000000000 ) ) ;
#283 =( GEOMETRIC_REPRESENTATION_CONTEXT ( 3 ) GLOBAL_UNCERTAINTY_ASSIGNED_CONTEXT ( ( #281 ) ) GLOBAL_UNIT_ASSIGNED_CONTEXT ( ( #12, #176, #8 ) ) REPRESENTATION_CONTEXT ( 'NONE', 'WORKASPACE' ) );
#284 = CARTESIAN_POINT ( 'NONE',  ( -6.123233995736772199E-17, 3.000000000000000444, 0.000000000000000000 ) ) ;
#285 = DIRECTION ( 'NONE',  ( -3.061616997868386099E-17, 1.000000000000000000, -0.000000000000000000 ) ) ;
#286 = AXIS2_PLACEMENT_3D ( 'NONE', #44, #301, #43 ) ;
#287 = PLANE ( 'NONE',  #117 ) ;
#288 = ORIENTED_EDGE ( 'NONE', *, *, #203, .F. ) ;
#289 = DIRECTION ( 'NONE',  ( 0.000000000000000000, -0.000000000000000000, 1.000000000000000000 ) ) ;
#290 = AXIS2_PLACEMENT_3D ( 'NONE', #273, #101, #289 ) ;
#291 =( LENGTH_UNIT ( ) NAMED_UNIT ( * ) SI_UNIT ( $, .METRE. ) );
#292 = ORIENTED_EDGE ( 'NONE', *, *, #28, .F. ) ;
#293 = CARTESIAN_POINT ( 'NONE',  ( 0.000000000000000000, 0.000000000000000000, 0.000000000000000000 ) ) ;
#294 = PRODUCT_RELATED_PRODUCT_CATEGORY ( 'part', '', ( #209 ) ) ;
#295 =( CONVERSION_BASED_UNIT ( 'INCH', #62 ) LENGTH_UNIT ( ) NAMED_UNIT ( #13 ) );
#296 = MECHANICAL_DESIGN_GEOMETRIC_PRESENTATION_REPRESENTATION (  '', ( #143 ), #24 ) ;
#297 = ADVANCED_FACE ( 'NONE', ( #171 ), #287, .T. ) ;
#298 = CARTESIAN_POINT ( 'NONE',  ( 0.000000000000000000, 0.000000000000000000, 0.000000000000000000 ) ) ;
#299 = DIRECTION ( 'NONE',  ( -1.000000000000000000, 0.000000000000000000, 0.000000000000000000 ) ) ;
#300 = CIRCLE ( 'NONE', #214, 0.1250000000000000000 ) ;
#301 = DIRECTION ( 'NONE',  ( -3.061616997868386099E-17, 1.000000000000000000, 0.000000000000000000 ) ) ;
#302 = PLANE ( 'NONE',  #286 ) ;
#303 = DIRECTION ( 'NONE',  ( 0.000000000000000000, 0.000000000000000000, -1.000000000000000000 ) ) ;
#304 = ORIENTED_EDGE ( 'NONE', *, *, #268, .T. ) ;
#305 = MECHANICAL_DESIGN_GEOMETRIC_PRESENTATION_REPRESENTATION (  '', ( #45 ), #283 ) ;
#306 = LENGTH_MEASURE_WITH_UNIT ( LENGTH_MEASURE( 0.02539999999999999897 ), #291 );
#307 = VERTEX_POINT ( 'NONE', #252 ) ;
#308 = UNCERTAINTY_MEASURE_WITH_UNIT (LENGTH_MEASURE( 1.000000000000000082E-05 ), #50, 'distance_accuracy_value', 'NONE');
#309 = VERTEX_POINT ( 'NONE', #240 ) ;
ENDSEC;
END-ISO-10303-21;
