ISO-10303-21;
HEADER;
FILE_DESCRIPTION (( 'STEP AP214' ),
    '1' );
FILE_NAME ('48021.STEP',
    '2023-06-22T20:57:49',
    ( '' ),
    ( '' ),
    'SwSTEP 2.0',
    'SolidWorks 2023',
    '' );
FILE_SCHEMA (( 'AUTOMOTIVE_DESIGN' ));
ENDSEC;

DATA;
#1 = AXIS2_PLACEMENT_3D ( 'NONE', #280, #184, #306 ) ;
#2 = PRESENTATION_STYLE_ASSIGNMENT (( #124 ) ) ;
#3 = ORIENTED_EDGE ( 'NONE', *, *, #136, .F. ) ;
#4 =( GEOMETRIC_REPRESENTATION_CONTEXT ( 3 ) GLOBAL_UNCERTAINTY_ASSIGNED_CONTEXT ( ( #178 ) ) GLOBAL_UNIT_ASSIGNED_CONTEXT ( ( #197, #199, #151 ) ) REPRESENTATION_CONTEXT ( 'NONE', 'WORKASPACE' ) );
#5 = FACE_OUTER_BOUND ( 'NONE', #236, .T. ) ;
#6 = CIRCLE ( 'NONE', #257, 0.06250000000000005551 ) ;
#7 = SURFACE_SIDE_STYLE ('',( #265 ) ) ;
#8 = ADVANCED_FACE ( 'NONE', ( #5 ), #292, .T. ) ;
#9 = ORIENTED_EDGE ( 'NONE', *, *, #136, .T. ) ;
#10 = CARTESIAN_POINT ( 'NONE',  ( 0.06250000000000000000, 2.500000000000000000, 0.000000000000000000 ) ) ;
#11 = MECHANICAL_DESIGN_GEOMETRIC_PRESENTATION_REPRESENTATION (  '', ( #277 ), #113 ) ;
#12 = EDGE_CURVE ( 'NONE', #243, #222, #159, .T. ) ;
#13 = FACE_OUTER_BOUND ( 'NONE', #262, .T. ) ;
#14 = CARTESIAN_POINT ( 'NONE',  ( -0.06250000000000000000, 0.5000000000000001110, 0.000000000000000000 ) ) ;
#15 = UNCERTAINTY_MEASURE_WITH_UNIT (LENGTH_MEASURE( 1.000000000000000082E-05 ), #210, 'distance_accuracy_value', 'NONE');
#16 = AXIS2_PLACEMENT_3D ( 'NONE', #10, #122, #52 ) ;
#17 = CARTESIAN_POINT ( 'NONE',  ( 0.06250000000000000000, 2.500000000000000000, 7.654042494670963708E-18 ) ) ;
#18 = FACE_OUTER_BOUND ( 'NONE', #294, .T. ) ;
#19 = CIRCLE ( 'NONE', #229, 0.06250000000000000000 ) ;
#20 = FILL_AREA_STYLE_COLOUR ( '', #67 ) ;
#21 = LENGTH_MEASURE_WITH_UNIT ( LENGTH_MEASURE( 0.02539999999999999897 ), #65 );
#22 = AXIS2_PLACEMENT_3D ( 'NONE', #299, #135, #226 ) ;
#23 = STYLED_ITEM ( 'NONE', ( #90 ), #195 ) ;
#24 = DIRECTION ( 'NONE',  ( 0.000000000000000000, 0.000000000000000000, -1.000000000000000000 ) ) ;
#25 = EDGE_CURVE ( 'NONE', #49, #268, #121, .T. ) ;
#26 =( LENGTH_UNIT ( ) NAMED_UNIT ( * ) SI_UNIT ( $, .METRE. ) );
#27 = FILL_AREA_STYLE ('',( #70 ) ) ;
#28 = EDGE_LOOP ( 'NONE', ( #100, #127, #69, #32 ) ) ;
#29 = SURFACE_SIDE_STYLE ('',( #217 ) ) ;
#30 = FILL_AREA_STYLE ('',( #220 ) ) ;
#31 =( CONVERSION_BASED_UNIT ( 'INCH', #189 ) LENGTH_UNIT ( ) NAMED_UNIT ( #244 ) );
#32 = ORIENTED_EDGE ( 'NONE', *, *, #25, .F. ) ;
#33 = VERTEX_POINT ( 'NONE', #132 ) ;
#34 = COLOUR_RGB ( '',0.7921568627450980005, 0.8196078431372548767, 0.9333333333333333481 ) ;
#35 = DIMENSIONAL_EXPONENTS ( 1.000000000000000000, 0.000000000000000000, 0.000000000000000000, 0.000000000000000000, 0.000000000000000000, 0.000000000000000000, 0.000000000000000000 ) ;
#36 = LINE ( 'NONE', #248, #53 ) ;
#37 = UNCERTAINTY_MEASURE_WITH_UNIT (LENGTH_MEASURE( 1.000000000000000082E-05 ), #126, 'distance_accuracy_value', 'NONE');
#38 = CLOSED_SHELL ( 'NONE', ( #193, #8, #55, #278 ) ) ;
#39 = CIRCLE ( 'NONE', #293, 0.06250000000000001388 ) ;
#40 = DIRECTION ( 'NONE',  ( -1.000000000000000000, 0.000000000000000000, 0.000000000000000000 ) ) ;
#41 = DIMENSIONAL_EXPONENTS ( 1.000000000000000000, 0.000000000000000000, 0.000000000000000000, 0.000000000000000000, 0.000000000000000000, 0.000000000000000000, 0.000000000000000000 ) ;
#42 = SURFACE_STYLE_USAGE ( .BOTH. , #43 ) ;
#43 = SURFACE_SIDE_STYLE ('',( #214 ) ) ;
#44 = PRESENTATION_LAYER_ASSIGNMENT (  '', '', ( #23 ) ) ;
#45 = LENGTH_MEASURE_WITH_UNIT ( LENGTH_MEASURE( 0.02539999999999999897 ), #138 );
#46 = DIRECTION ( 'NONE',  ( -3.061616997868383018E-17, 1.000000000000000000, -0.000000000000000000 ) ) ;
#47 = AXIS2_PLACEMENT_3D ( 'NONE', #206, #86, #245 ) ;
#48 = CARTESIAN_POINT ( 'NONE',  ( 2.929218325511440640E-35, 0.5000000000000000000, 0.000000000000000000 ) ) ;
#49 = VERTEX_POINT ( 'NONE', #17 ) ;
#50 = LINE ( 'NONE', #196, #263 ) ;
#51 = ORIENTED_EDGE ( 'NONE', *, *, #285, .T. ) ;
#52 = DIRECTION ( 'NONE',  ( 1.000000000000000000, 3.061616997868383018E-17, 0.000000000000000000 ) ) ;
#53 = VECTOR ( 'NONE', #156, 39.37007874015748143 ) ;
#54 = EDGE_LOOP ( 'NONE', ( #9, #125 ) ) ;
#55 = ADVANCED_FACE ( 'NONE', ( #227 ), #202, .T. ) ;
#56 = CARTESIAN_POINT ( 'NONE',  ( 0.000000000000000000, 0.000000000000000000, 0.000000000000000000 ) ) ;
#57 = DIMENSIONAL_EXPONENTS ( 1.000000000000000000, 0.000000000000000000, 0.000000000000000000, 0.000000000000000000, 0.000000000000000000, 0.000000000000000000, 0.000000000000000000 ) ;
#58 = EDGE_CURVE ( 'NONE', #33, #243, #19, .T. ) ;
#59 = PRODUCT ( '48021', '48021', '', ( #183 ) ) ;
#60 = DIRECTION ( 'NONE',  ( -0.000000000000000000, -1.000000000000000000, -0.000000000000000000 ) ) ;
#61 =( CONVERSION_BASED_UNIT ( 'INCH', #128 ) LENGTH_UNIT ( ) NAMED_UNIT ( #35 ) );
#62 = DIRECTION ( 'NONE',  ( -0.000000000000000000, -1.000000000000000000, -0.000000000000000000 ) ) ;
#63 = CARTESIAN_POINT ( 'NONE',  ( 0.06250000000000000000, 0.5000000000000001110, 7.654042494670963708E-18 ) ) ;
#64 =( NAMED_UNIT ( * ) SI_UNIT ( $, .STERADIAN. ) SOLID_ANGLE_UNIT ( ) );
#65 =( LENGTH_UNIT ( ) NAMED_UNIT ( * ) SI_UNIT ( $, .METRE. ) );
#66 = CLOSED_SHELL ( 'NONE', ( #71, #281, #165, #290 ) ) ;
#67 = COLOUR_RGB ( '',1.000000000000000000, 0.000000000000000000, 0.000000000000000000 ) ;
#68 = DIRECTION ( 'NONE',  ( -3.061616997868383018E-17, 1.000000000000000000, -0.000000000000000000 ) ) ;
#69 = ORIENTED_EDGE ( 'NONE', *, *, #82, .T. ) ;
#70 = FILL_AREA_STYLE_COLOUR ( '', #279 ) ;
#71 = ADVANCED_FACE ( 'NONE', ( #13 ), #155, .T. ) ;
#72 = ORIENTED_EDGE ( 'NONE', *, *, #77, .T. ) ;
#73 = DIRECTION ( 'NONE',  ( 0.000000000000000000, 0.000000000000000000, -1.000000000000000000 ) ) ;
#74 = VERTEX_POINT ( 'NONE', #63 ) ;
#75 = SURFACE_SIDE_STYLE ('',( #291 ) ) ;
#76 = EDGE_LOOP ( 'NONE', ( #166, #194 ) ) ;
#77 = EDGE_CURVE ( 'NONE', #243, #33, #140, .T. ) ;
#78 = CARTESIAN_POINT ( 'NONE',  ( 0.000000000000000000, 0.000000000000000000, 0.000000000000000000 ) ) ;
#79 = CARTESIAN_POINT ( 'NONE',  ( 0.000000000000000000, 0.5000000000000000000, 0.000000000000000000 ) ) ;
#80 =( NAMED_UNIT ( * ) PLANE_ANGLE_UNIT ( ) SI_UNIT ( $, .RADIAN. ) );
#81 = SURFACE_STYLE_FILL_AREA ( #108 ) ;
#82 = EDGE_CURVE ( 'NONE', #105, #268, #36, .T. ) ;
#83 =( GEOMETRIC_REPRESENTATION_CONTEXT ( 3 ) GLOBAL_UNCERTAINTY_ASSIGNED_CONTEXT ( ( #235 ) ) GLOBAL_UNIT_ASSIGNED_CONTEXT ( ( #61, #80, #246 ) ) REPRESENTATION_CONTEXT ( 'NONE', 'WORKASPACE' ) );
#84 = LENGTH_MEASURE_WITH_UNIT ( LENGTH_MEASURE( 0.02539999999999999897 ), #157 );
#85 = UNCERTAINTY_MEASURE_WITH_UNIT (LENGTH_MEASURE( 1.000000000000000082E-05 ), #92, 'distance_accuracy_value', 'NONE');
#86 = DIRECTION ( 'NONE',  ( -3.061616997868383018E-17, 1.000000000000000000, -0.000000000000000000 ) ) ;
#87 = CYLINDRICAL_SURFACE ( 'NONE', #1, 0.06250000000000002776 ) ;
#88 = AXIS2_PLACEMENT_3D ( 'NONE', #48, #102, #101 ) ;
#89 = DIRECTION ( 'NONE',  ( 0.000000000000000000, 0.000000000000000000, 1.000000000000000000 ) ) ;
#90 = PRESENTATION_STYLE_ASSIGNMENT (( #42 ) ) ;
#91 = SURFACE_STYLE_USAGE ( .BOTH. , #307 ) ;
#92 =( CONVERSION_BASED_UNIT ( 'INCH', #45 ) LENGTH_UNIT ( ) NAMED_UNIT ( #249 ) );
#93 = PRESENTATION_LAYER_ASSIGNMENT (  '', '', ( #250 ) ) ;
#94 = FILL_AREA_STYLE ('',( #20 ) ) ;
#95 = CARTESIAN_POINT ( 'NONE',  ( 7.654042494670959086E-18, 0.000000000000000000, 0.06250000000000001388 ) ) ;
#96 = FACE_OUTER_BOUND ( 'NONE', #76, .T. ) ;
#97 = ORIENTED_EDGE ( 'NONE', *, *, #107, .T. ) ;
#98 = AXIS2_PLACEMENT_3D ( 'NONE', #309, #89, #115 ) ;
#99 = PLANE ( 'NONE',  #16 ) ;
#100 = ORIENTED_EDGE ( 'NONE', *, *, #285, .F. ) ;
#101 = DIRECTION ( 'NONE',  ( -1.000000000000000000, -3.061616997868383018E-17, 0.000000000000000000 ) ) ;
#102 = DIRECTION ( 'NONE',  ( -3.061616997868383018E-17, 1.000000000000000000, 0.000000000000000000 ) ) ;
#103 = LENGTH_MEASURE_WITH_UNIT ( LENGTH_MEASURE( 0.02539999999999999897 ), #271 );
#104 = AXIS2_PLACEMENT_3D ( 'NONE', #164, #46, #142 ) ;
#105 = VERTEX_POINT ( 'NONE', #14 ) ;
#106 = DIRECTION ( 'NONE',  ( -0.000000000000000000, -1.000000000000000000, -0.000000000000000000 ) ) ;
#107 = EDGE_CURVE ( 'NONE', #105, #74, #240, .T. ) ;
#108 = FILL_AREA_STYLE ('',( #225 ) ) ;
#109 = DIRECTION ( 'NONE',  ( -3.061616997868383018E-17, 1.000000000000000000, -0.000000000000000000 ) ) ;
#110 = PRESENTATION_LAYER_ASSIGNMENT (  '', '', ( #154 ) ) ;
#111 = DIRECTION ( 'NONE',  ( 0.000000000000000000, 0.000000000000000000, -1.000000000000000000 ) ) ;
#112 = CARTESIAN_POINT ( 'NONE',  ( 0.000000000000000000, 0.5000000000000000000, 0.000000000000000000 ) ) ;
#113 =( GEOMETRIC_REPRESENTATION_CONTEXT ( 3 ) GLOBAL_UNCERTAINTY_ASSIGNED_CONTEXT ( ( #134 ) ) GLOBAL_UNIT_ASSIGNED_CONTEXT ( ( #247, #254, #133 ) ) REPRESENTATION_CONTEXT ( 'NONE', 'WORKASPACE' ) );
#114 = AXIS2_PLACEMENT_3D ( 'NONE', #179, #109, #40 ) ;
#115 = DIRECTION ( 'NONE',  ( 1.000000000000000000, 0.000000000000000000, 0.000000000000000000 ) ) ;
#116 = CARTESIAN_POINT ( 'NONE',  ( -6.123233995736766036E-17, 2.500000000000000000, 0.000000000000000000 ) ) ;
#117 = CARTESIAN_POINT ( 'NONE',  ( 0.000000000000000000, 0.000000000000000000, -0.06250000000000001388 ) ) ;
#118 = FILL_AREA_STYLE_COLOUR ( '', #130 ) ;
#119 = PRODUCT_DEFINITION_CONTEXT ( 'detailed design', #300, 'design' ) ;
#120 = EDGE_LOOP ( 'NONE', ( #264, #147 ) ) ;
#121 = CIRCLE ( 'NONE', #22, 0.06250000000000005551 ) ;
#122 = DIRECTION ( 'NONE',  ( 3.061616997868383018E-17, -1.000000000000000000, 0.000000000000000000 ) ) ;
#123 = PRESENTATION_STYLE_ASSIGNMENT (( #172 ) ) ;
#124 = SURFACE_STYLE_USAGE ( .BOTH. , #7 ) ;
#125 = ORIENTED_EDGE ( 'NONE', *, *, #162, .T. ) ;
#126 =( CONVERSION_BASED_UNIT ( 'INCH', #234 ) LENGTH_UNIT ( ) NAMED_UNIT ( #252 ) );
#127 = ORIENTED_EDGE ( 'NONE', *, *, #258, .T. ) ;
#128 = LENGTH_MEASURE_WITH_UNIT ( LENGTH_MEASURE( 0.02539999999999999897 ), #272 );
#129 = UNCERTAINTY_MEASURE_WITH_UNIT (LENGTH_MEASURE( 1.000000000000000082E-05 ), #31, 'distance_accuracy_value', 'NONE');
#130 = COLOUR_RGB ( '',0.7921568627450980005, 0.8196078431372548767, 0.9333333333333333481 ) ;
#131 = DIRECTION ( 'NONE',  ( -0.000000000000000000, -1.000000000000000000, -0.000000000000000000 ) ) ;
#132 = CARTESIAN_POINT ( 'NONE',  ( 7.654042494670959086E-18, 0.5000000000000000000, 0.06250000000000000000 ) ) ;
#133 =( NAMED_UNIT ( * ) SI_UNIT ( $, .STERADIAN. ) SOLID_ANGLE_UNIT ( ) );
#134 = UNCERTAINTY_MEASURE_WITH_UNIT (LENGTH_MEASURE( 1.000000000000000082E-05 ), #247, 'distance_accuracy_value', 'NONE');
#135 = DIRECTION ( 'NONE',  ( -3.061616997868383018E-17, 1.000000000000000000, -0.000000000000000000 ) ) ;
#136 = EDGE_CURVE ( 'NONE', #222, #218, #39, .T. ) ;
#137 = CARTESIAN_POINT ( 'NONE',  ( 0.000000000000000000, 0.000000000000000000, 0.000000000000000000 ) ) ;
#138 =( LENGTH_UNIT ( ) NAMED_UNIT ( * ) SI_UNIT ( $, .METRE. ) );
#139 = SURFACE_STYLE_FILL_AREA ( #94 ) ;
#140 = CIRCLE ( 'NONE', #282, 0.06250000000000000000 ) ;
#141 = PRODUCT_DEFINITION ( 'UNKNOWN', '', #230, #119 ) ;
#142 = DIRECTION ( 'NONE',  ( -1.000000000000000000, 0.000000000000000000, 0.000000000000000000 ) ) ;
#143 = SHAPE_DEFINITION_REPRESENTATION ( #269, #215 ) ;
#144 = DIRECTION ( 'NONE',  ( -0.000000000000000000, -1.000000000000000000, -0.000000000000000000 ) ) ;
#145 = MECHANICAL_DESIGN_GEOMETRIC_PRESENTATION_REPRESENTATION (  '', ( #154 ), #182 ) ;
#146 =( NAMED_UNIT ( * ) PLANE_ANGLE_UNIT ( ) SI_UNIT ( $, .RADIAN. ) );
#147 = ORIENTED_EDGE ( 'NONE', *, *, #25, .T. ) ;
#148 = ORIENTED_EDGE ( 'NONE', *, *, #201, .F. ) ;
#149 = AXIS2_PLACEMENT_3D ( 'NONE', #78, #286, #73 ) ;
#150 = ORIENTED_EDGE ( 'NONE', *, *, #253, .F. ) ;
#151 =( NAMED_UNIT ( * ) SI_UNIT ( $, .STERADIAN. ) SOLID_ANGLE_UNIT ( ) );
#152 = ORIENTED_EDGE ( 'NONE', *, *, #82, .F. ) ;
#153 = MECHANICAL_DESIGN_GEOMETRIC_PRESENTATION_REPRESENTATION (  '', ( #187 ), #4 ) ;
#154 = STYLED_ITEM ( 'NONE', ( #2 ), #278 ) ;
#155 = CYLINDRICAL_SURFACE ( 'NONE', #47, 0.06250000000000002776 ) ;
#156 = DIRECTION ( 'NONE',  ( -3.061616997868383018E-17, 1.000000000000000000, -0.000000000000000000 ) ) ;
#157 =( LENGTH_UNIT ( ) NAMED_UNIT ( * ) SI_UNIT ( $, .METRE. ) );
#158 = AXIS2_PLACEMENT_3D ( 'NONE', #79, #176, #273 ) ;
#159 = LINE ( 'NONE', #203, #256 ) ;
#160 = AXIS2_PLACEMENT_3D ( 'NONE', #188, #186, #24 ) ;
#161 = APPLICATION_PROTOCOL_DEFINITION ( 'draft international standard', 'automotive_design', 1998, #237 ) ;
#162 = EDGE_CURVE ( 'NONE', #218, #222, #224, .T. ) ;
#163 = LINE ( 'NONE', #95, #298 ) ;
#164 = CARTESIAN_POINT ( 'NONE',  ( 0.000000000000000000, 0.5000000000000001110, 0.000000000000000000 ) ) ;
#165 = ADVANCED_FACE ( 'NONE', ( #303 ), #87, .T. ) ;
#166 = ORIENTED_EDGE ( 'NONE', *, *, #107, .F. ) ;
#167 = MECHANICAL_DESIGN_GEOMETRIC_PRESENTATION_REPRESENTATION (  '', ( #287 ), #219 ) ;
#168 =( NAMED_UNIT ( * ) PLANE_ANGLE_UNIT ( ) SI_UNIT ( $, .RADIAN. ) );
#169 = ORIENTED_EDGE ( 'NONE', *, *, #58, .F. ) ;
#170 =( NAMED_UNIT ( * ) SI_UNIT ( $, .STERADIAN. ) SOLID_ANGLE_UNIT ( ) );
#171 = ORIENTED_EDGE ( 'NONE', *, *, #77, .F. ) ;
#172 = SURFACE_STYLE_USAGE ( .BOTH. , #29 ) ;
#173 = MECHANICAL_DESIGN_GEOMETRIC_PRESENTATION_REPRESENTATION (  '', ( #250 ), #191 ) ;
#174 = SURFACE_STYLE_USAGE ( .BOTH. , #75 ) ;
#175 = ORIENTED_EDGE ( 'NONE', *, *, #253, .T. ) ;
#176 = DIRECTION ( 'NONE',  ( 0.000000000000000000, 1.000000000000000000, 0.000000000000000000 ) ) ;
#177 = CIRCLE ( 'NONE', #104, 0.06250000000000000000 ) ;
#178 = UNCERTAINTY_MEASURE_WITH_UNIT (LENGTH_MEASURE( 1.000000000000000082E-05 ), #197, 'distance_accuracy_value', 'NONE');
#179 = CARTESIAN_POINT ( 'NONE',  ( 0.000000000000000000, 0.5000000000000001110, 0.000000000000000000 ) ) ;
#180 = COLOUR_RGB ( '',1.000000000000000000, 0.000000000000000000, 0.000000000000000000 ) ;
#181 = CARTESIAN_POINT ( 'NONE',  ( 0.000000000000000000, 0.5000000000000000000, 0.000000000000000000 ) ) ;
#182 =( GEOMETRIC_REPRESENTATION_CONTEXT ( 3 ) GLOBAL_UNCERTAINTY_ASSIGNED_CONTEXT ( ( #37 ) ) GLOBAL_UNIT_ASSIGNED_CONTEXT ( ( #126, #146, #289 ) ) REPRESENTATION_CONTEXT ( 'NONE', 'WORKASPACE' ) );
#183 = PRODUCT_CONTEXT ( 'NONE', #237, 'mechanical' ) ;
#184 = DIRECTION ( 'NONE',  ( -3.061616997868383018E-17, 1.000000000000000000, -0.000000000000000000 ) ) ;
#185 = APPLICATION_PROTOCOL_DEFINITION ( 'draft international standard', 'automotive_design', 1998, #300 ) ;
#186 = DIRECTION ( 'NONE',  ( -0.000000000000000000, -1.000000000000000000, -0.000000000000000000 ) ) ;
#187 = STYLED_ITEM ( 'NONE', ( #123 ), #8 ) ;
#188 = CARTESIAN_POINT ( 'NONE',  ( 0.000000000000000000, 0.000000000000000000, 0.000000000000000000 ) ) ;
#189 = LENGTH_MEASURE_WITH_UNIT ( LENGTH_MEASURE( 0.02539999999999999897 ), #270 );
#190 = AXIS2_PLACEMENT_3D ( 'NONE', #56, #295, #275 ) ;
#191 =( GEOMETRIC_REPRESENTATION_CONTEXT ( 3 ) GLOBAL_UNCERTAINTY_ASSIGNED_CONTEXT ( ( #15 ) ) GLOBAL_UNIT_ASSIGNED_CONTEXT ( ( #210, #255, #284 ) ) REPRESENTATION_CONTEXT ( 'NONE', 'WORKASPACE' ) );
#192 = PRESENTATION_STYLE_ASSIGNMENT (( #174 ) ) ;
#193 = ADVANCED_FACE ( 'NONE', ( #18 ), #259, .T. ) ;
#194 = ORIENTED_EDGE ( 'NONE', *, *, #258, .F. ) ;
#195 = MANIFOLD_SOLID_BREP ( 'Revolve - Tool Body (Straight Shanked)', #66 ) ;
#196 = CARTESIAN_POINT ( 'NONE',  ( 0.06249999999999997224, 2.500000000000000000, 7.654042494670960626E-18 ) ) ;
#197 =( CONVERSION_BASED_UNIT ( 'INCH', #103 ) LENGTH_UNIT ( ) NAMED_UNIT ( #41 ) );
#198 = DIRECTION ( 'NONE',  ( -3.061616997868383018E-17, 1.000000000000000000, -0.000000000000000000 ) ) ;
#199 =( NAMED_UNIT ( * ) PLANE_ANGLE_UNIT ( ) SI_UNIT ( $, .RADIAN. ) );
#200 = MECHANICAL_DESIGN_GEOMETRIC_PRESENTATION_REPRESENTATION (  '', ( #23 ), #233 ) ;
#201 = EDGE_CURVE ( 'NONE', #268, #49, #6, .T. ) ;
#202 = CYLINDRICAL_SURFACE ( 'NONE', #190, 0.06250000000000001388 ) ;
#203 = CARTESIAN_POINT ( 'NONE',  ( 0.000000000000000000, 0.000000000000000000, -0.06250000000000001388 ) ) ;
#204 = PRODUCT_RELATED_PRODUCT_CATEGORY ( 'part', '', ( #59 ) ) ;
#205 = CARTESIAN_POINT ( 'NONE',  ( 0.000000000000000000, 0.000000000000000000, 0.000000000000000000 ) ) ;
#206 = CARTESIAN_POINT ( 'NONE',  ( -6.123233995736766036E-17, 2.500000000000000000, 0.000000000000000000 ) ) ;
#207 = DIMENSIONAL_EXPONENTS ( 1.000000000000000000, 0.000000000000000000, 0.000000000000000000, 0.000000000000000000, 0.000000000000000000, 0.000000000000000000, 0.000000000000000000 ) ;
#208 = DIRECTION ( 'NONE',  ( 0.000000000000000000, 0.000000000000000000, -1.000000000000000000 ) ) ;
#209 = FILL_AREA_STYLE_COLOUR ( '', #34 ) ;
#210 =( CONVERSION_BASED_UNIT ( 'INCH', #21 ) LENGTH_UNIT ( ) NAMED_UNIT ( #207 ) );
#211 = CARTESIAN_POINT ( 'NONE',  ( 7.654042494670960626E-18, 0.000000000000000000, 0.06250000000000002776 ) ) ;
#212 =( NAMED_UNIT ( * ) PLANE_ANGLE_UNIT ( ) SI_UNIT ( $, .RADIAN. ) );
#213 = AXIS2_PLACEMENT_3D ( 'NONE', #137, #131, #208 ) ;
#214 = SURFACE_STYLE_FILL_AREA ( #308 ) ;
#215 = ADVANCED_BREP_SHAPE_REPRESENTATION ( '48021', ( #302, #195, #98 ), #83 ) ;
#216 = FILL_AREA_STYLE ('',( #118 ) ) ;
#217 = SURFACE_STYLE_FILL_AREA ( #30 ) ;
#218 = VERTEX_POINT ( 'NONE', #211 ) ;
#219 =( GEOMETRIC_REPRESENTATION_CONTEXT ( 3 ) GLOBAL_UNCERTAINTY_ASSIGNED_CONTEXT ( ( #129 ) ) GLOBAL_UNIT_ASSIGNED_CONTEXT ( ( #31, #168, #170 ) ) REPRESENTATION_CONTEXT ( 'NONE', 'WORKASPACE' ) );
#220 = FILL_AREA_STYLE_COLOUR ( '', #180 ) ;
#221 = PLANE ( 'NONE',  #88 ) ;
#222 = VERTEX_POINT ( 'NONE', #117 ) ;
#223 = FACE_OUTER_BOUND ( 'NONE', #120, .T. ) ;
#224 = CIRCLE ( 'NONE', #213, 0.06250000000000001388 ) ;
#225 = FILL_AREA_STYLE_COLOUR ( '', #297 ) ;
#226 = DIRECTION ( 'NONE',  ( -1.000000000000000000, 0.000000000000000000, 0.000000000000000000 ) ) ;
#227 = FACE_OUTER_BOUND ( 'NONE', #288, .T. ) ;
#228 = DIRECTION ( 'NONE',  ( -0.000000000000000000, -1.000000000000000000, -0.000000000000000000 ) ) ;
#229 = AXIS2_PLACEMENT_3D ( 'NONE', #112, #228, #111 ) ;
#230 = PRODUCT_DEFINITION_FORMATION_WITH_SPECIFIED_SOURCE ( 'ANY', '', #59, .NOT_KNOWN. ) ;
#231 = CARTESIAN_POINT ( 'NONE',  ( -0.06250000000000012490, 2.500000000000000000, 0.000000000000000000 ) ) ;
#232 = PRESENTATION_STYLE_ASSIGNMENT (( #91 ) ) ;
#233 =( GEOMETRIC_REPRESENTATION_CONTEXT ( 3 ) GLOBAL_UNCERTAINTY_ASSIGNED_CONTEXT ( ( #85 ) ) GLOBAL_UNIT_ASSIGNED_CONTEXT ( ( #92, #212, #64 ) ) REPRESENTATION_CONTEXT ( 'NONE', 'WORKASPACE' ) );
#234 = LENGTH_MEASURE_WITH_UNIT ( LENGTH_MEASURE( 0.02539999999999999897 ), #26 );
#235 = UNCERTAINTY_MEASURE_WITH_UNIT (LENGTH_MEASURE( 1.000000000000000082E-05 ), #61, 'distance_accuracy_value', 'NONE');
#236 = EDGE_LOOP ( 'NONE', ( #171, #169 ) ) ;
#237 = APPLICATION_CONTEXT ( 'automotive_design' ) ;
#238 = ORIENTED_EDGE ( 'NONE', *, *, #58, .T. ) ;
#239 = PRESENTATION_LAYER_ASSIGNMENT (  '', '', ( #187 ) ) ;
#240 = CIRCLE ( 'NONE', #114, 0.06250000000000000000 ) ;
#241 = ORIENTED_EDGE ( 'NONE', *, *, #162, .F. ) ;
#242 = ORIENTED_EDGE ( 'NONE', *, *, #12, .F. ) ;
#243 = VERTEX_POINT ( 'NONE', #283 ) ;
#244 = DIMENSIONAL_EXPONENTS ( 1.000000000000000000, 0.000000000000000000, 0.000000000000000000, 0.000000000000000000, 0.000000000000000000, 0.000000000000000000, 0.000000000000000000 ) ;
#245 = DIRECTION ( 'NONE',  ( -1.000000000000000000, 0.000000000000000000, 0.000000000000000000 ) ) ;
#246 =( NAMED_UNIT ( * ) SI_UNIT ( $, .STERADIAN. ) SOLID_ANGLE_UNIT ( ) );
#247 =( CONVERSION_BASED_UNIT ( 'INCH', #84 ) LENGTH_UNIT ( ) NAMED_UNIT ( #57 ) );
#248 = CARTESIAN_POINT ( 'NONE',  ( -0.06250000000000009714, 2.500000000000000000, 0.000000000000000000 ) ) ;
#249 = DIMENSIONAL_EXPONENTS ( 1.000000000000000000, 0.000000000000000000, 0.000000000000000000, 0.000000000000000000, 0.000000000000000000, 0.000000000000000000, 0.000000000000000000 ) ;
#250 = STYLED_ITEM ( 'NONE', ( #232 ), #193 ) ;
#251 = DIRECTION ( 'NONE',  ( 0.000000000000000000, 0.000000000000000000, -1.000000000000000000 ) ) ;
#252 = DIMENSIONAL_EXPONENTS ( 1.000000000000000000, 0.000000000000000000, 0.000000000000000000, 0.000000000000000000, 0.000000000000000000, 0.000000000000000000, 0.000000000000000000 ) ;
#253 = EDGE_CURVE ( 'NONE', #33, #218, #163, .T. ) ;
#254 =( NAMED_UNIT ( * ) PLANE_ANGLE_UNIT ( ) SI_UNIT ( $, .RADIAN. ) );
#255 =( NAMED_UNIT ( * ) PLANE_ANGLE_UNIT ( ) SI_UNIT ( $, .RADIAN. ) );
#256 = VECTOR ( 'NONE', #106, 39.37007874015748143 ) ;
#257 = AXIS2_PLACEMENT_3D ( 'NONE', #116, #68, #260 ) ;
#258 = EDGE_CURVE ( 'NONE', #74, #105, #177, .T. ) ;
#259 = CYLINDRICAL_SURFACE ( 'NONE', #160, 0.06250000000000001388 ) ;
#260 = DIRECTION ( 'NONE',  ( -1.000000000000000000, 0.000000000000000000, 0.000000000000000000 ) ) ;
#261 = FACE_OUTER_BOUND ( 'NONE', #54, .T. ) ;
#262 = EDGE_LOOP ( 'NONE', ( #97, #51, #148, #152 ) ) ;
#263 = VECTOR ( 'NONE', #198, 39.37007874015748143 ) ;
#264 = ORIENTED_EDGE ( 'NONE', *, *, #201, .T. ) ;
#265 = SURFACE_STYLE_FILL_AREA ( #27 ) ;
#266 = ORIENTED_EDGE ( 'NONE', *, *, #12, .T. ) ;
#267 = PLANE ( 'NONE',  #149 ) ;
#268 = VERTEX_POINT ( 'NONE', #231 ) ;
#269 = PRODUCT_DEFINITION_SHAPE ( 'NONE', 'NONE',  #141 ) ;
#270 =( LENGTH_UNIT ( ) NAMED_UNIT ( * ) SI_UNIT ( $, .METRE. ) );
#271 =( LENGTH_UNIT ( ) NAMED_UNIT ( * ) SI_UNIT ( $, .METRE. ) );
#272 =( LENGTH_UNIT ( ) NAMED_UNIT ( * ) SI_UNIT ( $, .METRE. ) );
#273 = DIRECTION ( 'NONE',  ( 0.000000000000000000, -0.000000000000000000, 1.000000000000000000 ) ) ;
#274 = SURFACE_SIDE_STYLE ('',( #81 ) ) ;
#275 = DIRECTION ( 'NONE',  ( 0.000000000000000000, 0.000000000000000000, -1.000000000000000000 ) ) ;
#276 = SURFACE_STYLE_USAGE ( .BOTH. , #274 ) ;
#277 = STYLED_ITEM ( 'NONE', ( #296 ), #55 ) ;
#278 = ADVANCED_FACE ( 'NONE', ( #261 ), #267, .T. ) ;
#279 = COLOUR_RGB ( '',1.000000000000000000, 0.000000000000000000, 0.000000000000000000 ) ;
#280 = CARTESIAN_POINT ( 'NONE',  ( -6.123233995736766036E-17, 2.500000000000000000, 0.000000000000000000 ) ) ;
#281 = ADVANCED_FACE ( 'NONE', ( #96 ), #221, .F. ) ;
#282 = AXIS2_PLACEMENT_3D ( 'NONE', #181, #60, #301 ) ;
#283 = CARTESIAN_POINT ( 'NONE',  ( 0.000000000000000000, 0.5000000000000000000, -0.06250000000000000000 ) ) ;
#284 =( NAMED_UNIT ( * ) SI_UNIT ( $, .STERADIAN. ) SOLID_ANGLE_UNIT ( ) );
#285 = EDGE_CURVE ( 'NONE', #74, #49, #50, .T. ) ;
#286 = DIRECTION ( 'NONE',  ( 0.000000000000000000, -1.000000000000000000, -0.000000000000000000 ) ) ;
#287 = STYLED_ITEM ( 'NONE', ( #192 ), #302 ) ;
#288 = EDGE_LOOP ( 'NONE', ( #150, #238, #266, #241 ) ) ;
#289 =( NAMED_UNIT ( * ) SI_UNIT ( $, .STERADIAN. ) SOLID_ANGLE_UNIT ( ) );
#290 = ADVANCED_FACE ( 'NONE', ( #223 ), #99, .F. ) ;
#291 = SURFACE_STYLE_FILL_AREA ( #216 ) ;
#292 = PLANE ( 'NONE',  #158 ) ;
#293 = AXIS2_PLACEMENT_3D ( 'NONE', #205, #62, #251 ) ;
#294 = EDGE_LOOP ( 'NONE', ( #72, #175, #3, #242 ) ) ;
#295 = DIRECTION ( 'NONE',  ( -0.000000000000000000, -1.000000000000000000, -0.000000000000000000 ) ) ;
#296 = PRESENTATION_STYLE_ASSIGNMENT (( #276 ) ) ;
#297 = COLOUR_RGB ( '',1.000000000000000000, 0.000000000000000000, 0.000000000000000000 ) ;
#298 = VECTOR ( 'NONE', #144, 39.37007874015748143 ) ;
#299 = CARTESIAN_POINT ( 'NONE',  ( -6.123233995736766036E-17, 2.500000000000000000, 0.000000000000000000 ) ) ;
#300 = APPLICATION_CONTEXT ( 'automotive_design' ) ;
#301 = DIRECTION ( 'NONE',  ( 0.000000000000000000, 0.000000000000000000, -1.000000000000000000 ) ) ;
#302 = MANIFOLD_SOLID_BREP ( 'Revolve - Cutting Edge', #38 ) ;
#303 = FACE_OUTER_BOUND ( 'NONE', #28, .T. ) ;
#304 = PRESENTATION_LAYER_ASSIGNMENT (  '', '', ( #277 ) ) ;
#305 = PRESENTATION_LAYER_ASSIGNMENT (  '', '', ( #287 ) ) ;
#306 = DIRECTION ( 'NONE',  ( -1.000000000000000000, 0.000000000000000000, 0.000000000000000000 ) ) ;
#307 = SURFACE_SIDE_STYLE ('',( #139 ) ) ;
#308 = FILL_AREA_STYLE ('',( #209 ) ) ;
#309 = CARTESIAN_POINT ( 'NONE',  ( 0.000000000000000000, 0.000000000000000000, 0.000000000000000000 ) ) ;
ENDSEC;
END-ISO-10303-21;
