ISO-10303-21;
HEADER;
FILE_DESCRIPTION (( 'STEP AP214' ),
    '1' );
FILE_NAME ('Micro_BEMM-100-3X.STEP',
    '2021-09-03T13:33:00',
    ( '' ),
    ( '' ),
    'SwSTEP 2.0',
    'SolidWorks 2020',
    '' );
FILE_SCHEMA (( 'AUTOMOTIVE_DESIGN' ));
ENDSEC;

DATA;
#1 = ORIENTED_EDGE ( 'NONE', *, *, #30, .T. ) ;
#2 = ORIENTED_EDGE ( 'NONE', *, *, #52, .T. ) ;
#3 = EDGE_CURVE ( 'NONE', #303, #81, #38, .T. ) ;
#4 = PRESENTATION_STYLE_ASSIGNMENT (( #37 ) ) ;
#5 = DIRECTION ( 'NONE',  ( -0.7071067811865354713, 0.0000000000000000000, -0.7071067811865594521 ) ) ;
#6 =( NAMED_UNIT ( * ) PLANE_ANGLE_UNIT ( ) SI_UNIT ( $, .RADIAN. ) );
#7 =( GEOMETRIC_REPRESENTATION_CONTEXT ( 3 ) GLOBAL_UNCERTAINTY_ASSIGNED_CONTEXT ( ( #164 ) ) GLOBAL_UNIT_ASSIGNED_CONTEXT ( ( #291, #12, #90 ) ) REPRESENTATION_CONTEXT ( 'NONE', 'WORKASPACE' ) );
#8 = EDGE_LOOP ( 'NONE', ( #156, #208, #39, #286 ) ) ;
#9 = AXIS2_PLACEMENT_3D ( 'NONE', #223, #322, #296 ) ;
#10 = ORIENTED_EDGE ( 'NONE', *, *, #30, .F. ) ;
#11 = LENGTH_MEASURE_WITH_UNIT ( LENGTH_MEASURE( 0.02539999999999999897 ), #188 );
#12 =( NAMED_UNIT ( * ) PLANE_ANGLE_UNIT ( ) SI_UNIT ( $, .RADIAN. ) );
#13 = STYLED_ITEM ( 'NONE', ( #41 ), #139 ) ;
#14 = DIRECTION ( 'NONE',  ( -0.0000000000000000000, -0.0000000000000000000, -1.000000000000000000 ) ) ;
#15 = CARTESIAN_POINT ( 'NONE',  ( 0.0000000000000000000, 0.0000000000000000000, 2.834646000000000665 ) ) ;
#16 = FACE_OUTER_BOUND ( 'NONE', #107, .T. ) ;
#17 = DIRECTION ( 'NONE',  ( -1.224646799147353207E-16, -0.0000000000000000000, -1.000000000000000000 ) ) ;
#18 = CARTESIAN_POINT ( 'NONE',  ( 1.206728250503578783E-16, 0.0000000000000000000, 0.9853683946618323475 ) ) ;
#19 = VERTEX_POINT ( 'NONE', #58 ) ;
#20 = DIRECTION ( 'NONE',  ( 0.0000000000000000000, -1.000000000000000000, 0.0000000000000000000 ) ) ;
#21 = PRODUCT_RELATED_PRODUCT_CATEGORY ( 'part', '', ( #269 ) ) ;
#22 = ORIENTED_EDGE ( 'NONE', *, *, #204, .F. ) ;
#23 = CIRCLE ( 'NONE', #92, 0.1968504999999999838 ) ;
#24 = CARTESIAN_POINT ( 'NONE',  ( 0.0000000000000000000, 0.0000000000000000000, 2.834646000000000665 ) ) ;
#25 = ORIENTED_EDGE ( 'NONE', *, *, #298, .F. ) ;
#26 = ADVANCED_FACE ( 'NONE', ( #284 ), #288, .T. ) ;
#27 = DIRECTION ( 'NONE',  ( -1.000000000000000000, 0.0000000000000000000, 0.0000000000000000000 ) ) ;
#28 = ORIENTED_EDGE ( 'NONE', *, *, #324, .F. ) ;
#29 = AXIS2_PLACEMENT_3D ( 'NONE', #43, #88, #265 ) ;
#30 = EDGE_CURVE ( 'NONE', #303, #245, #229, .T. ) ;
#31 = VECTOR ( 'NONE', #45, 39.37007874015748143 ) ;
#32 = ORIENTED_EDGE ( 'NONE', *, *, #72, .F. ) ;
#33 = CARTESIAN_POINT ( 'NONE',  ( 0.0000000000000000000, 0.0000000000000000000, 0.0000000000000000000 ) ) ;
#34 = VERTEX_POINT ( 'NONE', #183 ) ;
#35 = SURFACE_SIDE_STYLE ('',( #155 ) ) ;
#36 = ORIENTED_EDGE ( 'NONE', *, *, #149, .T. ) ;
#37 = SURFACE_STYLE_USAGE ( .BOTH. , #35 ) ;
#38 = CIRCLE ( 'NONE', #231, 0.1818505000000002481 ) ;
#39 = ORIENTED_EDGE ( 'NONE', *, *, #324, .T. ) ;
#40 = PRODUCT_DEFINITION_FORMATION_WITH_SPECIFIED_SOURCE ( 'ANY', '', #269, .NOT_KNOWN. ) ;
#41 = PRESENTATION_STYLE_ASSIGNMENT (( #262 ) ) ;
#42 = DIRECTION ( 'NONE',  ( -1.224646799147353207E-16, -0.0000000000000000000, -1.000000000000000000 ) ) ;
#43 = CARTESIAN_POINT ( 'NONE',  ( 1.205361061354380629E-16, 0.0000000000000000000, 0.9842519999999999047 ) ) ;
#44 = DIRECTION ( 'NONE',  ( 1.000000000000000000, 0.0000000000000000000, 0.0000000000000000000 ) ) ;
#45 = DIRECTION ( 'NONE',  ( -0.0000000000000000000, -0.0000000000000000000, -1.000000000000000000 ) ) ;
#46 = PRESENTATION_LAYER_ASSIGNMENT (  '', '', ( #13 ) ) ;
#47 = AXIS2_PLACEMENT_3D ( 'NONE', #67, #42, #137 ) ;
#48 = DIRECTION ( 'NONE',  ( -1.000000000000000000, 1.224646799147353207E-16, 0.0000000000000000000 ) ) ;
#49 = ORIENTED_EDGE ( 'NONE', *, *, #3, .T. ) ;
#50 = DIRECTION ( 'NONE',  ( -1.224646799147353207E-16, -0.0000000000000000000, -1.000000000000000000 ) ) ;
#51 = DIRECTION ( 'NONE',  ( 1.224646799147353207E-16, 0.0000000000000000000, 1.000000000000000000 ) ) ;
#52 = EDGE_CURVE ( 'NONE', #34, #206, #157, .T. ) ;
#53 = AXIS2_PLACEMENT_3D ( 'NONE', #124, #140, #222 ) ;
#54 =( GEOMETRIC_REPRESENTATION_CONTEXT ( 3 ) GLOBAL_UNCERTAINTY_ASSIGNED_CONTEXT ( ( #323 ) ) GLOBAL_UNIT_ASSIGNED_CONTEXT ( ( #106, #6, #182 ) ) REPRESENTATION_CONTEXT ( 'NONE', 'WORKASPACE' ) );
#55 = DIRECTION ( 'NONE',  ( -0.0000000000000000000, -0.0000000000000000000, -1.000000000000000000 ) ) ;
#56 = DIRECTION ( 'NONE',  ( 1.000000000000000000, 0.0000000000000000000, 0.0000000000000000000 ) ) ;
#57 = UNCERTAINTY_MEASURE_WITH_UNIT (LENGTH_MEASURE( 1.000000000000000082E-05 ), #178, 'distance_accuracy_value', 'NONE');
#58 = CARTESIAN_POINT ( 'NONE',  ( 0.1968504999999999838, 2.410723347355560646E-17, 2.819646000000000097 ) ) ;
#59 = CARTESIAN_POINT ( 'NONE',  ( 0.0000000000000000000, 0.0000000000000000000, 2.834646000000000665 ) ) ;
#60 =( NAMED_UNIT ( * ) SI_UNIT ( $, .STERADIAN. ) SOLID_ANGLE_UNIT ( ) );
#61 = ORIENTED_EDGE ( 'NONE', *, *, #308, .T. ) ;
#62 = ORIENTED_EDGE ( 'NONE', *, *, #263, .T. ) ;
#63 = AXIS2_PLACEMENT_3D ( 'NONE', #314, #239, #44 ) ;
#64 = DIRECTION ( 'NONE',  ( -1.000000000000000000, 0.0000000000000000000, 0.0000000000000000000 ) ) ;
#65 = ADVANCED_BREP_SHAPE_REPRESENTATION ( 'Micro_BEMM-100-3X', ( #139, #69 ), #233 ) ;
#66 = ADVANCED_FACE ( 'NONE', ( #110 ), #268, .T. ) ;
#67 = CARTESIAN_POINT ( 'NONE',  ( 0.0000000000000000000, 0.0000000000000000000, 0.0000000000000000000 ) ) ;
#68 = CLOSED_SHELL ( 'NONE', ( #276, #138, #154, #235, #83, #66, #26, #121, #134, #130, #93 ) ) ;
#69 = AXIS2_PLACEMENT_3D ( 'NONE', #33, #258, #56 ) ;
#70 = DIRECTION ( 'NONE',  ( -1.000000000000000000, 0.0000000000000000000, 0.0000000000000000000 ) ) ;
#71 = DIRECTION ( 'NONE',  ( 0.0000000000000000000, 1.000000000000000000, 0.0000000000000000000 ) ) ;
#72 = EDGE_CURVE ( 'NONE', #159, #218, #127, .T. ) ;
#73 = LINE ( 'NONE', #200, #266 ) ;
#74 = AXIS2_PLACEMENT_3D ( 'NONE', #194, #171, #247 ) ;
#75 = DIRECTION ( 'NONE',  ( 1.000000000000000000, 0.0000000000000000000, 0.0000000000000000000 ) ) ;
#76 = DIRECTION ( 'NONE',  ( 1.224646799147353207E-16, 1.000000000000000000, -0.0000000000000000000 ) ) ;
#77 = CIRCLE ( 'NONE', #253, 0.1966536494999999996 ) ;
#78 = ORIENTED_EDGE ( 'NONE', *, *, #263, .F. ) ;
#79 = EDGE_CURVE ( 'NONE', #81, #19, #163, .T. ) ;
#80 = FILL_AREA_STYLE_COLOUR ( '', #191 ) ;
#81 = VERTEX_POINT ( 'NONE', #270 ) ;
#82 = ORIENTED_EDGE ( 'NONE', *, *, #79, .T. ) ;
#83 = ADVANCED_FACE ( 'NONE', ( #16 ), #167, .T. ) ;
#84 = FILL_AREA_STYLE ('',( #80 ) ) ;
#85 = EDGE_LOOP ( 'NONE', ( #49, #128 ) ) ;
#86 = ORIENTED_EDGE ( 'NONE', *, *, #227, .T. ) ;
#87 = CONICAL_SURFACE ( 'NONE', #74, 0.1966536495000000273, 0.1745329251994339470 ) ;
#88 = DIRECTION ( 'NONE',  ( 1.224646799147353207E-16, 0.0000000000000000000, 1.000000000000000000 ) ) ;
#89 = CIRCLE ( 'NONE', #9, 0.1966536495000000273 ) ;
#90 =( NAMED_UNIT ( * ) SI_UNIT ( $, .STERADIAN. ) SOLID_ANGLE_UNIT ( ) );
#91 = FACE_OUTER_BOUND ( 'NONE', #275, .T. ) ;
#92 = AXIS2_PLACEMENT_3D ( 'NONE', #18, #119, #173 ) ;
#93 = ADVANCED_FACE ( 'NONE', ( #210 ), #238, .T. ) ;
#94 = FACE_OUTER_BOUND ( 'NONE', #282, .T. ) ;
#95 = DIRECTION ( 'NONE',  ( 0.0000000000000000000, 0.0000000000000000000, -1.000000000000000000 ) ) ;
#96 = EDGE_LOOP ( 'NONE', ( #126, #185, #179 ) ) ;
#97 = DIRECTION ( 'NONE',  ( 1.000000000000000000, 0.0000000000000000000, 0.0000000000000000000 ) ) ;
#98 = AXIS2_PLACEMENT_3D ( 'NONE', #279, #51, #101 ) ;
#99 = AXIS2_PLACEMENT_3D ( 'NONE', #24, #301, #27 ) ;
#100 = DIRECTION ( 'NONE',  ( -1.000000000000000000, 0.0000000000000000000, 0.0000000000000000000 ) ) ;
#101 = DIRECTION ( 'NONE',  ( -1.000000000000000000, 0.0000000000000000000, 1.736458998224860523E-16 ) ) ;
#102 = LINE ( 'NONE', #241, #196 ) ;
#103 = CONICAL_SURFACE ( 'NONE', #187, 0.1818505000000002481, 0.7853981633974312926 ) ;
#104 = APPLICATION_PROTOCOL_DEFINITION ( 'draft international standard', 'automotive_design', 1998, #146 ) ;
#105 = EDGE_LOOP ( 'NONE', ( #311, #207, #78 ) ) ;
#106 =( CONVERSION_BASED_UNIT ( 'INCH', #158 ) LENGTH_UNIT ( ) NAMED_UNIT ( #168 ) );
#107 = EDGE_LOOP ( 'NONE', ( #228, #319, #259, #25 ) ) ;
#108 = ORIENTED_EDGE ( 'NONE', *, *, #232, .F. ) ;
#109 = PRESENTATION_LAYER_ASSIGNMENT (  '', '', ( #141 ) ) ;
#110 = FACE_OUTER_BOUND ( 'NONE', #230, .T. ) ;
#111 = PRODUCT_DEFINITION ( 'UNKNOWN', '', #40, #250 ) ;
#112 = ORIENTED_EDGE ( 'NONE', *, *, #298, .T. ) ;
#113 = DIRECTION ( 'NONE',  ( -1.000000000000000000, 0.0000000000000000000, 0.0000000000000000000 ) ) ;
#114 = PRODUCT_DEFINITION_SHAPE ( 'NONE', 'NONE',  #111 ) ;
#115 = FILL_AREA_STYLE ('',( #116 ) ) ;
#116 = FILL_AREA_STYLE_COLOUR ( '', #260 ) ;
#117 = CARTESIAN_POINT ( 'NONE',  ( 2.408312624008205170E-17, 0.0000000000000000000, 0.1966536494999999996 ) ) ;
#118 = DIRECTION ( 'NONE',  ( 0.0000000000000000000, 0.0000000000000000000, -1.000000000000000000 ) ) ;
#119 = DIRECTION ( 'NONE',  ( -1.224646799147353207E-16, -0.0000000000000000000, -1.000000000000000000 ) ) ;
#120 = CARTESIAN_POINT ( 'NONE',  ( 0.0000000000000000000, 0.0000000000000000000, 2.819646000000000097 ) ) ;
#121 = ADVANCED_FACE ( 'NONE', ( #94 ), #103, .T. ) ;
#122 = DIRECTION ( 'NONE',  ( 1.000000000000000000, 0.0000000000000000000, 0.0000000000000000000 ) ) ;
#123 = CIRCLE ( 'NONE', #53, 0.1966536495000000273 ) ;
#124 = CARTESIAN_POINT ( 'NONE',  ( 1.205361061354380629E-16, 0.0000000000000000000, 0.9842519999999999047 ) ) ;
#125 = CARTESIAN_POINT ( 'NONE',  ( 2.408312624008205170E-17, 0.0000000000000000000, 0.1966536494999999996 ) ) ;
#126 = ORIENTED_EDGE ( 'NONE', *, *, #294, .F. ) ;
#127 = CIRCLE ( 'NONE', #63, 0.1968504999999999838 ) ;
#128 = ORIENTED_EDGE ( 'NONE', *, *, #181, .T. ) ;
#129 = DIRECTION ( 'NONE',  ( 1.000000000000000000, 0.0000000000000000000, -0.0000000000000000000 ) ) ;
#130 = ADVANCED_FACE ( 'NONE', ( #214 ), #315, .T. ) ;
#131 = ORIENTED_EDGE ( 'NONE', *, *, #195, .F. ) ;
#132 = VECTOR ( 'NONE', #309, 39.37007874015748143 ) ;
#133 = CARTESIAN_POINT ( 'NONE',  ( -0.1818505000000002481, 0.0000000000000000000, 2.834646000000000665 ) ) ;
#134 = ADVANCED_FACE ( 'NONE', ( #189 ), #186, .T. ) ;
#135 = CYLINDRICAL_SURFACE ( 'NONE', #47, 0.1966536495000000273 ) ;
#136 = DIRECTION ( 'NONE',  ( 0.7071067811865354713, 8.659560562354783714E-17, -0.7071067811865594521 ) ) ;
#137 = DIRECTION ( 'NONE',  ( -1.000000000000000000, 0.0000000000000000000, 1.224646799147353207E-16 ) ) ;
#138 = ADVANCED_FACE ( 'NONE', ( #91 ), #135, .T. ) ;
#139 = MANIFOLD_SOLID_BREP ( 'Fillet1', #68 ) ;
#140 = DIRECTION ( 'NONE',  ( -1.224646799147353207E-16, -0.0000000000000000000, -1.000000000000000000 ) ) ;
#141 = STYLED_ITEM ( 'NONE', ( #4 ), #65 ) ;
#142 = CARTESIAN_POINT ( 'NONE',  ( 3.612468936012307139E-17, 0.0000000000000000000, 0.0000000000000000000 ) ) ;
#143 = CARTESIAN_POINT ( 'NONE',  ( -0.1818505000000002481, 0.0000000000000000000, 2.834646000000000665 ) ) ;
#144 = ORIENTED_EDGE ( 'NONE', *, *, #211, .T. ) ;
#145 = DIRECTION ( 'NONE',  ( 0.0000000000000000000, 0.0000000000000000000, 1.000000000000000000 ) ) ;
#146 = APPLICATION_CONTEXT ( 'automotive_design' ) ;
#147 = AXIS2_PLACEMENT_3D ( 'NONE', #120, #320, #97 ) ;
#148 = CARTESIAN_POINT ( 'NONE',  ( 0.0000000000000000000, 0.0000000000000000000, 2.834646000000000665 ) ) ;
#149 = EDGE_CURVE ( 'NONE', #184, #218, #213, .T. ) ;
#150 = APPLICATION_PROTOCOL_DEFINITION ( 'draft international standard', 'automotive_design', 1998, #306 ) ;
#151 = ORIENTED_EDGE ( 'NONE', *, *, #52, .F. ) ;
#152 = CARTESIAN_POINT ( 'NONE',  ( 0.0000000000000000000, 0.0000000000000000000, 2.834646000000000665 ) ) ;
#153 = AXIS2_PLACEMENT_3D ( 'NONE', #125, #20, #95 ) ;
#154 = ADVANCED_FACE ( 'NONE', ( #220 ), #87, .T. ) ;
#155 = SURFACE_STYLE_FILL_AREA ( #84 ) ;
#156 = ORIENTED_EDGE ( 'NONE', *, *, #149, .F. ) ;
#157 = LINE ( 'NONE', #234, #237 ) ;
#158 = LENGTH_MEASURE_WITH_UNIT ( LENGTH_MEASURE( 0.02539999999999999897 ), #225 );
#159 = VERTEX_POINT ( 'NONE', #318 ) ;
#160 = AXIS2_PLACEMENT_3D ( 'NONE', #244, #217, #75 ) ;
#161 = DIRECTION ( 'NONE',  ( -1.224646799147353207E-16, -0.0000000000000000000, -1.000000000000000000 ) ) ;
#162 = CARTESIAN_POINT ( 'NONE',  ( 0.0000000000000000000, 0.0000000000000000000, 2.834646000000000665 ) ) ;
#163 = LINE ( 'NONE', #236, #283 ) ;
#164 = UNCERTAINTY_MEASURE_WITH_UNIT (LENGTH_MEASURE( 1.000000000000000082E-05 ), #291, 'distance_accuracy_value', 'NONE');
#165 = CIRCLE ( 'NONE', #153, 0.1966536494999999996 ) ;
#166 = CARTESIAN_POINT ( 'NONE',  ( 0.0000000000000000000, 0.0000000000000000000, 0.0000000000000000000 ) ) ;
#167 = CYLINDRICAL_SURFACE ( 'NONE', #215, 0.1968504999999999838 ) ;
#168 = DIMENSIONAL_EXPONENTS ( 1.000000000000000000, 0.0000000000000000000, 0.0000000000000000000, 0.0000000000000000000, 0.0000000000000000000, 0.0000000000000000000, 0.0000000000000000000 ) ;
#169 = CARTESIAN_POINT ( 'NONE',  ( 2.408312624008205170E-17, 0.0000000000000000000, 0.1966536494999999996 ) ) ;
#170 = FACE_OUTER_BOUND ( 'NONE', #105, .T. ) ;
#171 = DIRECTION ( 'NONE',  ( 1.224646799147353207E-16, 0.0000000000000000000, 1.000000000000000000 ) ) ;
#172 = CARTESIAN_POINT ( 'NONE',  ( 0.1966536495000001661, 0.0000000000000000000, 0.9842519999999999047 ) ) ;
#173 = DIRECTION ( 'NONE',  ( 1.000000000000000000, 0.0000000000000000000, 0.0000000000000000000 ) ) ;
#174 = EDGE_CURVE ( 'NONE', #201, #206, #273, .T. ) ;
#175 = VECTOR ( 'NONE', #5, 39.37007874015748854 ) ;
#176 = LENGTH_MEASURE_WITH_UNIT ( LENGTH_MEASURE( 0.02539999999999999897 ), #285 );
#177 = VERTEX_POINT ( 'NONE', #142 ) ;
#178 =( CONVERSION_BASED_UNIT ( 'INCH', #176 ) LENGTH_UNIT ( ) NAMED_UNIT ( #219 ) );
#179 = ORIENTED_EDGE ( 'NONE', *, *, #174, .F. ) ;
#180 = AXIS2_PLACEMENT_3D ( 'NONE', #166, #161, #264 ) ;
#181 = EDGE_CURVE ( 'NONE', #81, #303, #251, .T. ) ;
#182 =( NAMED_UNIT ( * ) SI_UNIT ( $, .STERADIAN. ) SOLID_ANGLE_UNIT ( ) );
#183 = CARTESIAN_POINT ( 'NONE',  ( 0.1966536495000001661, 0.0000000000000000000, 0.9842519999999999047 ) ) ;
#184 = VERTEX_POINT ( 'NONE', #321 ) ;
#185 = ORIENTED_EDGE ( 'NONE', *, *, #271, .T. ) ;
#186 = CONICAL_SURFACE ( 'NONE', #29, 0.1966536495000000273, 0.1745329251994339470 ) ;
#187 = AXIS2_PLACEMENT_3D ( 'NONE', #15, #118, #64 ) ;
#188 =( LENGTH_UNIT ( ) NAMED_UNIT ( * ) SI_UNIT ( $, .METRE. ) );
#189 = FACE_OUTER_BOUND ( 'NONE', #8, .T. ) ;
#190 = AXIS2_PLACEMENT_3D ( 'NONE', #148, #145, #199 ) ;
#191 = COLOUR_RGB ( '',0.7921568627450980005, 0.8196078431372548767, 0.9333333333333333481 ) ;
#192 = SURFACE_STYLE_FILL_AREA ( #115 ) ;
#193 = CARTESIAN_POINT ( 'NONE',  ( 0.0000000000000000000, 0.0000000000000000000, 2.834646000000000665 ) ) ;
#194 = CARTESIAN_POINT ( 'NONE',  ( 1.205361061354380629E-16, 0.0000000000000000000, 0.9842519999999999047 ) ) ;
#195 = EDGE_CURVE ( 'NONE', #184, #201, #73, .T. ) ;
#196 = VECTOR ( 'NONE', #55, 39.37007874015748143 ) ;
#197 = CARTESIAN_POINT ( 'NONE',  ( -0.1968504999999999838, 0.0000000000000000000, 2.819646000000000097 ) ) ;
#198 = CIRCLE ( 'NONE', #160, 0.1968504999999999838 ) ;
#199 = DIRECTION ( 'NONE',  ( 1.000000000000000000, 0.0000000000000000000, 0.0000000000000000000 ) ) ;
#200 = CARTESIAN_POINT ( 'NONE',  ( -0.1966536495000000273, 0.0000000000000000000, 2.408312624008205478E-17 ) ) ;
#201 = VERTEX_POINT ( 'NONE', #277 ) ;
#202 = AXIS2_PLACEMENT_3D ( 'NONE', #59, #254, #129 ) ;
#203 = EDGE_LOOP ( 'NONE', ( #108, #36, #86, #28 ) ) ;
#204 = EDGE_CURVE ( 'NONE', #19, #159, #102, .T. ) ;
#205 = PRODUCT_CONTEXT ( 'NONE', #306, 'mechanical' ) ;
#206 = VERTEX_POINT ( 'NONE', #325 ) ;
#207 = ORIENTED_EDGE ( 'NONE', *, *, #294, .T. ) ;
#208 = ORIENTED_EDGE ( 'NONE', *, *, #211, .F. ) ;
#209 = ORIENTED_EDGE ( 'NONE', *, *, #232, .T. ) ;
#210 = FACE_OUTER_BOUND ( 'NONE', #96, .T. ) ;
#211 = EDGE_CURVE ( 'NONE', #34, #184, #123, .T. ) ;
#212 = DIMENSIONAL_EXPONENTS ( 1.000000000000000000, 0.0000000000000000000, 0.0000000000000000000, 0.0000000000000000000, 0.0000000000000000000, 0.0000000000000000000, 0.0000000000000000000 ) ;
#213 = LINE ( 'NONE', #292, #293 ) ;
#214 = FACE_OUTER_BOUND ( 'NONE', #287, .T. ) ;
#215 = AXIS2_PLACEMENT_3D ( 'NONE', #162, #14, #113 ) ;
#216 = SURFACE_SIDE_STYLE ('',( #192 ) ) ;
#217 = DIRECTION ( 'NONE',  ( 0.0000000000000000000, 0.0000000000000000000, -1.000000000000000000 ) ) ;
#218 = VERTEX_POINT ( 'NONE', #278 ) ;
#219 = DIMENSIONAL_EXPONENTS ( 1.000000000000000000, 0.0000000000000000000, 0.0000000000000000000, 0.0000000000000000000, 0.0000000000000000000, 0.0000000000000000000, 0.0000000000000000000 ) ;
#220 = FACE_OUTER_BOUND ( 'NONE', #203, .T. ) ;
#221 = ORIENTED_EDGE ( 'NONE', *, *, #257, .F. ) ;
#222 = DIRECTION ( 'NONE',  ( -1.000000000000000000, 0.0000000000000000000, 0.0000000000000000000 ) ) ;
#223 = CARTESIAN_POINT ( 'NONE',  ( 2.408312624008205170E-17, 0.0000000000000000000, 0.1966536494999999996 ) ) ;
#224 = DIRECTION ( 'NONE',  ( -0.1736481776669312194, 2.126576849575783625E-17, 0.9848077530122077983 ) ) ;
#225 =( LENGTH_UNIT ( ) NAMED_UNIT ( * ) SI_UNIT ( $, .METRE. ) );
#226 = ORIENTED_EDGE ( 'NONE', *, *, #308, .F. ) ;
#227 = EDGE_CURVE ( 'NONE', #218, #159, #23, .T. ) ;
#228 = ORIENTED_EDGE ( 'NONE', *, *, #257, .T. ) ;
#229 = LINE ( 'NONE', #133, #175 ) ;
#230 = EDGE_LOOP ( 'NONE', ( #22, #61, #112, #32 ) ) ;
#231 = AXIS2_PLACEMENT_3D ( 'NONE', #152, #307, #252 ) ;
#232 = EDGE_CURVE ( 'NONE', #184, #34, #316, .T. ) ;
#233 =( GEOMETRIC_REPRESENTATION_CONTEXT ( 3 ) GLOBAL_UNCERTAINTY_ASSIGNED_CONTEXT ( ( #57 ) ) GLOBAL_UNIT_ASSIGNED_CONTEXT ( ( #178, #255, #60 ) ) REPRESENTATION_CONTEXT ( 'NONE', 'WORKASPACE' ) );
#234 = CARTESIAN_POINT ( 'NONE',  ( 0.1966536495000000273, 2.408312624008205478E-17, -2.408312624008205478E-17 ) ) ;
#235 = ADVANCED_FACE ( 'NONE', ( #248 ), #290, .T. ) ;
#236 = CARTESIAN_POINT ( 'NONE',  ( 0.1818505000000002481, 2.227026327483460228E-17, 2.834646000000000665 ) ) ;
#237 = VECTOR ( 'NONE', #256, 39.37007874015748143 ) ;
#238 = SPHERICAL_SURFACE ( 'NONE', #299, 0.1966536494999999996 ) ;
#239 = DIRECTION ( 'NONE',  ( -1.224646799147353207E-16, -0.0000000000000000000, -1.000000000000000000 ) ) ;
#240 = CIRCLE ( 'NONE', #147, 0.1968504999999999838 ) ;
#241 = CARTESIAN_POINT ( 'NONE',  ( 0.1968504999999999838, 2.410723347355560646E-17, 2.834646000000000665 ) ) ;
#242 = CARTESIAN_POINT ( 'NONE',  ( -0.1968504999999999838, 0.0000000000000000000, 2.834646000000000665 ) ) ;
#243 = ORIENTED_EDGE ( 'NONE', *, *, #79, .F. ) ;
#244 = CARTESIAN_POINT ( 'NONE',  ( 0.0000000000000000000, 0.0000000000000000000, 2.819646000000000097 ) ) ;
#245 = VERTEX_POINT ( 'NONE', #197 ) ;
#246 = MECHANICAL_DESIGN_GEOMETRIC_PRESENTATION_REPRESENTATION (  '', ( #13 ), #7 ) ;
#247 = DIRECTION ( 'NONE',  ( 1.000000000000000000, 0.0000000000000000000, 0.0000000000000000000 ) ) ;
#248 = FACE_OUTER_BOUND ( 'NONE', #310, .T. ) ;
#249 = ORIENTED_EDGE ( 'NONE', *, *, #3, .F. ) ;
#250 = PRODUCT_DEFINITION_CONTEXT ( 'detailed design', #146, 'design' ) ;
#251 = CIRCLE ( 'NONE', #190, 0.1818505000000002481 ) ;
#252 = DIRECTION ( 'NONE',  ( 1.000000000000000000, 0.0000000000000000000, 0.0000000000000000000 ) ) ;
#253 = AXIS2_PLACEMENT_3D ( 'NONE', #169, #76, #48 ) ;
#254 = DIRECTION ( 'NONE',  ( 0.0000000000000000000, 0.0000000000000000000, 1.000000000000000000 ) ) ;
#255 =( NAMED_UNIT ( * ) PLANE_ANGLE_UNIT ( ) SI_UNIT ( $, .RADIAN. ) );
#256 = DIRECTION ( 'NONE',  ( -1.224646799147353207E-16, -0.0000000000000000000, -1.000000000000000000 ) ) ;
#257 = EDGE_CURVE ( 'NONE', #245, #19, #198, .T. ) ;
#258 = DIRECTION ( 'NONE',  ( 0.0000000000000000000, 0.0000000000000000000, 1.000000000000000000 ) ) ;
#259 = ORIENTED_EDGE ( 'NONE', *, *, #227, .F. ) ;
#260 = COLOUR_RGB ( '',0.7921568627450980005, 0.8196078431372548767, 0.9333333333333333481 ) ;
#261 = MECHANICAL_DESIGN_GEOMETRIC_PRESENTATION_REPRESENTATION (  '', ( #141 ), #54 ) ;
#262 = SURFACE_STYLE_USAGE ( .BOTH. , #216 ) ;
#263 = EDGE_CURVE ( 'NONE', #206, #201, #89, .T. ) ;
#264 = DIRECTION ( 'NONE',  ( -1.000000000000000000, 0.0000000000000000000, 1.224646799147353207E-16 ) ) ;
#265 = DIRECTION ( 'NONE',  ( 1.000000000000000000, 0.0000000000000000000, 0.0000000000000000000 ) ) ;
#266 = VECTOR ( 'NONE', #17, 39.37007874015748143 ) ;
#267 = AXIS2_PLACEMENT_3D ( 'NONE', #297, #50, #100 ) ;
#268 = CYLINDRICAL_SURFACE ( 'NONE', #289, 0.1968504999999999838 ) ;
#269 = PRODUCT ( 'Micro_BEMM-100-3X', 'Micro_BEMM-100-3X', '', ( #205 ) ) ;
#270 = CARTESIAN_POINT ( 'NONE',  ( 0.1818505000000002481, 2.318874837419510283E-17, 2.834646000000000665 ) ) ;
#271 = EDGE_CURVE ( 'NONE', #177, #206, #165, .T. ) ;
#272 = LINE ( 'NONE', #242, #31 ) ;
#273 = CIRCLE ( 'NONE', #98, 0.1966536495000000273 ) ;
#274 = CARTESIAN_POINT ( 'NONE',  ( 2.408312624008205170E-17, 0.0000000000000000000, 0.1966536494999999996 ) ) ;
#275 = EDGE_LOOP ( 'NONE', ( #209, #2, #62, #131 ) ) ;
#276 = ADVANCED_FACE ( 'NONE', ( #170 ), #302, .T. ) ;
#277 = CARTESIAN_POINT ( 'NONE',  ( -0.1966536494999999996, 0.0000000000000000000, 0.1966536495000000273 ) ) ;
#278 = CARTESIAN_POINT ( 'NONE',  ( -0.1968504999999998450, 0.0000000000000000000, 0.9853683946618323475 ) ) ;
#279 = CARTESIAN_POINT ( 'NONE',  ( 2.408312624008205170E-17, 0.0000000000000000000, 0.1966536494999999996 ) ) ;
#280 = AXIS2_PLACEMENT_3D ( 'NONE', #274, #71, #122 ) ;
#281 = ORIENTED_EDGE ( 'NONE', *, *, #174, .T. ) ;
#282 = EDGE_LOOP ( 'NONE', ( #243, #249, #1, #226 ) ) ;
#283 = VECTOR ( 'NONE', #136, 39.37007874015748854 ) ;
#284 = FACE_OUTER_BOUND ( 'NONE', #85, .T. ) ;
#285 =( LENGTH_UNIT ( ) NAMED_UNIT ( * ) SI_UNIT ( $, .METRE. ) );
#286 = ORIENTED_EDGE ( 'NONE', *, *, #72, .T. ) ;
#287 = EDGE_LOOP ( 'NONE', ( #151, #144, #305, #281 ) ) ;
#288 = PLANE ( 'NONE',  #202 ) ;
#289 = AXIS2_PLACEMENT_3D ( 'NONE', #193, #295, #70 ) ;
#290 = CONICAL_SURFACE ( 'NONE', #99, 0.1818505000000002481, 0.7853981633974312926 ) ;
#291 =( CONVERSION_BASED_UNIT ( 'INCH', #11 ) LENGTH_UNIT ( ) NAMED_UNIT ( #212 ) );
#292 = CARTESIAN_POINT ( 'NONE',  ( -0.1966536494999999163, 2.408312624008205478E-17, 0.9842519999999999047 ) ) ;
#293 = VECTOR ( 'NONE', #224, 39.37007874015748143 ) ;
#294 = EDGE_CURVE ( 'NONE', #177, #201, #77, .T. ) ;
#295 = DIRECTION ( 'NONE',  ( -0.0000000000000000000, -0.0000000000000000000, -1.000000000000000000 ) ) ;
#296 = DIRECTION ( 'NONE',  ( -1.000000000000000000, 0.0000000000000000000, 1.736458998224860523E-16 ) ) ;
#297 = CARTESIAN_POINT ( 'NONE',  ( 1.205361061354380629E-16, 0.0000000000000000000, 0.9842519999999999047 ) ) ;
#298 = EDGE_CURVE ( 'NONE', #245, #218, #272, .T. ) ;
#299 = AXIS2_PLACEMENT_3D ( 'NONE', #117, #317, #313 ) ;
#300 = LINE ( 'NONE', #172, #132 ) ;
#301 = DIRECTION ( 'NONE',  ( 0.0000000000000000000, 0.0000000000000000000, -1.000000000000000000 ) ) ;
#302 = SPHERICAL_SURFACE ( 'NONE', #280, 0.1966536494999999996 ) ;
#303 = VERTEX_POINT ( 'NONE', #143 ) ;
#304 = SHAPE_DEFINITION_REPRESENTATION ( #114, #65 ) ;
#305 = ORIENTED_EDGE ( 'NONE', *, *, #195, .T. ) ;
#306 = APPLICATION_CONTEXT ( 'automotive_design' ) ;
#307 = DIRECTION ( 'NONE',  ( 0.0000000000000000000, 0.0000000000000000000, 1.000000000000000000 ) ) ;
#308 = EDGE_CURVE ( 'NONE', #19, #245, #240, .T. ) ;
#309 = DIRECTION ( 'NONE',  ( 0.1736481776669314414, 0.0000000000000000000, 0.9848077530122077983 ) ) ;
#310 = EDGE_LOOP ( 'NONE', ( #312, #82, #221, #10 ) ) ;
#311 = ORIENTED_EDGE ( 'NONE', *, *, #271, .F. ) ;
#312 = ORIENTED_EDGE ( 'NONE', *, *, #181, .F. ) ;
#313 = DIRECTION ( 'NONE',  ( 1.000000000000000000, 0.0000000000000000000, 0.0000000000000000000 ) ) ;
#314 = CARTESIAN_POINT ( 'NONE',  ( 1.206728250503578783E-16, 0.0000000000000000000, 0.9853683946618323475 ) ) ;
#315 = CYLINDRICAL_SURFACE ( 'NONE', #180, 0.1966536495000000273 ) ;
#316 = CIRCLE ( 'NONE', #267, 0.1966536495000000273 ) ;
#317 = DIRECTION ( 'NONE',  ( 0.0000000000000000000, 1.000000000000000000, 0.0000000000000000000 ) ) ;
#318 = CARTESIAN_POINT ( 'NONE',  ( 0.1968505000000001226, 2.410723347355561878E-17, 0.9853683946618323475 ) ) ;
#319 = ORIENTED_EDGE ( 'NONE', *, *, #204, .T. ) ;
#320 = DIRECTION ( 'NONE',  ( 0.0000000000000000000, 0.0000000000000000000, -1.000000000000000000 ) ) ;
#321 = CARTESIAN_POINT ( 'NONE',  ( -0.1966536494999999163, 2.409517985681882908E-17, 0.9842519999999999047 ) ) ;
#322 = DIRECTION ( 'NONE',  ( 1.224646799147353207E-16, 0.0000000000000000000, 1.000000000000000000 ) ) ;
#323 = UNCERTAINTY_MEASURE_WITH_UNIT (LENGTH_MEASURE( 1.000000000000000082E-05 ), #106, 'distance_accuracy_value', 'NONE');
#324 = EDGE_CURVE ( 'NONE', #34, #159, #300, .T. ) ;
#325 = CARTESIAN_POINT ( 'NONE',  ( 0.1966536495000000828, 2.408312624008205478E-17, 0.1966536494999999718 ) ) ;
ENDSEC;
END-ISO-10303-21;
