ISO-10303-21;
HEADER;
FILE_DESCRIPTION (( 'STEP AP214' ),
    '1' );
FILE_NAME ('48031.STEP',
    '2023-06-22T21:00:45',
    ( '' ),
    ( '' ),
    'SwSTEP 2.0',
    'SolidWorks 2023',
    '' );
FILE_SCHEMA (( 'AUTOMOTIVE_DESIGN' ));
ENDSEC;

DATA;
#1 = DIMENSIONAL_EXPONENTS ( 1.000000000000000000, 0.000000000000000000, 0.000000000000000000, 0.000000000000000000, 0.000000000000000000, 0.000000000000000000, 0.000000000000000000 ) ;
#2 = CARTESIAN_POINT ( 'NONE',  ( 0.000000000000000000, 0.000000000000000000, 0.000000000000000000 ) ) ;
#3 = COLOUR_RGB ( '',0.7921568627450980005, 0.8196078431372548767, 0.9333333333333333481 ) ;
#4 = SURFACE_STYLE_USAGE ( .BOTH. , #124 ) ;
#5 =( LENGTH_UNIT ( ) NAMED_UNIT ( * ) SI_UNIT ( $, .METRE. ) );
#6 = AXIS2_PLACEMENT_3D ( 'NONE', #69, #47, #147 ) ;
#7 = DIRECTION ( 'NONE',  ( 0.000000000000000000, 0.000000000000000000, -1.000000000000000000 ) ) ;
#8 = FACE_OUTER_BOUND ( 'NONE', #231, .T. ) ;
#9 = LINE ( 'NONE', #101, #142 ) ;
#10 = DIRECTION ( 'NONE',  ( -1.000000000000000000, 3.768143997376471359E-17, 0.000000000000000000 ) ) ;
#11 = MANIFOLD_SOLID_BREP ( 'Revolve - Tool Body (Straight Shanked)', #295 ) ;
#12 = ADVANCED_FACE ( 'NONE', ( #140 ), #298, .F. ) ;
#13 = MANIFOLD_SOLID_BREP ( 'Revolve - Cutting Edge', #119 ) ;
#14 = PRESENTATION_LAYER_ASSIGNMENT (  '', '', ( #190 ) ) ;
#15 = VERTEX_POINT ( 'NONE', #41 ) ;
#16 = AXIS2_PLACEMENT_3D ( 'NONE', #184, #44, #68 ) ;
#17 =( LENGTH_UNIT ( ) NAMED_UNIT ( * ) SI_UNIT ( $, .METRE. ) );
#18 = EDGE_CURVE ( 'NONE', #185, #15, #100, .T. ) ;
#19 =( GEOMETRIC_REPRESENTATION_CONTEXT ( 3 ) GLOBAL_UNCERTAINTY_ASSIGNED_CONTEXT ( ( #160 ) ) GLOBAL_UNIT_ASSIGNED_CONTEXT ( ( #278, #213, #25 ) ) REPRESENTATION_CONTEXT ( 'NONE', 'WORKASPACE' ) );
#20 = DIRECTION ( 'NONE',  ( 0.000000000000000000, 0.000000000000000000, -1.000000000000000000 ) ) ;
#21 = EDGE_LOOP ( 'NONE', ( #164, #78, #89, #42 ) ) ;
#22 = DIMENSIONAL_EXPONENTS ( 1.000000000000000000, 0.000000000000000000, 0.000000000000000000, 0.000000000000000000, 0.000000000000000000, 0.000000000000000000, 0.000000000000000000 ) ;
#23 =( GEOMETRIC_REPRESENTATION_CONTEXT ( 3 ) GLOBAL_UNCERTAINTY_ASSIGNED_CONTEXT ( ( #81 ) ) GLOBAL_UNIT_ASSIGNED_CONTEXT ( ( #211, #120, #308 ) ) REPRESENTATION_CONTEXT ( 'NONE', 'WORKASPACE' ) );
#24 = CARTESIAN_POINT ( 'NONE',  ( 1.148106374200643401E-17, 0.000000000000000000, 0.09374999999999998612 ) ) ;
#25 =( NAMED_UNIT ( * ) SI_UNIT ( $, .STERADIAN. ) SOLID_ANGLE_UNIT ( ) );
#26 = PRODUCT ( '48031', '48031', '', ( #70 ) ) ;
#27 = DIRECTION ( 'NONE',  ( -0.000000000000000000, -1.000000000000000000, -0.000000000000000000 ) ) ;
#28 = DIRECTION ( 'NONE',  ( 3.768143997376471359E-17, 1.000000000000000000, -0.000000000000000000 ) ) ;
#29 = DIRECTION ( 'NONE',  ( 3.768143997376471359E-17, 1.000000000000000000, -0.000000000000000000 ) ) ;
#30 = CARTESIAN_POINT ( 'NONE',  ( 6.655738680452029292E-35, 0.3750000000000000555, 0.000000000000000000 ) ) ;
#31 = SURFACE_STYLE_USAGE ( .BOTH. , #246 ) ;
#32 = PRESENTATION_LAYER_ASSIGNMENT (  '', '', ( #157 ) ) ;
#33 = EDGE_CURVE ( 'NONE', #294, #51, #132, .T. ) ;
#34 = SURFACE_STYLE_FILL_AREA ( #179 ) ;
#35 = EDGE_CURVE ( 'NONE', #51, #291, #254, .T. ) ;
#36 = AXIS2_PLACEMENT_3D ( 'NONE', #193, #282, #75 ) ;
#37 = STYLED_ITEM ( 'NONE', ( #273 ), #301 ) ;
#38 = CARTESIAN_POINT ( 'NONE',  ( 0.000000000000000000, 0.3749999999999999445, 0.000000000000000000 ) ) ;
#39 =( CONVERSION_BASED_UNIT ( 'INCH', #117 ) LENGTH_UNIT ( ) NAMED_UNIT ( #122 ) );
#40 = VECTOR ( 'NONE', #55, 39.37007874015748143 ) ;
#41 = CARTESIAN_POINT ( 'NONE',  ( 0.09374999999999998612, 0.3749999999999999445, 1.148106374200643247E-17 ) ) ;
#42 = ORIENTED_EDGE ( 'NONE', *, *, #292, .F. ) ;
#43 = FACE_OUTER_BOUND ( 'NONE', #146, .T. ) ;
#44 = DIRECTION ( 'NONE',  ( -0.000000000000000000, -1.000000000000000000, -0.000000000000000000 ) ) ;
#45 = ORIENTED_EDGE ( 'NONE', *, *, #63, .T. ) ;
#46 = LENGTH_MEASURE_WITH_UNIT ( LENGTH_MEASURE( 0.02539999999999999897 ), #165 );
#47 = DIRECTION ( 'NONE',  ( 0.000000000000000000, 0.000000000000000000, 1.000000000000000000 ) ) ;
#48 = SURFACE_STYLE_USAGE ( .BOTH. , #203 ) ;
#49 = CIRCLE ( 'NONE', #252, 0.09374999999999998612 ) ;
#50 =( NAMED_UNIT ( * ) SI_UNIT ( $, .STERADIAN. ) SOLID_ANGLE_UNIT ( ) );
#51 = VERTEX_POINT ( 'NONE', #189 ) ;
#52 = LENGTH_MEASURE_WITH_UNIT ( LENGTH_MEASURE( 0.02539999999999999897 ), #5 );
#53 = FILL_AREA_STYLE_COLOUR ( '', #103 ) ;
#54 = DIRECTION ( 'NONE',  ( 0.000000000000000000, 0.000000000000000000, -1.000000000000000000 ) ) ;
#55 = DIRECTION ( 'NONE',  ( -0.000000000000000000, -1.000000000000000000, -0.000000000000000000 ) ) ;
#56 = FACE_OUTER_BOUND ( 'NONE', #220, .T. ) ;
#57 = AXIS2_PLACEMENT_3D ( 'NONE', #304, #182, #276 ) ;
#58 =( GEOMETRIC_REPRESENTATION_CONTEXT ( 3 ) GLOBAL_UNCERTAINTY_ASSIGNED_CONTEXT ( ( #274 ) ) GLOBAL_UNIT_ASSIGNED_CONTEXT ( ( #206, #166, #118 ) ) REPRESENTATION_CONTEXT ( 'NONE', 'WORKASPACE' ) );
#59 = PRESENTATION_STYLE_ASSIGNMENT (( #272 ) ) ;
#60 =( CONVERSION_BASED_UNIT ( 'INCH', #227 ) LENGTH_UNIT ( ) NAMED_UNIT ( #258 ) );
#61 = PRODUCT_DEFINITION_FORMATION_WITH_SPECIFIED_SOURCE ( 'ANY', '', #26, .NOT_KNOWN. ) ;
#62 = ADVANCED_BREP_SHAPE_REPRESENTATION ( '48031', ( #13, #11, #6 ), #58 ) ;
#63 = EDGE_CURVE ( 'NONE', #234, #291, #239, .T. ) ;
#64 = VECTOR ( 'NONE', #28, 39.37007874015748143 ) ;
#65 = DIRECTION ( 'NONE',  ( 0.000000000000000000, -0.000000000000000000, 1.000000000000000000 ) ) ;
#66 = EDGE_CURVE ( 'NONE', #15, #114, #9, .T. ) ;
#67 = SURFACE_STYLE_FILL_AREA ( #163 ) ;
#68 = DIRECTION ( 'NONE',  ( 0.000000000000000000, 0.000000000000000000, -1.000000000000000000 ) ) ;
#69 = CARTESIAN_POINT ( 'NONE',  ( 0.000000000000000000, 0.000000000000000000, 0.000000000000000000 ) ) ;
#70 = PRODUCT_CONTEXT ( 'NONE', #106, 'mechanical' ) ;
#71 = CARTESIAN_POINT ( 'NONE',  ( 0.000000000000000000, 0.000000000000000000, 0.000000000000000000 ) ) ;
#72 = STYLED_ITEM ( 'NONE', ( #230 ), #13 ) ;
#73 = CARTESIAN_POINT ( 'NONE',  ( 0.09374999999999998612, 2.000000000000000000, 1.148106374200643247E-17 ) ) ;
#74 = CYLINDRICAL_SURFACE ( 'NONE', #223, 0.09374999999999995837 ) ;
#75 = DIRECTION ( 'NONE',  ( -1.000000000000000000, 0.000000000000000000, 0.000000000000000000 ) ) ;
#76 = MECHANICAL_DESIGN_GEOMETRIC_PRESENTATION_REPRESENTATION (  '', ( #158 ), #19 ) ;
#77 = DIRECTION ( 'NONE',  ( 3.768143997376471359E-17, 1.000000000000000000, -0.000000000000000000 ) ) ;
#78 = ORIENTED_EDGE ( 'NONE', *, *, #242, .T. ) ;
#79 = SURFACE_SIDE_STYLE ('',( #181 ) ) ;
#80 = SURFACE_STYLE_FILL_AREA ( #218 ) ;
#81 = UNCERTAINTY_MEASURE_WITH_UNIT (LENGTH_MEASURE( 1.000000000000000082E-05 ), #211, 'distance_accuracy_value', 'NONE');
#82 = MECHANICAL_DESIGN_GEOMETRIC_PRESENTATION_REPRESENTATION (  '', ( #72 ), #138 ) ;
#83 = SURFACE_SIDE_STYLE ('',( #34 ) ) ;
#84 = AXIS2_PLACEMENT_3D ( 'NONE', #71, #257, #20 ) ;
#85 = ORIENTED_EDGE ( 'NONE', *, *, #242, .F. ) ;
#86 = ORIENTED_EDGE ( 'NONE', *, *, #125, .F. ) ;
#87 = UNCERTAINTY_MEASURE_WITH_UNIT (LENGTH_MEASURE( 1.000000000000000082E-05 ), #168, 'distance_accuracy_value', 'NONE');
#88 = ORIENTED_EDGE ( 'NONE', *, *, #151, .F. ) ;
#89 = ORIENTED_EDGE ( 'NONE', *, *, #248, .T. ) ;
#90 =( NAMED_UNIT ( * ) SI_UNIT ( $, .STERADIAN. ) SOLID_ANGLE_UNIT ( ) );
#91 =( NAMED_UNIT ( * ) SI_UNIT ( $, .STERADIAN. ) SOLID_ANGLE_UNIT ( ) );
#92 = CYLINDRICAL_SURFACE ( 'NONE', #16, 0.09374999999999998612 ) ;
#93 = ORIENTED_EDGE ( 'NONE', *, *, #248, .F. ) ;
#94 = PRESENTATION_STYLE_ASSIGNMENT (( #144 ) ) ;
#95 = LENGTH_MEASURE_WITH_UNIT ( LENGTH_MEASURE( 0.02539999999999999897 ), #279 );
#96 = DIRECTION ( 'NONE',  ( -1.000000000000000000, 0.000000000000000000, 0.000000000000000000 ) ) ;
#97 = LENGTH_MEASURE_WITH_UNIT ( LENGTH_MEASURE( 0.02539999999999999897 ), #17 );
#98 = SURFACE_SIDE_STYLE ('',( #214 ) ) ;
#99 = DIRECTION ( 'NONE',  ( 0.000000000000000000, 0.000000000000000000, -1.000000000000000000 ) ) ;
#100 = CIRCLE ( 'NONE', #178, 0.09374999999999998612 ) ;
#101 = CARTESIAN_POINT ( 'NONE',  ( 0.09375000000000002776, 2.000000000000000000, 1.148106374200643092E-17 ) ) ;
#102 = UNCERTAINTY_MEASURE_WITH_UNIT (LENGTH_MEASURE( 1.000000000000000082E-05 ), #60, 'distance_accuracy_value', 'NONE');
#103 = COLOUR_RGB ( '',1.000000000000000000, 0.000000000000000000, 0.000000000000000000 ) ;
#104 = ADVANCED_FACE ( 'NONE', ( #285 ), #192, .T. ) ;
#105 = CYLINDRICAL_SURFACE ( 'NONE', #126, 0.09374999999999998612 ) ;
#106 = APPLICATION_CONTEXT ( 'automotive_design' ) ;
#107 = DIRECTION ( 'NONE',  ( 0.000000000000000000, 0.000000000000000000, -1.000000000000000000 ) ) ;
#108 = FACE_OUTER_BOUND ( 'NONE', #109, .T. ) ;
#109 = EDGE_LOOP ( 'NONE', ( #202, #45 ) ) ;
#110 = COLOUR_RGB ( '',1.000000000000000000, 0.000000000000000000, 0.000000000000000000 ) ;
#111 = EDGE_LOOP ( 'NONE', ( #305, #139, #86, #93 ) ) ;
#112 = APPLICATION_PROTOCOL_DEFINITION ( 'draft international standard', 'automotive_design', 1998, #249 ) ;
#113 = AXIS2_PLACEMENT_3D ( 'NONE', #266, #128, #7 ) ;
#114 = VERTEX_POINT ( 'NONE', #73 ) ;
#115 =( NAMED_UNIT ( * ) PLANE_ANGLE_UNIT ( ) SI_UNIT ( $, .RADIAN. ) );
#116 = DIRECTION ( 'NONE',  ( 3.768143997376471359E-17, 1.000000000000000000, -0.000000000000000000 ) ) ;
#117 = LENGTH_MEASURE_WITH_UNIT ( LENGTH_MEASURE( 0.02539999999999999897 ), #228 );
#118 =( NAMED_UNIT ( * ) SI_UNIT ( $, .STERADIAN. ) SOLID_ANGLE_UNIT ( ) );
#119 = CLOSED_SHELL ( 'NONE', ( #229, #297, #301, #284 ) ) ;
#120 =( NAMED_UNIT ( * ) PLANE_ANGLE_UNIT ( ) SI_UNIT ( $, .RADIAN. ) );
#121 = CARTESIAN_POINT ( 'NONE',  ( 1.148106374200643401E-17, 0.3750000000000000555, 0.09374999999999998612 ) ) ;
#122 = DIMENSIONAL_EXPONENTS ( 1.000000000000000000, 0.000000000000000000, 0.000000000000000000, 0.000000000000000000, 0.000000000000000000, 0.000000000000000000, 0.000000000000000000 ) ;
#123 = CARTESIAN_POINT ( 'NONE',  ( 0.000000000000000000, 0.000000000000000000, -0.09374999999999998612 ) ) ;
#124 = SURFACE_SIDE_STYLE ('',( #152 ) ) ;
#125 = EDGE_CURVE ( 'NONE', #180, #114, #172, .T. ) ;
#126 = AXIS2_PLACEMENT_3D ( 'NONE', #240, #27, #107 ) ;
#127 = DIMENSIONAL_EXPONENTS ( 1.000000000000000000, 0.000000000000000000, 0.000000000000000000, 0.000000000000000000, 0.000000000000000000, 0.000000000000000000, 0.000000000000000000 ) ;
#128 = DIRECTION ( 'NONE',  ( -0.000000000000000000, -1.000000000000000000, -0.000000000000000000 ) ) ;
#129 = AXIS2_PLACEMENT_3D ( 'NONE', #271, #161, #65 ) ;
#130 = DIRECTION ( 'NONE',  ( 3.768143997376471359E-17, 1.000000000000000000, -0.000000000000000000 ) ) ;
#131 =( GEOMETRIC_REPRESENTATION_CONTEXT ( 3 ) GLOBAL_UNCERTAINTY_ASSIGNED_CONTEXT ( ( #102 ) ) GLOBAL_UNIT_ASSIGNED_CONTEXT ( ( #60, #177, #159 ) ) REPRESENTATION_CONTEXT ( 'NONE', 'WORKASPACE' ) );
#132 = CIRCLE ( 'NONE', #57, 0.09374999999999998612 ) ;
#133 = ORIENTED_EDGE ( 'NONE', *, *, #35, .T. ) ;
#134 = MECHANICAL_DESIGN_GEOMETRIC_PRESENTATION_REPRESENTATION (  '', ( #157 ), #200 ) ;
#135 = PRESENTATION_STYLE_ASSIGNMENT (( #31 ) ) ;
#136 = ORIENTED_EDGE ( 'NONE', *, *, #186, .T. ) ;
#137 =( GEOMETRIC_REPRESENTATION_CONTEXT ( 3 ) GLOBAL_UNCERTAINTY_ASSIGNED_CONTEXT ( ( #175 ) ) GLOBAL_UNIT_ASSIGNED_CONTEXT ( ( #39, #303, #91 ) ) REPRESENTATION_CONTEXT ( 'NONE', 'WORKASPACE' ) );
#138 =( GEOMETRIC_REPRESENTATION_CONTEXT ( 3 ) GLOBAL_UNCERTAINTY_ASSIGNED_CONTEXT ( ( #290 ) ) GLOBAL_UNIT_ASSIGNED_CONTEXT ( ( #209, #115, #90 ) ) REPRESENTATION_CONTEXT ( 'NONE', 'WORKASPACE' ) );
#139 = ORIENTED_EDGE ( 'NONE', *, *, #66, .T. ) ;
#140 = FACE_OUTER_BOUND ( 'NONE', #283, .T. ) ;
#141 = FILL_AREA_STYLE ('',( #53 ) ) ;
#142 = VECTOR ( 'NONE', #29, 39.37007874015748143 ) ;
#143 = SHAPE_DEFINITION_REPRESENTATION ( #169, #62 ) ;
#144 = SURFACE_STYLE_USAGE ( .BOTH. , #98 ) ;
#145 = FILL_AREA_STYLE_COLOUR ( '', #183 ) ;
#146 = EDGE_LOOP ( 'NONE', ( #88, #199 ) ) ;
#147 = DIRECTION ( 'NONE',  ( 1.000000000000000000, 0.000000000000000000, 0.000000000000000000 ) ) ;
#148 =( LENGTH_UNIT ( ) NAMED_UNIT ( * ) SI_UNIT ( $, .METRE. ) );
#149 = AXIS2_PLACEMENT_3D ( 'NONE', #198, #244, #256 ) ;
#150 = ADVANCED_FACE ( 'NONE', ( #236 ), #74, .T. ) ;
#151 = EDGE_CURVE ( 'NONE', #51, #294, #49, .T. ) ;
#152 = SURFACE_STYLE_FILL_AREA ( #260 ) ;
#153 = CARTESIAN_POINT ( 'NONE',  ( -0.09374999999999984734, 2.000000000000000000, 0.000000000000000000 ) ) ;
#154 = DIRECTION ( 'NONE',  ( -0.000000000000000000, -1.000000000000000000, -0.000000000000000000 ) ) ;
#155 = DIRECTION ( 'NONE',  ( -1.000000000000000000, 0.000000000000000000, 0.000000000000000000 ) ) ;
#156 = PRODUCT_DEFINITION_CONTEXT ( 'detailed design', #249, 'design' ) ;
#157 = STYLED_ITEM ( 'NONE', ( #286 ), #297 ) ;
#158 = STYLED_ITEM ( 'NONE', ( #135 ), #284 ) ;
#159 =( NAMED_UNIT ( * ) SI_UNIT ( $, .STERADIAN. ) SOLID_ANGLE_UNIT ( ) );
#160 = UNCERTAINTY_MEASURE_WITH_UNIT (LENGTH_MEASURE( 1.000000000000000082E-05 ), #278, 'distance_accuracy_value', 'NONE');
#161 = DIRECTION ( 'NONE',  ( 0.000000000000000000, 1.000000000000000000, 0.000000000000000000 ) ) ;
#162 = CIRCLE ( 'NONE', #197, 0.09374999999999998612 ) ;
#163 = FILL_AREA_STYLE ('',( #145 ) ) ;
#164 = ORIENTED_EDGE ( 'NONE', *, *, #66, .F. ) ;
#165 =( LENGTH_UNIT ( ) NAMED_UNIT ( * ) SI_UNIT ( $, .METRE. ) );
#166 =( NAMED_UNIT ( * ) PLANE_ANGLE_UNIT ( ) SI_UNIT ( $, .RADIAN. ) );
#167 = DIRECTION ( 'NONE',  ( 3.768143997376471359E-17, 1.000000000000000000, -0.000000000000000000 ) ) ;
#168 =( CONVERSION_BASED_UNIT ( 'INCH', #210 ) LENGTH_UNIT ( ) NAMED_UNIT ( #127 ) );
#169 = PRODUCT_DEFINITION_SHAPE ( 'NONE', 'NONE',  #280 ) ;
#170 = DIRECTION ( 'NONE',  ( -1.000000000000000000, 0.000000000000000000, 0.000000000000000000 ) ) ;
#171 = AXIS2_PLACEMENT_3D ( 'NONE', #216, #307, #96 ) ;
#172 = CIRCLE ( 'NONE', #299, 0.09374999999999991673 ) ;
#173 = CARTESIAN_POINT ( 'NONE',  ( 1.148106374200643555E-17, 0.000000000000000000, 0.09375000000000001388 ) ) ;
#174 = FILL_AREA_STYLE_COLOUR ( '', #3 ) ;
#175 = UNCERTAINTY_MEASURE_WITH_UNIT (LENGTH_MEASURE( 1.000000000000000082E-05 ), #39, 'distance_accuracy_value', 'NONE');
#176 = PRESENTATION_LAYER_ASSIGNMENT (  '', '', ( #267 ) ) ;
#177 =( NAMED_UNIT ( * ) PLANE_ANGLE_UNIT ( ) SI_UNIT ( $, .RADIAN. ) );
#178 = AXIS2_PLACEMENT_3D ( 'NONE', #38, #116, #201 ) ;
#179 = FILL_AREA_STYLE ('',( #174 ) ) ;
#180 = VERTEX_POINT ( 'NONE', #153 ) ;
#181 = SURFACE_STYLE_FILL_AREA ( #141 ) ;
#182 = DIRECTION ( 'NONE',  ( -0.000000000000000000, -1.000000000000000000, -0.000000000000000000 ) ) ;
#183 = COLOUR_RGB ( '',0.7921568627450980005, 0.8196078431372548767, 0.9333333333333333481 ) ;
#184 = CARTESIAN_POINT ( 'NONE',  ( 0.000000000000000000, 0.000000000000000000, 0.000000000000000000 ) ) ;
#185 = VERTEX_POINT ( 'NONE', #221 ) ;
#186 = EDGE_CURVE ( 'NONE', #294, #234, #238, .T. ) ;
#187 = FILL_AREA_STYLE_COLOUR ( '', #247 ) ;
#188 = ORIENTED_EDGE ( 'NONE', *, *, #212, .F. ) ;
#189 = CARTESIAN_POINT ( 'NONE',  ( 0.000000000000000000, 0.3750000000000000555, -0.09374999999999998612 ) ) ;
#190 = STYLED_ITEM ( 'NONE', ( #94 ), #229 ) ;
#191 = PRODUCT_RELATED_PRODUCT_CATEGORY ( 'part', '', ( #26 ) ) ;
#192 = CYLINDRICAL_SURFACE ( 'NONE', #36, 0.09374999999999995837 ) ;
#193 = CARTESIAN_POINT ( 'NONE',  ( 6.123233995736766036E-17, 2.000000000000000000, 0.000000000000000000 ) ) ;
#194 = FILL_AREA_STYLE_COLOUR ( '', #281 ) ;
#195 = MECHANICAL_DESIGN_GEOMETRIC_PRESENTATION_REPRESENTATION (  '', ( #267 ), #131 ) ;
#196 = ORIENTED_EDGE ( 'NONE', *, *, #125, .T. ) ;
#197 = AXIS2_PLACEMENT_3D ( 'NONE', #287, #265, #155 ) ;
#198 = CARTESIAN_POINT ( 'NONE',  ( 0.09374999999999998612, 2.000000000000000000, 0.000000000000000000 ) ) ;
#199 = ORIENTED_EDGE ( 'NONE', *, *, #33, .F. ) ;
#200 =( GEOMETRIC_REPRESENTATION_CONTEXT ( 3 ) GLOBAL_UNCERTAINTY_ASSIGNED_CONTEXT ( ( #87 ) ) GLOBAL_UNIT_ASSIGNED_CONTEXT ( ( #168, #264, #50 ) ) REPRESENTATION_CONTEXT ( 'NONE', 'WORKASPACE' ) );
#201 = DIRECTION ( 'NONE',  ( -1.000000000000000000, 0.000000000000000000, 0.000000000000000000 ) ) ;
#202 = ORIENTED_EDGE ( 'NONE', *, *, #212, .T. ) ;
#203 = SURFACE_SIDE_STYLE ('',( #67 ) ) ;
#204 = PRESENTATION_LAYER_ASSIGNMENT (  '', '', ( #158 ) ) ;
#205 = CARTESIAN_POINT ( 'NONE',  ( 0.000000000000000000, 0.000000000000000000, -0.09375000000000001388 ) ) ;
#206 =( CONVERSION_BASED_UNIT ( 'INCH', #97 ) LENGTH_UNIT ( ) NAMED_UNIT ( #261 ) );
#207 = ORIENTED_EDGE ( 'NONE', *, *, #151, .T. ) ;
#208 = APPLICATION_PROTOCOL_DEFINITION ( 'draft international standard', 'automotive_design', 1998, #106 ) ;
#209 =( CONVERSION_BASED_UNIT ( 'INCH', #95 ) LENGTH_UNIT ( ) NAMED_UNIT ( #1 ) );
#210 = LENGTH_MEASURE_WITH_UNIT ( LENGTH_MEASURE( 0.02539999999999999897 ), #148 );
#211 =( CONVERSION_BASED_UNIT ( 'INCH', #46 ) LENGTH_UNIT ( ) NAMED_UNIT ( #237 ) );
#212 = EDGE_CURVE ( 'NONE', #291, #234, #226, .T. ) ;
#213 =( NAMED_UNIT ( * ) PLANE_ANGLE_UNIT ( ) SI_UNIT ( $, .RADIAN. ) );
#214 = SURFACE_STYLE_FILL_AREA ( #255 ) ;
#215 = CIRCLE ( 'NONE', #171, 0.09374999999999991673 ) ;
#216 = CARTESIAN_POINT ( 'NONE',  ( 6.123233995736766036E-17, 2.000000000000000000, 0.000000000000000000 ) ) ;
#217 = PRESENTATION_LAYER_ASSIGNMENT (  '', '', ( #72 ) ) ;
#218 = FILL_AREA_STYLE ('',( #270 ) ) ;
#219 = CARTESIAN_POINT ( 'NONE',  ( 0.000000000000000000, 0.3750000000000000555, 0.000000000000000000 ) ) ;
#220 = EDGE_LOOP ( 'NONE', ( #277, #85 ) ) ;
#221 = CARTESIAN_POINT ( 'NONE',  ( -0.09374999999999998612, 0.3749999999999999445, 0.000000000000000000 ) ) ;
#222 = PLANE ( 'NONE',  #233 ) ;
#223 = AXIS2_PLACEMENT_3D ( 'NONE', #268, #167, #170 ) ;
#224 = PRESENTATION_LAYER_ASSIGNMENT (  '', '', ( #37 ) ) ;
#225 = EDGE_LOOP ( 'NONE', ( #253, #300, #133, #232 ) ) ;
#226 = CIRCLE ( 'NONE', #113, 0.09375000000000001388 ) ;
#227 = LENGTH_MEASURE_WITH_UNIT ( LENGTH_MEASURE( 0.02539999999999999897 ), #250 );
#228 =( LENGTH_UNIT ( ) NAMED_UNIT ( * ) SI_UNIT ( $, .METRE. ) );
#229 = ADVANCED_FACE ( 'NONE', ( #8 ), #105, .T. ) ;
#230 = PRESENTATION_STYLE_ASSIGNMENT (( #48 ) ) ;
#231 = EDGE_LOOP ( 'NONE', ( #207, #136, #188, #309 ) ) ;
#232 = ORIENTED_EDGE ( 'NONE', *, *, #63, .F. ) ;
#233 = AXIS2_PLACEMENT_3D ( 'NONE', #30, #130, #10 ) ;
#234 = VERTEX_POINT ( 'NONE', #173 ) ;
#235 = PLANE ( 'NONE',  #129 ) ;
#236 = FACE_OUTER_BOUND ( 'NONE', #21, .T. ) ;
#237 = DIMENSIONAL_EXPONENTS ( 1.000000000000000000, 0.000000000000000000, 0.000000000000000000, 0.000000000000000000, 0.000000000000000000, 0.000000000000000000, 0.000000000000000000 ) ;
#238 = LINE ( 'NONE', #24, #40 ) ;
#239 = CIRCLE ( 'NONE', #306, 0.09375000000000001388 ) ;
#240 = CARTESIAN_POINT ( 'NONE',  ( 0.000000000000000000, 0.000000000000000000, 0.000000000000000000 ) ) ;
#241 = DIRECTION ( 'NONE',  ( -1.000000000000000000, 0.000000000000000000, 0.000000000000000000 ) ) ;
#242 = EDGE_CURVE ( 'NONE', #15, #185, #162, .T. ) ;
#243 = LINE ( 'NONE', #269, #64 ) ;
#244 = DIRECTION ( 'NONE',  ( -3.768143997376471359E-17, -1.000000000000000000, 0.000000000000000000 ) ) ;
#245 = VECTOR ( 'NONE', #154, 39.37007874015748143 ) ;
#246 = SURFACE_SIDE_STYLE ('',( #80 ) ) ;
#247 = COLOUR_RGB ( '',1.000000000000000000, 0.000000000000000000, 0.000000000000000000 ) ;
#248 = EDGE_CURVE ( 'NONE', #185, #180, #243, .T. ) ;
#249 = APPLICATION_CONTEXT ( 'automotive_design' ) ;
#250 =( LENGTH_UNIT ( ) NAMED_UNIT ( * ) SI_UNIT ( $, .METRE. ) );
#251 = SURFACE_STYLE_USAGE ( .BOTH. , #79 ) ;
#252 = AXIS2_PLACEMENT_3D ( 'NONE', #219, #263, #54 ) ;
#253 = ORIENTED_EDGE ( 'NONE', *, *, #186, .F. ) ;
#254 = LINE ( 'NONE', #123, #245 ) ;
#255 = FILL_AREA_STYLE ('',( #194 ) ) ;
#256 = DIRECTION ( 'NONE',  ( 1.000000000000000000, -3.768143997376471359E-17, 0.000000000000000000 ) ) ;
#257 = DIRECTION ( 'NONE',  ( 0.000000000000000000, -1.000000000000000000, -0.000000000000000000 ) ) ;
#258 = DIMENSIONAL_EXPONENTS ( 1.000000000000000000, 0.000000000000000000, 0.000000000000000000, 0.000000000000000000, 0.000000000000000000, 0.000000000000000000, 0.000000000000000000 ) ;
#259 = CARTESIAN_POINT ( 'NONE',  ( 6.123233995736766036E-17, 2.000000000000000000, 0.000000000000000000 ) ) ;
#260 = FILL_AREA_STYLE ('',( #187 ) ) ;
#261 = DIMENSIONAL_EXPONENTS ( 1.000000000000000000, 0.000000000000000000, 0.000000000000000000, 0.000000000000000000, 0.000000000000000000, 0.000000000000000000, 0.000000000000000000 ) ;
#262 = ADVANCED_FACE ( 'NONE', ( #56 ), #222, .F. ) ;
#263 = DIRECTION ( 'NONE',  ( -0.000000000000000000, -1.000000000000000000, -0.000000000000000000 ) ) ;
#264 =( NAMED_UNIT ( * ) PLANE_ANGLE_UNIT ( ) SI_UNIT ( $, .RADIAN. ) );
#265 = DIRECTION ( 'NONE',  ( 3.768143997376471359E-17, 1.000000000000000000, -0.000000000000000000 ) ) ;
#266 = CARTESIAN_POINT ( 'NONE',  ( 0.000000000000000000, 0.000000000000000000, 0.000000000000000000 ) ) ;
#267 = STYLED_ITEM ( 'NONE', ( #59 ), #11 ) ;
#268 = CARTESIAN_POINT ( 'NONE',  ( 6.123233995736766036E-17, 2.000000000000000000, 0.000000000000000000 ) ) ;
#269 = CARTESIAN_POINT ( 'NONE',  ( -0.09374999999999988898, 2.000000000000000000, 0.000000000000000000 ) ) ;
#270 = FILL_AREA_STYLE_COLOUR ( '', #110 ) ;
#271 = CARTESIAN_POINT ( 'NONE',  ( 0.000000000000000000, 0.3750000000000000555, 0.000000000000000000 ) ) ;
#272 = SURFACE_STYLE_USAGE ( .BOTH. , #83 ) ;
#273 = PRESENTATION_STYLE_ASSIGNMENT (( #251 ) ) ;
#274 = UNCERTAINTY_MEASURE_WITH_UNIT (LENGTH_MEASURE( 1.000000000000000082E-05 ), #206, 'distance_accuracy_value', 'NONE');
#275 = MECHANICAL_DESIGN_GEOMETRIC_PRESENTATION_REPRESENTATION (  '', ( #190 ), #23 ) ;
#276 = DIRECTION ( 'NONE',  ( 0.000000000000000000, 0.000000000000000000, -1.000000000000000000 ) ) ;
#277 = ORIENTED_EDGE ( 'NONE', *, *, #18, .F. ) ;
#278 =( CONVERSION_BASED_UNIT ( 'INCH', #52 ) LENGTH_UNIT ( ) NAMED_UNIT ( #22 ) );
#279 =( LENGTH_UNIT ( ) NAMED_UNIT ( * ) SI_UNIT ( $, .METRE. ) );
#280 = PRODUCT_DEFINITION ( 'UNKNOWN', '', #61, #156 ) ;
#281 = COLOUR_RGB ( '',1.000000000000000000, 0.000000000000000000, 0.000000000000000000 ) ;
#282 = DIRECTION ( 'NONE',  ( 3.768143997376471359E-17, 1.000000000000000000, -0.000000000000000000 ) ) ;
#283 = EDGE_LOOP ( 'NONE', ( #196, #296 ) ) ;
#284 = ADVANCED_FACE ( 'NONE', ( #108 ), #293, .T. ) ;
#285 = FACE_OUTER_BOUND ( 'NONE', #111, .T. ) ;
#286 = PRESENTATION_STYLE_ASSIGNMENT (( #4 ) ) ;
#287 = CARTESIAN_POINT ( 'NONE',  ( 0.000000000000000000, 0.3749999999999999445, 0.000000000000000000 ) ) ;
#288 = FACE_OUTER_BOUND ( 'NONE', #225, .T. ) ;
#289 = DIRECTION ( 'NONE',  ( -0.000000000000000000, -1.000000000000000000, -0.000000000000000000 ) ) ;
#290 = UNCERTAINTY_MEASURE_WITH_UNIT (LENGTH_MEASURE( 1.000000000000000082E-05 ), #209, 'distance_accuracy_value', 'NONE');
#291 = VERTEX_POINT ( 'NONE', #205 ) ;
#292 = EDGE_CURVE ( 'NONE', #114, #180, #215, .T. ) ;
#293 = PLANE ( 'NONE',  #84 ) ;
#294 = VERTEX_POINT ( 'NONE', #121 ) ;
#295 = CLOSED_SHELL ( 'NONE', ( #104, #262, #150, #12 ) ) ;
#296 = ORIENTED_EDGE ( 'NONE', *, *, #292, .T. ) ;
#297 = ADVANCED_FACE ( 'NONE', ( #43 ), #235, .T. ) ;
#298 = PLANE ( 'NONE',  #149 ) ;
#299 = AXIS2_PLACEMENT_3D ( 'NONE', #259, #77, #241 ) ;
#300 = ORIENTED_EDGE ( 'NONE', *, *, #33, .T. ) ;
#301 = ADVANCED_FACE ( 'NONE', ( #288 ), #92, .T. ) ;
#302 = MECHANICAL_DESIGN_GEOMETRIC_PRESENTATION_REPRESENTATION (  '', ( #37 ), #137 ) ;
#303 =( NAMED_UNIT ( * ) PLANE_ANGLE_UNIT ( ) SI_UNIT ( $, .RADIAN. ) );
#304 = CARTESIAN_POINT ( 'NONE',  ( 0.000000000000000000, 0.3750000000000000555, 0.000000000000000000 ) ) ;
#305 = ORIENTED_EDGE ( 'NONE', *, *, #18, .T. ) ;
#306 = AXIS2_PLACEMENT_3D ( 'NONE', #2, #289, #99 ) ;
#307 = DIRECTION ( 'NONE',  ( 3.768143997376471359E-17, 1.000000000000000000, -0.000000000000000000 ) ) ;
#308 =( NAMED_UNIT ( * ) SI_UNIT ( $, .STERADIAN. ) SOLID_ANGLE_UNIT ( ) );
#309 = ORIENTED_EDGE ( 'NONE', *, *, #35, .F. ) ;
ENDSEC;
END-ISO-10303-21;
