ISO-10303-21;
HEADER;
FILE_DESCRIPTION (( 'STEP AP214' ),
    '1' );
FILE_NAME ('59721.STEP',
    '2023-07-24T15:54:40',
    ( '' ),
    ( '' ),
    'SwSTEP 2.0',
    'SolidWorks 2023',
    '' );
FILE_SCHEMA (( 'AUTOMOTIVE_DESIGN' ));
ENDSEC;

DATA;
#1 = VECTOR ( 'NONE', #84, 1000.000000000000000 ) ;
#2 = PRODUCT_DEFINITION_CONTEXT ( 'detailed design', #57, 'design' ) ;
#3 = DIRECTION ( 'NONE',  ( -2.905941557298803228E-17, 1.000000000000000000, -0.000000000000000000 ) ) ;
#4 = EDGE_LOOP ( 'NONE', ( #260, #66, #31, #176 ) ) ;
#5 = PRESENTATION_STYLE_ASSIGNMENT (( #91 ) ) ;
#6 = UNCERTAINTY_MEASURE_WITH_UNIT (LENGTH_MEASURE( 1.000000000000000082E-05 ), #278, 'distance_accuracy_value', 'NONE');
#7 = COLOUR_RGB ( '',0.7921568627450980005, 0.8196078431372548767, 0.9333333333333333481 ) ;
#8 = CARTESIAN_POINT ( 'NONE',  ( 0.000000000000000000, 0.000000000000000000, 0.000000000000000000 ) ) ;
#9 = DIRECTION ( 'NONE',  ( -0.000000000000000000, -1.000000000000000000, -0.000000000000000000 ) ) ;
#10 = VECTOR ( 'NONE', #147, 1000.000000000000000 ) ;
#11 = ORIENTED_EDGE ( 'NONE', *, *, #186, .T. ) ;
#12 = STYLED_ITEM ( 'NONE', ( #78 ), #63 ) ;
#13 =( NAMED_UNIT ( * ) SI_UNIT ( $, .STERADIAN. ) SOLID_ANGLE_UNIT ( ) );
#14 = DIRECTION ( 'NONE',  ( -2.905941557298803228E-17, 1.000000000000000000, -0.000000000000000000 ) ) ;
#15 = DIRECTION ( 'NONE',  ( 0.000000000000000000, 0.000000000000000000, -1.000000000000000000 ) ) ;
#16 = DIRECTION ( 'NONE',  ( -2.905941557298803228E-17, 1.000000000000000000, -0.000000000000000000 ) ) ;
#17 = AXIS2_PLACEMENT_3D ( 'NONE', #141, #283, #137 ) ;
#18 = AXIS2_PLACEMENT_3D ( 'NONE', #254, #241, #118 ) ;
#19 = CARTESIAN_POINT ( 'NONE',  ( 10.00000000000000000, 89.00000000000000000, 1.224646799147353454E-15 ) ) ;
#20 = UNCERTAINTY_MEASURE_WITH_UNIT (LENGTH_MEASURE( 1.000000000000000082E-05 ), #38, 'distance_accuracy_value', 'NONE');
#21 = DIRECTION ( 'NONE',  ( -0.000000000000000000, -1.000000000000000000, -0.000000000000000000 ) ) ;
#22 = VERTEX_POINT ( 'NONE', #56 ) ;
#23 = AXIS2_PLACEMENT_3D ( 'NONE', #237, #41, #82 ) ;
#24 = DIRECTION ( 'NONE',  ( 0.000000000000000000, -0.000000000000000000, 1.000000000000000000 ) ) ;
#25 = SURFACE_STYLE_USAGE ( .BOTH. , #268 ) ;
#26 = SURFACE_SIDE_STYLE ('',( #130 ) ) ;
#27 =( NAMED_UNIT ( * ) PLANE_ANGLE_UNIT ( ) SI_UNIT ( $, .RADIAN. ) );
#28 = ADVANCED_FACE ( 'NONE', ( #213 ), #187, .F. ) ;
#29 = COLOUR_RGB ( '',1.000000000000000000, 0.000000000000000000, 0.000000000000000000 ) ;
#30 = MECHANICAL_DESIGN_GEOMETRIC_PRESENTATION_REPRESENTATION (  '', ( #152 ), #188 ) ;
#31 = ORIENTED_EDGE ( 'NONE', *, *, #93, .F. ) ;
#32 = ORIENTED_EDGE ( 'NONE', *, *, #192, .T. ) ;
#33 = EDGE_CURVE ( 'NONE', #222, #219, #208, .T. ) ;
#34 = FILL_AREA_STYLE ('',( #113 ) ) ;
#35 = CARTESIAN_POINT ( 'NONE',  ( 10.00000000000000000, 89.00000000000000000, 0.000000000000000000 ) ) ;
#36 = EDGE_LOOP ( 'NONE', ( #263, #11 ) ) ;
#37 = PRESENTATION_LAYER_ASSIGNMENT (  '', '', ( #184 ) ) ;
#38 =( LENGTH_UNIT ( ) NAMED_UNIT ( * ) SI_UNIT ( .MILLI., .METRE. ) );
#39 = SURFACE_STYLE_FILL_AREA ( #286 ) ;
#40 = SURFACE_STYLE_USAGE ( .BOTH. , #26 ) ;
#41 = DIRECTION ( 'NONE',  ( -2.905941557298802612E-17, 1.000000000000000000, 0.000000000000000000 ) ) ;
#42 = CARTESIAN_POINT ( 'NONE',  ( 0.000000000000000000, 0.000000000000000000, 0.000000000000000000 ) ) ;
#43 = ORIENTED_EDGE ( 'NONE', *, *, #182, .F. ) ;
#44 = MECHANICAL_DESIGN_GEOMETRIC_PRESENTATION_REPRESENTATION (  '', ( #12 ), #73 ) ;
#45 = ORIENTED_EDGE ( 'NONE', *, *, #211, .F. ) ;
#46 = CARTESIAN_POINT ( 'NONE',  ( 0.000000000000000000, 30.00000000000000000, 0.000000000000000000 ) ) ;
#47 = COLOUR_RGB ( '',1.000000000000000000, 0.000000000000000000, 0.000000000000000000 ) ;
#48 = DIRECTION ( 'NONE',  ( 0.000000000000000000, 0.000000000000000000, -1.000000000000000000 ) ) ;
#49 = AXIS2_PLACEMENT_3D ( 'NONE', #215, #14, #100 ) ;
#50 = SURFACE_STYLE_FILL_AREA ( #267 ) ;
#51 = ORIENTED_EDGE ( 'NONE', *, *, #93, .T. ) ;
#52 = EDGE_CURVE ( 'NONE', #69, #98, #189, .T. ) ;
#53 =( GEOMETRIC_REPRESENTATION_CONTEXT ( 3 ) GLOBAL_UNCERTAINTY_ASSIGNED_CONTEXT ( ( #6 ) ) GLOBAL_UNIT_ASSIGNED_CONTEXT ( ( #278, #61, #167 ) ) REPRESENTATION_CONTEXT ( 'NONE', 'WORKASPACE' ) );
#54 = CIRCLE ( 'NONE', #49, 10.00000000000000178 ) ;
#55 = UNCERTAINTY_MEASURE_WITH_UNIT (LENGTH_MEASURE( 1.000000000000000082E-05 ), #272, 'distance_accuracy_value', 'NONE');
#56 = CARTESIAN_POINT ( 'NONE',  ( 10.00000000000000000, 30.00000000000000000, 1.224646799147353454E-15 ) ) ;
#57 = APPLICATION_CONTEXT ( 'automotive_design' ) ;
#58 = CARTESIAN_POINT ( 'NONE',  ( -1.714505518806293849E-15, 89.00000000000000000, 0.000000000000000000 ) ) ;
#59 = PLANE ( 'NONE',  #23 ) ;
#60 = STYLED_ITEM ( 'NONE', ( #5 ), #221 ) ;
#61 =( NAMED_UNIT ( * ) PLANE_ANGLE_UNIT ( ) SI_UNIT ( $, .RADIAN. ) );
#62 = FILL_AREA_STYLE_COLOUR ( '', #47 ) ;
#63 = MANIFOLD_SOLID_BREP ( 'Revolve - Cutting Edge', #216 ) ;
#64 = PRESENTATION_STYLE_ASSIGNMENT (( #122 ) ) ;
#65 = CIRCLE ( 'NONE', #275, 10.00000000000000000 ) ;
#66 = ORIENTED_EDGE ( 'NONE', *, *, #284, .T. ) ;
#67 = PRODUCT_RELATED_PRODUCT_CATEGORY ( 'part', '', ( #125 ) ) ;
#68 = ADVANCED_BREP_SHAPE_REPRESENTATION ( '59721', ( #63, #148, #159 ), #144 ) ;
#69 = VERTEX_POINT ( 'NONE', #160 ) ;
#70 =( LENGTH_UNIT ( ) NAMED_UNIT ( * ) SI_UNIT ( .MILLI., .METRE. ) );
#71 = ORIENTED_EDGE ( 'NONE', *, *, #273, .F. ) ;
#72 = CLOSED_SHELL ( 'NONE', ( #134, #151, #247, #28 ) ) ;
#73 =( GEOMETRIC_REPRESENTATION_CONTEXT ( 3 ) GLOBAL_UNCERTAINTY_ASSIGNED_CONTEXT ( ( #55 ) ) GLOBAL_UNIT_ASSIGNED_CONTEXT ( ( #272, #162, #13 ) ) REPRESENTATION_CONTEXT ( 'NONE', 'WORKASPACE' ) );
#74 = SURFACE_SIDE_STYLE ('',( #50 ) ) ;
#75 = EDGE_LOOP ( 'NONE', ( #132, #249, #135, #124 ) ) ;
#76 =( GEOMETRIC_REPRESENTATION_CONTEXT ( 3 ) GLOBAL_UNCERTAINTY_ASSIGNED_CONTEXT ( ( #95 ) ) GLOBAL_UNIT_ASSIGNED_CONTEXT ( ( #240, #83, #277 ) ) REPRESENTATION_CONTEXT ( 'NONE', 'WORKASPACE' ) );
#77 = MECHANICAL_DESIGN_GEOMETRIC_PRESENTATION_REPRESENTATION (  '', ( #174 ), #53 ) ;
#78 = PRESENTATION_STYLE_ASSIGNMENT (( #276 ) ) ;
#79 = DIRECTION ( 'NONE',  ( -1.000000000000000000, 0.000000000000000000, 0.000000000000000000 ) ) ;
#80 = CYLINDRICAL_SURFACE ( 'NONE', #270, 10.00000000000000000 ) ;
#81 =( GEOMETRIC_REPRESENTATION_CONTEXT ( 3 ) GLOBAL_UNCERTAINTY_ASSIGNED_CONTEXT ( ( #146 ) ) GLOBAL_UNIT_ASSIGNED_CONTEXT ( ( #131, #27, #92 ) ) REPRESENTATION_CONTEXT ( 'NONE', 'WORKASPACE' ) );
#82 = DIRECTION ( 'NONE',  ( -1.000000000000000000, -2.905941557298802612E-17, 0.000000000000000000 ) ) ;
#83 =( NAMED_UNIT ( * ) PLANE_ANGLE_UNIT ( ) SI_UNIT ( $, .RADIAN. ) );
#84 = DIRECTION ( 'NONE',  ( -2.905941557298802612E-17, 1.000000000000000000, -0.000000000000000000 ) ) ;
#85 = SURFACE_STYLE_USAGE ( .BOTH. , #116 ) ;
#86 = EDGE_LOOP ( 'NONE', ( #51, #179 ) ) ;
#87 = VECTOR ( 'NONE', #229, 1000.000000000000000 ) ;
#88 = DIRECTION ( 'NONE',  ( 0.000000000000000000, 0.000000000000000000, -1.000000000000000000 ) ) ;
#89 = PRESENTATION_STYLE_ASSIGNMENT (( #25 ) ) ;
#90 = VECTOR ( 'NONE', #9, 1000.000000000000000 ) ;
#91 = SURFACE_STYLE_USAGE ( .BOTH. , #74 ) ;
#92 =( NAMED_UNIT ( * ) SI_UNIT ( $, .STERADIAN. ) SOLID_ANGLE_UNIT ( ) );
#93 = EDGE_CURVE ( 'NONE', #224, #96, #194, .T. ) ;
#94 = DIRECTION ( 'NONE',  ( -2.905941557298803228E-17, 1.000000000000000000, -0.000000000000000000 ) ) ;
#95 = UNCERTAINTY_MEASURE_WITH_UNIT (LENGTH_MEASURE( 1.000000000000000082E-05 ), #240, 'distance_accuracy_value', 'NONE');
#96 = VERTEX_POINT ( 'NONE', #19 ) ;
#97 = EDGE_CURVE ( 'NONE', #98, #219, #230, .T. ) ;
#98 = VERTEX_POINT ( 'NONE', #257 ) ;
#99 = PRESENTATION_LAYER_ASSIGNMENT (  '', '', ( #60 ) ) ;
#100 = DIRECTION ( 'NONE',  ( -1.000000000000000000, 0.000000000000000000, 0.000000000000000000 ) ) ;
#101 = DIRECTION ( 'NONE',  ( -1.000000000000000000, 0.000000000000000000, 0.000000000000000000 ) ) ;
#102 = CARTESIAN_POINT ( 'NONE',  ( 10.00000000000000000, 89.00000000000000000, 1.224646799147353454E-15 ) ) ;
#103 = ORIENTED_EDGE ( 'NONE', *, *, #163, .F. ) ;
#104 =( NAMED_UNIT ( * ) SI_UNIT ( $, .STERADIAN. ) SOLID_ANGLE_UNIT ( ) );
#105 = VERTEX_POINT ( 'NONE', #236 ) ;
#106 = CIRCLE ( 'NONE', #246, 10.00000000000000000 ) ;
#107 = FILL_AREA_STYLE ('',( #256 ) ) ;
#108 = DIRECTION ( 'NONE',  ( 0.000000000000000000, 0.000000000000000000, 1.000000000000000000 ) ) ;
#109 = FILL_AREA_STYLE_COLOUR ( '', #29 ) ;
#110 = CIRCLE ( 'NONE', #127, 10.00000000000000000 ) ;
#111 = DIRECTION ( 'NONE',  ( 2.905941557298802612E-17, -1.000000000000000000, 0.000000000000000000 ) ) ;
#112 = AXIS2_PLACEMENT_3D ( 'NONE', #46, #126, #24 ) ;
#113 = FILL_AREA_STYLE_COLOUR ( '', #7 ) ;
#114 = ADVANCED_FACE ( 'NONE', ( #193 ), #80, .T. ) ;
#115 = AXIS2_PLACEMENT_3D ( 'NONE', #157, #262, #288 ) ;
#116 = SURFACE_SIDE_STYLE ('',( #39 ) ) ;
#117 = CARTESIAN_POINT ( 'NONE',  ( 0.000000000000000000, 30.00000000000000000, 0.000000000000000000 ) ) ;
#118 = DIRECTION ( 'NONE',  ( 0.000000000000000000, 0.000000000000000000, -1.000000000000000000 ) ) ;
#119 = FACE_OUTER_BOUND ( 'NONE', #4, .T. ) ;
#120 = AXIS2_PLACEMENT_3D ( 'NONE', #35, #111, #269 ) ;
#121 = APPLICATION_PROTOCOL_DEFINITION ( 'draft international standard', 'automotive_design', 1998, #209 ) ;
#122 = SURFACE_STYLE_USAGE ( .BOTH. , #217 ) ;
#123 = SURFACE_STYLE_FILL_AREA ( #173 ) ;
#124 = ORIENTED_EDGE ( 'NONE', *, *, #186, .F. ) ;
#125 = PRODUCT ( '59721', '59721', '', ( #204 ) ) ;
#126 = DIRECTION ( 'NONE',  ( 0.000000000000000000, 1.000000000000000000, 0.000000000000000000 ) ) ;
#127 = AXIS2_PLACEMENT_3D ( 'NONE', #117, #214, #15 ) ;
#128 = DIRECTION ( 'NONE',  ( -1.000000000000000000, 0.000000000000000000, 0.000000000000000000 ) ) ;
#129 = ORIENTED_EDGE ( 'NONE', *, *, #238, .F. ) ;
#130 = SURFACE_STYLE_FILL_AREA ( #248 ) ;
#131 =( LENGTH_UNIT ( ) NAMED_UNIT ( * ) SI_UNIT ( .MILLI., .METRE. ) );
#132 = ORIENTED_EDGE ( 'NONE', *, *, #33, .F. ) ;
#133 = CARTESIAN_POINT ( 'NONE',  ( 0.000000000000000000, 0.000000000000000000, -10.00000000000000000 ) ) ;
#134 = ADVANCED_FACE ( 'NONE', ( #119 ), #172, .T. ) ;
#135 = ORIENTED_EDGE ( 'NONE', *, *, #52, .T. ) ;
#136 = DIRECTION ( 'NONE',  ( -2.905941557298803228E-17, 1.000000000000000000, -0.000000000000000000 ) ) ;
#137 = DIRECTION ( 'NONE',  ( 0.000000000000000000, 0.000000000000000000, -1.000000000000000000 ) ) ;
#138 = COLOUR_RGB ( '',0.7921568627450980005, 0.8196078431372548767, 0.9333333333333333481 ) ;
#139 = PRESENTATION_STYLE_ASSIGNMENT (( #40 ) ) ;
#140 = FACE_OUTER_BOUND ( 'NONE', #232, .T. ) ;
#141 = CARTESIAN_POINT ( 'NONE',  ( 0.000000000000000000, 0.000000000000000000, 0.000000000000000000 ) ) ;
#142 = AXIS2_PLACEMENT_3D ( 'NONE', #8, #21, #48 ) ;
#143 = PRESENTATION_LAYER_ASSIGNMENT (  '', '', ( #152 ) ) ;
#144 =( GEOMETRIC_REPRESENTATION_CONTEXT ( 3 ) GLOBAL_UNCERTAINTY_ASSIGNED_CONTEXT ( ( #20 ) ) GLOBAL_UNIT_ASSIGNED_CONTEXT ( ( #38, #195, #282 ) ) REPRESENTATION_CONTEXT ( 'NONE', 'WORKASPACE' ) );
#145 = EDGE_LOOP ( 'NONE', ( #199, #287, #32, #129 ) ) ;
#146 = UNCERTAINTY_MEASURE_WITH_UNIT (LENGTH_MEASURE( 1.000000000000000082E-05 ), #131, 'distance_accuracy_value', 'NONE');
#147 = DIRECTION ( 'NONE',  ( -2.905941557298802612E-17, 1.000000000000000000, -0.000000000000000000 ) ) ;
#148 = MANIFOLD_SOLID_BREP ( 'Revolve - Tool Body (Straight Shanked)', #72 ) ;
#149 = EDGE_LOOP ( 'NONE', ( #103, #43 ) ) ;
#150 = SURFACE_STYLE_FILL_AREA ( #107 ) ;
#151 = ADVANCED_FACE ( 'NONE', ( #140 ), #59, .F. ) ;
#152 = STYLED_ITEM ( 'NONE', ( #139 ), #231 ) ;
#153 = CARTESIAN_POINT ( 'NONE',  ( 0.000000000000000000, 0.000000000000000000, 0.000000000000000000 ) ) ;
#154 = CARTESIAN_POINT ( 'NONE',  ( -10.00000000000000355, 89.00000000000000000, 0.000000000000000000 ) ) ;
#155 = DIRECTION ( 'NONE',  ( 1.000000000000000000, 0.000000000000000000, 0.000000000000000000 ) ) ;
#156 = PRODUCT_DEFINITION ( 'UNKNOWN', '', #235, #2 ) ;
#157 = CARTESIAN_POINT ( 'NONE',  ( 0.000000000000000000, 0.000000000000000000, 0.000000000000000000 ) ) ;
#158 = CIRCLE ( 'NONE', #207, 10.00000000000000000 ) ;
#159 = AXIS2_PLACEMENT_3D ( 'NONE', #153, #108, #155 ) ;
#160 = CARTESIAN_POINT ( 'NONE',  ( 0.000000000000000000, 30.00000000000000000, -10.00000000000000000 ) ) ;
#161 = ORIENTED_EDGE ( 'NONE', *, *, #52, .F. ) ;
#162 =( NAMED_UNIT ( * ) PLANE_ANGLE_UNIT ( ) SI_UNIT ( $, .RADIAN. ) );
#163 = EDGE_CURVE ( 'NONE', #69, #222, #110, .T. ) ;
#164 = PRESENTATION_LAYER_ASSIGNMENT (  '', '', ( #12 ) ) ;
#165 = ADVANCED_FACE ( 'NONE', ( #281 ), #171, .T. ) ;
#166 = CARTESIAN_POINT ( 'NONE',  ( 0.000000000000000000, 30.00000000000000000, 0.000000000000000000 ) ) ;
#167 =( NAMED_UNIT ( * ) SI_UNIT ( $, .STERADIAN. ) SOLID_ANGLE_UNIT ( ) );
#168 = FILL_AREA_STYLE_COLOUR ( '', #138 ) ;
#169 = COLOUR_RGB ( '',1.000000000000000000, 0.000000000000000000, 0.000000000000000000 ) ;
#170 =( LENGTH_UNIT ( ) NAMED_UNIT ( * ) SI_UNIT ( .MILLI., .METRE. ) );
#171 = CYLINDRICAL_SURFACE ( 'NONE', #115, 10.00000000000000000 ) ;
#172 = CYLINDRICAL_SURFACE ( 'NONE', #212, 10.00000000000000178 ) ;
#173 = FILL_AREA_STYLE ('',( #62 ) ) ;
#174 = STYLED_ITEM ( 'NONE', ( #259 ), #148 ) ;
#175 = SHAPE_DEFINITION_REPRESENTATION ( #228, #68 ) ;
#176 = ORIENTED_EDGE ( 'NONE', *, *, #192, .F. ) ;
#177 = PLANE ( 'NONE',  #18 ) ;
#178 = PLANE ( 'NONE',  #112 ) ;
#179 = ORIENTED_EDGE ( 'NONE', *, *, #238, .T. ) ;
#180 = APPLICATION_PROTOCOL_DEFINITION ( 'draft international standard', 'automotive_design', 1998, #57 ) ;
#181 = CARTESIAN_POINT ( 'NONE',  ( 1.224646799147353256E-15, 0.000000000000000000, 10.00000000000000000 ) ) ;
#182 = EDGE_CURVE ( 'NONE', #222, #69, #158, .T. ) ;
#183 = UNCERTAINTY_MEASURE_WITH_UNIT (LENGTH_MEASURE( 1.000000000000000082E-05 ), #70, 'distance_accuracy_value', 'NONE');
#184 = STYLED_ITEM ( 'NONE', ( #89 ), #165 ) ;
#185 = SURFACE_STYLE_FILL_AREA ( #34 ) ;
#186 = EDGE_CURVE ( 'NONE', #219, #98, #234, .T. ) ;
#187 = PLANE ( 'NONE',  #120 ) ;
#188 =( GEOMETRIC_REPRESENTATION_CONTEXT ( 3 ) GLOBAL_UNCERTAINTY_ASSIGNED_CONTEXT ( ( #261 ) ) GLOBAL_UNIT_ASSIGNED_CONTEXT ( ( #170, #255, #239 ) ) REPRESENTATION_CONTEXT ( 'NONE', 'WORKASPACE' ) );
#189 = LINE ( 'NONE', #133, #87 ) ;
#190 = CYLINDRICAL_SURFACE ( 'NONE', #280, 10.00000000000000178 ) ;
#191 = DIRECTION ( 'NONE',  ( -1.000000000000000000, 0.000000000000000000, 0.000000000000000000 ) ) ;
#192 = EDGE_CURVE ( 'NONE', #105, #224, #223, .T. ) ;
#193 = FACE_OUTER_BOUND ( 'NONE', #75, .T. ) ;
#194 = CIRCLE ( 'NONE', #274, 10.00000000000000178 ) ;
#195 =( NAMED_UNIT ( * ) PLANE_ANGLE_UNIT ( ) SI_UNIT ( $, .RADIAN. ) );
#196 = DIRECTION ( 'NONE',  ( -0.000000000000000000, -1.000000000000000000, -0.000000000000000000 ) ) ;
#197 = DIRECTION ( 'NONE',  ( -1.000000000000000000, 0.000000000000000000, 0.000000000000000000 ) ) ;
#198 = CARTESIAN_POINT ( 'NONE',  ( -1.714505518806293849E-15, 89.00000000000000000, 0.000000000000000000 ) ) ;
#199 = ORIENTED_EDGE ( 'NONE', *, *, #284, .F. ) ;
#200 = CARTESIAN_POINT ( 'NONE',  ( 1.224646799147353256E-15, 30.00000000000000000, 10.00000000000000000 ) ) ;
#201 = MECHANICAL_DESIGN_GEOMETRIC_PRESENTATION_REPRESENTATION (  '', ( #218 ), #76 ) ;
#202 = ORIENTED_EDGE ( 'NONE', *, *, #33, .T. ) ;
#203 = CARTESIAN_POINT ( 'NONE',  ( 0.000000000000000000, 30.00000000000000000, 0.000000000000000000 ) ) ;
#204 = PRODUCT_CONTEXT ( 'NONE', #209, 'mechanical' ) ;
#205 = CARTESIAN_POINT ( 'NONE',  ( -10.00000000000000355, 89.00000000000000000, 0.000000000000000000 ) ) ;
#206 = PRESENTATION_LAYER_ASSIGNMENT (  '', '', ( #174 ) ) ;
#207 = AXIS2_PLACEMENT_3D ( 'NONE', #203, #225, #88 ) ;
#208 = LINE ( 'NONE', #210, #90 ) ;
#209 = APPLICATION_CONTEXT ( 'automotive_design' ) ;
#210 = CARTESIAN_POINT ( 'NONE',  ( 1.224646799147353256E-15, 0.000000000000000000, 10.00000000000000000 ) ) ;
#211 = EDGE_CURVE ( 'NONE', #105, #22, #106, .T. ) ;
#212 = AXIS2_PLACEMENT_3D ( 'NONE', #198, #220, #101 ) ;
#213 = FACE_OUTER_BOUND ( 'NONE', #86, .T. ) ;
#214 = DIRECTION ( 'NONE',  ( -0.000000000000000000, -1.000000000000000000, -0.000000000000000000 ) ) ;
#215 = CARTESIAN_POINT ( 'NONE',  ( -1.714505518806293849E-15, 89.00000000000000000, 0.000000000000000000 ) ) ;
#216 = CLOSED_SHELL ( 'NONE', ( #165, #221, #114, #231 ) ) ;
#217 = SURFACE_SIDE_STYLE ('',( #123 ) ) ;
#218 = STYLED_ITEM ( 'NONE', ( #64 ), #114 ) ;
#219 = VERTEX_POINT ( 'NONE', #181 ) ;
#220 = DIRECTION ( 'NONE',  ( -2.905941557298803228E-17, 1.000000000000000000, -0.000000000000000000 ) ) ;
#221 = ADVANCED_FACE ( 'NONE', ( #245 ), #178, .T. ) ;
#222 = VERTEX_POINT ( 'NONE', #200 ) ;
#223 = LINE ( 'NONE', #205, #10 ) ;
#224 = VERTEX_POINT ( 'NONE', #154 ) ;
#225 = DIRECTION ( 'NONE',  ( -0.000000000000000000, -1.000000000000000000, -0.000000000000000000 ) ) ;
#226 = CARTESIAN_POINT ( 'NONE',  ( 0.000000000000000000, 30.00000000000000000, 0.000000000000000000 ) ) ;
#227 = MECHANICAL_DESIGN_GEOMETRIC_PRESENTATION_REPRESENTATION (  '', ( #184 ), #243 ) ;
#228 = PRODUCT_DEFINITION_SHAPE ( 'NONE', 'NONE',  #156 ) ;
#229 = DIRECTION ( 'NONE',  ( -0.000000000000000000, -1.000000000000000000, -0.000000000000000000 ) ) ;
#230 = CIRCLE ( 'NONE', #17, 10.00000000000000000 ) ;
#231 = ADVANCED_FACE ( 'NONE', ( #264 ), #177, .T. ) ;
#232 = EDGE_LOOP ( 'NONE', ( #45, #71 ) ) ;
#233 = LINE ( 'NONE', #102, #1 ) ;
#234 = CIRCLE ( 'NONE', #142, 10.00000000000000000 ) ;
#235 = PRODUCT_DEFINITION_FORMATION_WITH_SPECIFIED_SOURCE ( 'ANY', '', #125, .NOT_KNOWN. ) ;
#236 = CARTESIAN_POINT ( 'NONE',  ( -10.00000000000000000, 30.00000000000000000, 0.000000000000000000 ) ) ;
#237 = CARTESIAN_POINT ( 'NONE',  ( 4.222248167218096493E-33, 30.00000000000000000, 0.000000000000000000 ) ) ;
#238 = EDGE_CURVE ( 'NONE', #96, #224, #54, .T. ) ;
#239 =( NAMED_UNIT ( * ) SI_UNIT ( $, .STERADIAN. ) SOLID_ANGLE_UNIT ( ) );
#240 =( LENGTH_UNIT ( ) NAMED_UNIT ( * ) SI_UNIT ( .MILLI., .METRE. ) );
#241 = DIRECTION ( 'NONE',  ( 0.000000000000000000, -1.000000000000000000, -0.000000000000000000 ) ) ;
#242 = DIRECTION ( 'NONE',  ( 0.000000000000000000, 0.000000000000000000, -1.000000000000000000 ) ) ;
#243 =( GEOMETRIC_REPRESENTATION_CONTEXT ( 3 ) GLOBAL_UNCERTAINTY_ASSIGNED_CONTEXT ( ( #183 ) ) GLOBAL_UNIT_ASSIGNED_CONTEXT ( ( #70, #250, #104 ) ) REPRESENTATION_CONTEXT ( 'NONE', 'WORKASPACE' ) );
#244 = ORIENTED_EDGE ( 'NONE', *, *, #163, .T. ) ;
#245 = FACE_OUTER_BOUND ( 'NONE', #149, .T. ) ;
#246 = AXIS2_PLACEMENT_3D ( 'NONE', #226, #3, #128 ) ;
#247 = ADVANCED_FACE ( 'NONE', ( #285 ), #190, .T. ) ;
#248 = FILL_AREA_STYLE ('',( #265 ) ) ;
#249 = ORIENTED_EDGE ( 'NONE', *, *, #182, .T. ) ;
#250 =( NAMED_UNIT ( * ) PLANE_ANGLE_UNIT ( ) SI_UNIT ( $, .RADIAN. ) );
#251 = CARTESIAN_POINT ( 'NONE',  ( -1.714505518806293849E-15, 89.00000000000000000, 0.000000000000000000 ) ) ;
#252 = EDGE_LOOP ( 'NONE', ( #244, #202, #253, #161 ) ) ;
#253 = ORIENTED_EDGE ( 'NONE', *, *, #97, .F. ) ;
#254 = CARTESIAN_POINT ( 'NONE',  ( 0.000000000000000000, 0.000000000000000000, 0.000000000000000000 ) ) ;
#255 =( NAMED_UNIT ( * ) PLANE_ANGLE_UNIT ( ) SI_UNIT ( $, .RADIAN. ) );
#256 = FILL_AREA_STYLE_COLOUR ( '', #169 ) ;
#257 = CARTESIAN_POINT ( 'NONE',  ( 0.000000000000000000, 0.000000000000000000, -10.00000000000000000 ) ) ;
#258 = MECHANICAL_DESIGN_GEOMETRIC_PRESENTATION_REPRESENTATION (  '', ( #60 ), #81 ) ;
#259 = PRESENTATION_STYLE_ASSIGNMENT (( #85 ) ) ;
#260 = ORIENTED_EDGE ( 'NONE', *, *, #211, .T. ) ;
#261 = UNCERTAINTY_MEASURE_WITH_UNIT (LENGTH_MEASURE( 1.000000000000000082E-05 ), #170, 'distance_accuracy_value', 'NONE');
#262 = DIRECTION ( 'NONE',  ( -0.000000000000000000, -1.000000000000000000, -0.000000000000000000 ) ) ;
#263 = ORIENTED_EDGE ( 'NONE', *, *, #97, .T. ) ;
#264 = FACE_OUTER_BOUND ( 'NONE', #36, .T. ) ;
#265 = FILL_AREA_STYLE_COLOUR ( '', #279 ) ;
#266 = PRESENTATION_LAYER_ASSIGNMENT (  '', '', ( #218 ) ) ;
#267 = FILL_AREA_STYLE ('',( #109 ) ) ;
#268 = SURFACE_SIDE_STYLE ('',( #150 ) ) ;
#269 = DIRECTION ( 'NONE',  ( 1.000000000000000000, 2.905941557298802612E-17, 0.000000000000000000 ) ) ;
#270 = AXIS2_PLACEMENT_3D ( 'NONE', #42, #196, #242 ) ;
#271 = SURFACE_SIDE_STYLE ('',( #185 ) ) ;
#272 =( LENGTH_UNIT ( ) NAMED_UNIT ( * ) SI_UNIT ( .MILLI., .METRE. ) );
#273 = EDGE_CURVE ( 'NONE', #22, #105, #65, .T. ) ;
#274 = AXIS2_PLACEMENT_3D ( 'NONE', #251, #94, #191 ) ;
#275 = AXIS2_PLACEMENT_3D ( 'NONE', #166, #16, #197 ) ;
#276 = SURFACE_STYLE_USAGE ( .BOTH. , #271 ) ;
#277 =( NAMED_UNIT ( * ) SI_UNIT ( $, .STERADIAN. ) SOLID_ANGLE_UNIT ( ) );
#278 =( LENGTH_UNIT ( ) NAMED_UNIT ( * ) SI_UNIT ( .MILLI., .METRE. ) );
#279 = COLOUR_RGB ( '',1.000000000000000000, 0.000000000000000000, 0.000000000000000000 ) ;
#280 = AXIS2_PLACEMENT_3D ( 'NONE', #58, #136, #79 ) ;
#281 = FACE_OUTER_BOUND ( 'NONE', #252, .T. ) ;
#282 =( NAMED_UNIT ( * ) SI_UNIT ( $, .STERADIAN. ) SOLID_ANGLE_UNIT ( ) );
#283 = DIRECTION ( 'NONE',  ( -0.000000000000000000, -1.000000000000000000, -0.000000000000000000 ) ) ;
#284 = EDGE_CURVE ( 'NONE', #22, #96, #233, .T. ) ;
#285 = FACE_OUTER_BOUND ( 'NONE', #145, .T. ) ;
#286 = FILL_AREA_STYLE ('',( #168 ) ) ;
#287 = ORIENTED_EDGE ( 'NONE', *, *, #273, .T. ) ;
#288 = DIRECTION ( 'NONE',  ( 0.000000000000000000, 0.000000000000000000, -1.000000000000000000 ) ) ;
ENDSEC;
END-ISO-10303-21;
