ISO-10303-21;
HEADER;
FILE_DESCRIPTION (( 'STEP AP214' ),
    '1' );
FILE_NAME ('Micro_SEM-328-02.STEP',
    '2021-09-02T02:53:20',
    ( '' ),
    ( '' ),
    'SwSTEP 2.0',
    'SolidWorks 2020',
    '' );
FILE_SCHEMA (( 'AUTOMOTIVE_DESIGN' ));
ENDSEC;

DATA;
#1 = ORIENTED_EDGE ( 'NONE', *, *, #112, .F. ) ;
#2 = CONICAL_SURFACE ( 'NONE', #234, 0.1638859499999999469, 0.1745329251994338637 ) ;
#3 = AXIS2_PLACEMENT_3D ( 'NONE', #205, #98, #265 ) ;
#4 = ORIENTED_EDGE ( 'NONE', *, *, #199, .F. ) ;
#5 = DIRECTION ( 'NONE',  ( 1.000000000000000000, 0.0000000000000000000, 0.0000000000000000000 ) ) ;
#6 = EDGE_LOOP ( 'NONE', ( #1, #212, #236, #127 ) ) ;
#7 = CARTESIAN_POINT ( 'NONE',  ( -0.1638859499999998914, 2.007024040927231455E-17, 0.5000000000000000000 ) ) ;
#8 = ORIENTED_EDGE ( 'NONE', *, *, #280, .F. ) ;
#9 = AXIS2_PLACEMENT_3D ( 'NONE', #226, #249, #254 ) ;
#10 = ORIENTED_EDGE ( 'NONE', *, *, #159, .T. ) ;
#11 = CARTESIAN_POINT ( 'NONE',  ( 6.123233995736766036E-17, 0.0000000000000000000, 0.5000000000000000000 ) ) ;
#12 = VECTOR ( 'NONE', #100, 39.37007874015748143 ) ;
#13 = ORIENTED_EDGE ( 'NONE', *, *, #41, .T. ) ;
#14 = LENGTH_MEASURE_WITH_UNIT ( LENGTH_MEASURE( 0.02539999999999999897 ), #82 );
#15 = CARTESIAN_POINT ( 'NONE',  ( 0.0000000000000000000, 0.0000000000000000000, 2.000000000000000000 ) ) ;
#16 = MECHANICAL_DESIGN_GEOMETRIC_PRESENTATION_REPRESENTATION (  '', ( #245 ), #149 ) ;
#17 = AXIS2_PLACEMENT_3D ( 'NONE', #67, #285, #260 ) ;
#18 = EDGE_CURVE ( 'NONE', #38, #116, #143, .T. ) ;
#19 = SURFACE_STYLE_USAGE ( .BOTH. , #225 ) ;
#20 = CARTESIAN_POINT ( 'NONE',  ( -0.1875000000000000278, 0.0000000000000000000, 1.984999999999999654 ) ) ;
#21 = ADVANCED_FACE ( 'NONE', ( #176 ), #2, .T. ) ;
#22 =( CONVERSION_BASED_UNIT ( 'INCH', #228 ) LENGTH_UNIT ( ) NAMED_UNIT ( #196 ) );
#23 = AXIS2_PLACEMENT_3D ( 'NONE', #119, #217, #193 ) ;
#24 = PRODUCT_DEFINITION_FORMATION_WITH_SPECIFIED_SOURCE ( 'ANY', '', #121, .NOT_KNOWN. ) ;
#25 = LINE ( 'NONE', #46, #65 ) ;
#26 = DIRECTION ( 'NONE',  ( -1.224646799147353207E-16, -0.0000000000000000000, -1.000000000000000000 ) ) ;
#27 = ORIENTED_EDGE ( 'NONE', *, *, #41, .F. ) ;
#28 = ORIENTED_EDGE ( 'NONE', *, *, #258, .F. ) ;
#29 = DIRECTION ( 'NONE',  ( -0.0000000000000000000, -0.0000000000000000000, -1.000000000000000000 ) ) ;
#30 = ORIENTED_EDGE ( 'NONE', *, *, #133, .T. ) ;
#31 = PRODUCT_DEFINITION ( 'UNKNOWN', '', #24, #165 ) ;
#32 = PRESENTATION_LAYER_ASSIGNMENT (  '', '', ( #245 ) ) ;
#33 = DIRECTION ( 'NONE',  ( 1.224646799147353207E-16, 0.0000000000000000000, 1.000000000000000000 ) ) ;
#34 = ADVANCED_FACE ( 'NONE', ( #151 ), #272, .T. ) ;
#35 = ORIENTED_EDGE ( 'NONE', *, *, #159, .F. ) ;
#36 = PRESENTATION_STYLE_ASSIGNMENT (( #175 ) ) ;
#37 = CIRCLE ( 'NONE', #203, 0.1638859499999999469 ) ;
#38 = VERTEX_POINT ( 'NONE', #173 ) ;
#39 = UNCERTAINTY_MEASURE_WITH_UNIT (LENGTH_MEASURE( 1.000000000000000082E-05 ), #58, 'distance_accuracy_value', 'NONE');
#40 = DIRECTION ( 'NONE',  ( 0.7071067811865386910, 8.659560562354824390E-17, -0.7071067811865563435 ) ) ;
#41 = EDGE_CURVE ( 'NONE', #138, #187, #88, .T. ) ;
#42 = DIRECTION ( 'NONE',  ( 0.0000000000000000000, 0.0000000000000000000, -1.000000000000000000 ) ) ;
#43 = DIMENSIONAL_EXPONENTS ( 1.000000000000000000, 0.0000000000000000000, 0.0000000000000000000, 0.0000000000000000000, 0.0000000000000000000, 0.0000000000000000000, 0.0000000000000000000 ) ;
#44 = LENGTH_MEASURE_WITH_UNIT ( LENGTH_MEASURE( 0.02539999999999999897 ), #157 );
#45 = FACE_OUTER_BOUND ( 'NONE', #178, .T. ) ;
#46 = CARTESIAN_POINT ( 'NONE',  ( -0.1875000000000000278, 0.0000000000000000000, 2.000000000000000000 ) ) ;
#47 = CIRCLE ( 'NONE', #214, 0.1875000000000000278 ) ;
#48 =( NAMED_UNIT ( * ) SI_UNIT ( $, .STERADIAN. ) SOLID_ANGLE_UNIT ( ) );
#49 = FACE_OUTER_BOUND ( 'NONE', #137, .T. ) ;
#50 = LINE ( 'NONE', #134, #284 ) ;
#51 = ORIENTED_EDGE ( 'NONE', *, *, #139, .F. ) ;
#52 = CARTESIAN_POINT ( 'NONE',  ( -0.1638859499999998914, 2.151618394664259590E-17, 0.5000000000000000000 ) ) ;
#53 = ORIENTED_EDGE ( 'NONE', *, *, #271, .T. ) ;
#54 = ORIENTED_EDGE ( 'NONE', *, *, #191, .T. ) ;
#55 = CARTESIAN_POINT ( 'NONE',  ( 0.0000000000000000000, 0.0000000000000000000, 0.0000000000000000000 ) ) ;
#56 = APPLICATION_PROTOCOL_DEFINITION ( 'draft international standard', 'automotive_design', 1998, #256 ) ;
#57 = LINE ( 'NONE', #128, #263 ) ;
#58 =( CONVERSION_BASED_UNIT ( 'INCH', #14 ) LENGTH_UNIT ( ) NAMED_UNIT ( #129 ) );
#59 = CARTESIAN_POINT ( 'NONE',  ( 7.763304654873116999E-17, 0.0000000000000000000, 0.6339219324525432464 ) ) ;
#60 = FILL_AREA_STYLE ('',( #276 ) ) ;
#61 = DIRECTION ( 'NONE',  ( 1.000000000000000000, 0.0000000000000000000, 0.0000000000000000000 ) ) ;
#62 = VECTOR ( 'NONE', #282, 39.37007874015747433 ) ;
#63 = PLANE ( 'NONE',  #169 ) ;
#64 = DIRECTION ( 'NONE',  ( -1.224646799147353207E-16, -0.0000000000000000000, -1.000000000000000000 ) ) ;
#65 = VECTOR ( 'NONE', #296, 39.37007874015748143 ) ;
#66 = ORIENTED_EDGE ( 'NONE', *, *, #274, .F. ) ;
#67 = CARTESIAN_POINT ( 'NONE',  ( 0.0000000000000000000, 0.0000000000000000000, 0.0000000000000000000 ) ) ;
#68 = ADVANCED_FACE ( 'NONE', ( #218 ), #251, .T. ) ;
#69 = EDGE_LOOP ( 'NONE', ( #95, #283, #8, #71 ) ) ;
#70 = DIRECTION ( 'NONE',  ( 0.0000000000000000000, 0.0000000000000000000, -1.000000000000000000 ) ) ;
#71 = ORIENTED_EDGE ( 'NONE', *, *, #154, .F. ) ;
#72 = ADVANCED_FACE ( 'NONE', ( #275 ), #230, .T. ) ;
#73 = AXIS2_PLACEMENT_3D ( 'NONE', #208, #150, #126 ) ;
#74 = CARTESIAN_POINT ( 'NONE',  ( 0.0000000000000000000, 0.0000000000000000000, 2.000000000000000000 ) ) ;
#75 = ADVANCED_FACE ( 'NONE', ( #294 ), #135, .T. ) ;
#76 = VERTEX_POINT ( 'NONE', #277 ) ;
#77 = DIRECTION ( 'NONE',  ( -1.224646799147353207E-16, -0.0000000000000000000, -1.000000000000000000 ) ) ;
#78 = ORIENTED_EDGE ( 'NONE', *, *, #216, .T. ) ;
#79 = DIRECTION ( 'NONE',  ( 1.000000000000000000, 0.0000000000000000000, 0.0000000000000000000 ) ) ;
#80 = CARTESIAN_POINT ( 'NONE',  ( 6.123233995736766036E-17, 0.0000000000000000000, 0.5000000000000000000 ) ) ;
#81 = ORIENTED_EDGE ( 'NONE', *, *, #280, .T. ) ;
#82 =( LENGTH_UNIT ( ) NAMED_UNIT ( * ) SI_UNIT ( $, .METRE. ) );
#83 = CIRCLE ( 'NONE', #144, 0.1725000000000001532 ) ;
#84 = EDGE_CURVE ( 'NONE', #116, #148, #47, .T. ) ;
#85 = DIRECTION ( 'NONE',  ( 0.0000000000000000000, 0.0000000000000000000, 1.000000000000000000 ) ) ;
#86 = DIRECTION ( 'NONE',  ( -1.224646799147353207E-16, -0.0000000000000000000, -1.000000000000000000 ) ) ;
#87 = CARTESIAN_POINT ( 'NONE',  ( -0.1874999999999999445, 0.0000000000000000000, 0.6339219324525432464 ) ) ;
#88 = CIRCLE ( 'NONE', #207, 0.1638859500000000025 ) ;
#89 = LINE ( 'NONE', #130, #266 ) ;
#90 = CARTESIAN_POINT ( 'NONE',  ( 0.0000000000000000000, 0.0000000000000000000, 1.984999999999999654 ) ) ;
#91 =( NAMED_UNIT ( * ) SI_UNIT ( $, .STERADIAN. ) SOLID_ANGLE_UNIT ( ) );
#92 =( NAMED_UNIT ( * ) PLANE_ANGLE_UNIT ( ) SI_UNIT ( $, .RADIAN. ) );
#93 = FACE_OUTER_BOUND ( 'NONE', #286, .T. ) ;
#94 = VERTEX_POINT ( 'NONE', #279 ) ;
#95 = ORIENTED_EDGE ( 'NONE', *, *, #84, .T. ) ;
#96 = FACE_OUTER_BOUND ( 'NONE', #6, .T. ) ;
#97 = UNCERTAINTY_MEASURE_WITH_UNIT (LENGTH_MEASURE( 1.000000000000000082E-05 ), #22, 'distance_accuracy_value', 'NONE');
#98 = DIRECTION ( 'NONE',  ( 0.0000000000000000000, 0.0000000000000000000, 1.000000000000000000 ) ) ;
#99 = AXIS2_PLACEMENT_3D ( 'NONE', #287, #77, #79 ) ;
#100 = DIRECTION ( 'NONE',  ( -0.7071067811865386910, 0.0000000000000000000, -0.7071067811865563435 ) ) ;
#101 = ORIENTED_EDGE ( 'NONE', *, *, #84, .F. ) ;
#102 = ORIENTED_EDGE ( 'NONE', *, *, #154, .T. ) ;
#103 = VERTEX_POINT ( 'NONE', #87 ) ;
#104 = PRESENTATION_LAYER_ASSIGNMENT (  '', '', ( #220 ) ) ;
#105 = DIRECTION ( 'NONE',  ( 0.0000000000000000000, 0.0000000000000000000, 1.000000000000000000 ) ) ;
#106 = LINE ( 'NONE', #264, #110 ) ;
#107 = DIRECTION ( 'NONE',  ( -0.0000000000000000000, -0.0000000000000000000, -1.000000000000000000 ) ) ;
#108 = ORIENTED_EDGE ( 'NONE', *, *, #18, .F. ) ;
#109 = CYLINDRICAL_SURFACE ( 'NONE', #17, 0.1638859499999999469 ) ;
#110 = VECTOR ( 'NONE', #107, 39.37007874015748143 ) ;
#111 = ORIENTED_EDGE ( 'NONE', *, *, #295, .F. ) ;
#112 = EDGE_CURVE ( 'NONE', #76, #148, #89, .T. ) ;
#113 = APPLICATION_PROTOCOL_DEFINITION ( 'draft international standard', 'automotive_design', 1998, #161 ) ;
#114 = CARTESIAN_POINT ( 'NONE',  ( 0.1875000000000000833, 2.296212748401288650E-17, 0.6339219324525432464 ) ) ;
#115 = ORIENTED_EDGE ( 'NONE', *, *, #188, .F. ) ;
#116 = VERTEX_POINT ( 'NONE', #20 ) ;
#117 = CIRCLE ( 'NONE', #122, 0.1638859500000000025 ) ;
#118 = AXIS2_PLACEMENT_3D ( 'NONE', #59, #141, #227 ) ;
#119 = CARTESIAN_POINT ( 'NONE',  ( 0.0000000000000000000, 0.0000000000000000000, 2.000000000000000000 ) ) ;
#120 = DIRECTION ( 'NONE',  ( -1.000000000000000000, 0.0000000000000000000, 1.224646799147353207E-16 ) ) ;
#121 = PRODUCT ( 'Micro_SEM-328-02', 'Micro_SEM-328-02', '', ( #242 ) ) ;
#122 = AXIS2_PLACEMENT_3D ( 'NONE', #292, #86, #250 ) ;
#123 = AXIS2_PLACEMENT_3D ( 'NONE', #253, #211, #5 ) ;
#124 = ORIENTED_EDGE ( 'NONE', *, *, #258, .T. ) ;
#125 = FILL_AREA_STYLE_COLOUR ( '', #170 ) ;
#126 = DIRECTION ( 'NONE',  ( -1.000000000000000000, 0.0000000000000000000, 0.0000000000000000000 ) ) ;
#127 = ORIENTED_EDGE ( 'NONE', *, *, #191, .F. ) ;
#128 = CARTESIAN_POINT ( 'NONE',  ( -0.1638859499999999469, 0.0000000000000000000, 2.007024040927231455E-17 ) ) ;
#129 = DIMENSIONAL_EXPONENTS ( 1.000000000000000000, 0.0000000000000000000, 0.0000000000000000000, 0.0000000000000000000, 0.0000000000000000000, 0.0000000000000000000, 0.0000000000000000000 ) ;
#130 = CARTESIAN_POINT ( 'NONE',  ( 0.1725000000000001532, 2.112515728529185460E-17, 2.000000000000000000 ) ) ;
#131 =( LENGTH_UNIT ( ) NAMED_UNIT ( * ) SI_UNIT ( $, .METRE. ) );
#132 = PRESENTATION_STYLE_ASSIGNMENT (( #19 ) ) ;
#133 = EDGE_CURVE ( 'NONE', #94, #233, #223, .T. ) ;
#134 = CARTESIAN_POINT ( 'NONE',  ( 0.1638859499999999469, 2.007024040927231455E-17, -2.007024040927231455E-17 ) ) ;
#135 = CONICAL_SURFACE ( 'NONE', #9, 0.1725000000000001532, 0.7853981633974357335 ) ;
#136 = AXIS2_PLACEMENT_3D ( 'NONE', #140, #29, #190 ) ;
#137 = EDGE_LOOP ( 'NONE', ( #215, #172, #171, #35 ) ) ;
#138 = VERTEX_POINT ( 'NONE', #181 ) ;
#139 = EDGE_CURVE ( 'NONE', #221, #138, #57, .T. ) ;
#140 = CARTESIAN_POINT ( 'NONE',  ( 0.0000000000000000000, 0.0000000000000000000, 2.000000000000000000 ) ) ;
#141 = DIRECTION ( 'NONE',  ( -1.224646799147353207E-16, -0.0000000000000000000, -1.000000000000000000 ) ) ;
#142 = PRODUCT_RELATED_PRODUCT_CATEGORY ( 'part', '', ( #121 ) ) ;
#143 = LINE ( 'NONE', #240, #12 ) ;
#144 = AXIS2_PLACEMENT_3D ( 'NONE', #15, #105, #298 ) ;
#145 = EDGE_LOOP ( 'NONE', ( #244, #166, #101, #108 ) ) ;
#146 =( NAMED_UNIT ( * ) SI_UNIT ( $, .STERADIAN. ) SOLID_ANGLE_UNIT ( ) );
#147 = DIRECTION ( 'NONE',  ( 1.000000000000000000, 0.0000000000000000000, 0.0000000000000000000 ) ) ;
#148 = VERTEX_POINT ( 'NONE', #198 ) ;
#149 =( GEOMETRIC_REPRESENTATION_CONTEXT ( 3 ) GLOBAL_UNCERTAINTY_ASSIGNED_CONTEXT ( ( #97 ) ) GLOBAL_UNIT_ASSIGNED_CONTEXT ( ( #22, #160, #91 ) ) REPRESENTATION_CONTEXT ( 'NONE', 'WORKASPACE' ) );
#150 = DIRECTION ( 'NONE',  ( -1.224646799147353207E-16, -0.0000000000000000000, -1.000000000000000000 ) ) ;
#151 = FACE_OUTER_BOUND ( 'NONE', #69, .T. ) ;
#152 = CARTESIAN_POINT ( 'NONE',  ( 0.0000000000000000000, 0.0000000000000000000, 0.0000000000000000000 ) ) ;
#153 = SURFACE_STYLE_FILL_AREA ( #60 ) ;
#154 = EDGE_CURVE ( 'NONE', #116, #103, #25, .T. ) ;
#155 = AXIS2_PLACEMENT_3D ( 'NONE', #152, #202, #201 ) ;
#156 = CARTESIAN_POINT ( 'NONE',  ( 0.0000000000000000000, 0.0000000000000000000, 0.0000000000000000000 ) ) ;
#157 =( LENGTH_UNIT ( ) NAMED_UNIT ( * ) SI_UNIT ( $, .METRE. ) );
#158 = DIRECTION ( 'NONE',  ( 1.000000000000000000, 0.0000000000000000000, -0.0000000000000000000 ) ) ;
#159 = EDGE_CURVE ( 'NONE', #187, #138, #117, .T. ) ;
#160 =( NAMED_UNIT ( * ) PLANE_ANGLE_UNIT ( ) SI_UNIT ( $, .RADIAN. ) );
#161 = APPLICATION_CONTEXT ( 'automotive_design' ) ;
#162 = CIRCLE ( 'NONE', #73, 0.1638859499999999469 ) ;
#163 = ORIENTED_EDGE ( 'NONE', *, *, #185, .T. ) ;
#164 = CARTESIAN_POINT ( 'NONE',  ( 0.0000000000000000000, 0.0000000000000000000, 2.000000000000000000 ) ) ;
#165 = PRODUCT_DEFINITION_CONTEXT ( 'detailed design', #256, 'design' ) ;
#166 = ORIENTED_EDGE ( 'NONE', *, *, #112, .T. ) ;
#167 = PRODUCT_DEFINITION_SHAPE ( 'NONE', 'NONE',  #31 ) ;
#168 = DIRECTION ( 'NONE',  ( -1.000000000000000000, 0.0000000000000000000, 0.0000000000000000000 ) ) ;
#169 = AXIS2_PLACEMENT_3D ( 'NONE', #156, #85, #158 ) ;
#170 = COLOUR_RGB ( '',0.7921568627450980005, 0.8196078431372548767, 0.9333333333333333481 ) ;
#171 = ORIENTED_EDGE ( 'NONE', *, *, #139, .T. ) ;
#172 = ORIENTED_EDGE ( 'NONE', *, *, #188, .T. ) ;
#173 = CARTESIAN_POINT ( 'NONE',  ( -0.1725000000000001532, 0.0000000000000000000, 2.000000000000000000 ) ) ;
#174 = CIRCLE ( 'NONE', #118, 0.1875000000000000278 ) ;
#175 = SURFACE_STYLE_USAGE ( .BOTH. , #247 ) ;
#176 = FACE_OUTER_BOUND ( 'NONE', #262, .T. ) ;
#177 = FILL_AREA_STYLE ('',( #125 ) ) ;
#178 = EDGE_LOOP ( 'NONE', ( #13, #10 ) ) ;
#179 = CARTESIAN_POINT ( 'NONE',  ( 0.1638859500000000025, 2.007024040927231763E-17, 3.791200677927629740E-33 ) ) ;
#180 = DIRECTION ( 'NONE',  ( -1.224646799147353207E-16, -0.0000000000000000000, -1.000000000000000000 ) ) ;
#181 = CARTESIAN_POINT ( 'NONE',  ( -0.1638859500000000025, 0.0000000000000000000, 4.014048081854463527E-17 ) ) ;
#182 = VECTOR ( 'NONE', #183, 39.37007874015748143 ) ;
#183 = DIRECTION ( 'NONE',  ( 0.1736481776669313581, 0.0000000000000000000, 0.9848077530122077983 ) ) ;
#184 = ADVANCED_FACE ( 'NONE', ( #45 ), #63, .F. ) ;
#185 = EDGE_CURVE ( 'NONE', #38, #76, #83, .T. ) ;
#186 = CIRCLE ( 'NONE', #99, 0.1875000000000000278 ) ;
#187 = VERTEX_POINT ( 'NONE', #179 ) ;
#188 = EDGE_CURVE ( 'NONE', #94, #221, #37, .T. ) ;
#189 = MANIFOLD_SOLID_BREP ( 'Cut-Revolve1', #238 ) ;
#190 = DIRECTION ( 'NONE',  ( -1.000000000000000000, 0.0000000000000000000, 0.0000000000000000000 ) ) ;
#191 = EDGE_CURVE ( 'NONE', #148, #116, #229, .T. ) ;
#192 = ADVANCED_FACE ( 'NONE', ( #96 ), #209, .T. ) ;
#193 = DIRECTION ( 'NONE',  ( -1.000000000000000000, 0.0000000000000000000, 0.0000000000000000000 ) ) ;
#194 = CARTESIAN_POINT ( 'NONE',  ( 2.457895567533320651E-33, 0.0000000000000000000, 2.007024040927231763E-17 ) ) ;
#195 = SHAPE_DEFINITION_REPRESENTATION ( #167, #289 ) ;
#196 = DIMENSIONAL_EXPONENTS ( 1.000000000000000000, 0.0000000000000000000, 0.0000000000000000000, 0.0000000000000000000, 0.0000000000000000000, 0.0000000000000000000, 0.0000000000000000000 ) ;
#197 = SURFACE_STYLE_FILL_AREA ( #177 ) ;
#198 = CARTESIAN_POINT ( 'NONE',  ( 0.1875000000000000278, 2.296212748401287726E-17, 1.984999999999999654 ) ) ;
#199 = EDGE_CURVE ( 'NONE', #148, #233, #106, .T. ) ;
#200 = CARTESIAN_POINT ( 'NONE',  ( 0.1638859500000000302, 0.0000000000000000000, 0.5000000000000000000 ) ) ;
#201 = DIRECTION ( 'NONE',  ( -1.000000000000000000, 0.0000000000000000000, 1.224646799147353454E-16 ) ) ;
#202 = DIRECTION ( 'NONE',  ( -1.224646799147353207E-16, -0.0000000000000000000, -1.000000000000000000 ) ) ;
#203 = AXIS2_PLACEMENT_3D ( 'NONE', #293, #180, #252 ) ;
#204 = AXIS2_PLACEMENT_3D ( 'NONE', #164, #257, #239 ) ;
#205 = CARTESIAN_POINT ( 'NONE',  ( 0.0000000000000000000, 0.0000000000000000000, 2.000000000000000000 ) ) ;
#206 = EDGE_LOOP ( 'NONE', ( #163, #78 ) ) ;
#207 = AXIS2_PLACEMENT_3D ( 'NONE', #194, #241, #120 ) ;
#208 = CARTESIAN_POINT ( 'NONE',  ( 6.123233995736766036E-17, 0.0000000000000000000, 0.5000000000000000000 ) ) ;
#209 = CONICAL_SURFACE ( 'NONE', #297, 0.1725000000000001532, 0.7853981633974357335 ) ;
#210 = EDGE_LOOP ( 'NONE', ( #66, #124, #81, #261 ) ) ;
#211 = DIRECTION ( 'NONE',  ( 0.0000000000000000000, 0.0000000000000000000, -1.000000000000000000 ) ) ;
#212 = ORIENTED_EDGE ( 'NONE', *, *, #185, .F. ) ;
#213 = FACE_OUTER_BOUND ( 'NONE', #206, .T. ) ;
#214 = AXIS2_PLACEMENT_3D ( 'NONE', #90, #42, #61 ) ;
#215 = ORIENTED_EDGE ( 'NONE', *, *, #271, .F. ) ;
#216 = EDGE_CURVE ( 'NONE', #76, #38, #246, .T. ) ;
#217 = DIRECTION ( 'NONE',  ( -0.0000000000000000000, -0.0000000000000000000, -1.000000000000000000 ) ) ;
#218 = FACE_OUTER_BOUND ( 'NONE', #210, .T. ) ;
#219 = ORIENTED_EDGE ( 'NONE', *, *, #295, .T. ) ;
#220 = STYLED_ITEM ( 'NONE', ( #36 ), #289 ) ;
#221 = VERTEX_POINT ( 'NONE', #52 ) ;
#222 =( NAMED_UNIT ( * ) PLANE_ANGLE_UNIT ( ) SI_UNIT ( $, .RADIAN. ) );
#223 = LINE ( 'NONE', #200, #182 ) ;
#224 = AXIS2_PLACEMENT_3D ( 'NONE', #80, #270, #147 ) ;
#225 = SURFACE_SIDE_STYLE ('',( #153 ) ) ;
#226 = CARTESIAN_POINT ( 'NONE',  ( 0.0000000000000000000, 0.0000000000000000000, 2.000000000000000000 ) ) ;
#227 = DIRECTION ( 'NONE',  ( 1.000000000000000000, 0.0000000000000000000, 0.0000000000000000000 ) ) ;
#228 = LENGTH_MEASURE_WITH_UNIT ( LENGTH_MEASURE( 0.02539999999999999897 ), #131 );
#229 = CIRCLE ( 'NONE', #123, 0.1875000000000000278 ) ;
#230 = CYLINDRICAL_SURFACE ( 'NONE', #155, 0.1638859499999999469 ) ;
#231 =( CONVERSION_BASED_UNIT ( 'INCH', #44 ) LENGTH_UNIT ( ) NAMED_UNIT ( #43 ) );
#232 = PLANE ( 'NONE',  #204 ) ;
#233 = VERTEX_POINT ( 'NONE', #114 ) ;
#234 = AXIS2_PLACEMENT_3D ( 'NONE', #11, #33, #291 ) ;
#235 =( GEOMETRIC_REPRESENTATION_CONTEXT ( 3 ) GLOBAL_UNCERTAINTY_ASSIGNED_CONTEXT ( ( #259 ) ) GLOBAL_UNIT_ASSIGNED_CONTEXT ( ( #231, #92, #48 ) ) REPRESENTATION_CONTEXT ( 'NONE', 'WORKASPACE' ) );
#236 = ORIENTED_EDGE ( 'NONE', *, *, #18, .T. ) ;
#237 = CYLINDRICAL_SURFACE ( 'NONE', #136, 0.1875000000000000278 ) ;
#238 = CLOSED_SHELL ( 'NONE', ( #72, #68, #75, #34, #243, #248, #192, #21, #268, #184 ) ) ;
#239 = DIRECTION ( 'NONE',  ( 1.000000000000000000, 0.0000000000000000000, -0.0000000000000000000 ) ) ;
#240 = CARTESIAN_POINT ( 'NONE',  ( -0.1725000000000001532, 0.0000000000000000000, 2.000000000000000000 ) ) ;
#241 = DIRECTION ( 'NONE',  ( -1.224646799147353207E-16, -0.0000000000000000000, -1.000000000000000000 ) ) ;
#242 = PRODUCT_CONTEXT ( 'NONE', #161, 'mechanical' ) ;
#243 = ADVANCED_FACE ( 'NONE', ( #93 ), #237, .T. ) ;
#244 = ORIENTED_EDGE ( 'NONE', *, *, #216, .F. ) ;
#245 = STYLED_ITEM ( 'NONE', ( #132 ), #189 ) ;
#246 = CIRCLE ( 'NONE', #3, 0.1725000000000001532 ) ;
#247 = SURFACE_SIDE_STYLE ('',( #197 ) ) ;
#248 = ADVANCED_FACE ( 'NONE', ( #213 ), #232, .T. ) ;
#249 = DIRECTION ( 'NONE',  ( 0.0000000000000000000, 0.0000000000000000000, -1.000000000000000000 ) ) ;
#250 = DIRECTION ( 'NONE',  ( -1.000000000000000000, 0.0000000000000000000, 1.224646799147353207E-16 ) ) ;
#251 = CONICAL_SURFACE ( 'NONE', #224, 0.1638859499999999469, 0.1745329251994338637 ) ;
#252 = DIRECTION ( 'NONE',  ( -1.000000000000000000, 0.0000000000000000000, 0.0000000000000000000 ) ) ;
#253 = CARTESIAN_POINT ( 'NONE',  ( 0.0000000000000000000, 0.0000000000000000000, 1.984999999999999654 ) ) ;
#254 = DIRECTION ( 'NONE',  ( -1.000000000000000000, 0.0000000000000000000, 0.0000000000000000000 ) ) ;
#255 = COLOUR_RGB ( '',0.7921568627450980005, 0.8196078431372548767, 0.9333333333333333481 ) ;
#256 = APPLICATION_CONTEXT ( 'automotive_design' ) ;
#257 = DIRECTION ( 'NONE',  ( 0.0000000000000000000, 0.0000000000000000000, 1.000000000000000000 ) ) ;
#258 = EDGE_CURVE ( 'NONE', #221, #103, #299, .T. ) ;
#259 = UNCERTAINTY_MEASURE_WITH_UNIT (LENGTH_MEASURE( 1.000000000000000082E-05 ), #231, 'distance_accuracy_value', 'NONE');
#260 = DIRECTION ( 'NONE',  ( -1.000000000000000000, 0.0000000000000000000, 1.224646799147353454E-16 ) ) ;
#261 = ORIENTED_EDGE ( 'NONE', *, *, #133, .F. ) ;
#262 = EDGE_LOOP ( 'NONE', ( #28, #115, #30, #219 ) ) ;
#263 = VECTOR ( 'NONE', #64, 39.37007874015748143 ) ;
#264 = CARTESIAN_POINT ( 'NONE',  ( 0.1875000000000000278, 2.296212748401287726E-17, 2.000000000000000000 ) ) ;
#265 = DIRECTION ( 'NONE',  ( 1.000000000000000000, 0.0000000000000000000, 0.0000000000000000000 ) ) ;
#266 = VECTOR ( 'NONE', #40, 39.37007874015748143 ) ;
#267 = MECHANICAL_DESIGN_GEOMETRIC_PRESENTATION_REPRESENTATION (  '', ( #220 ), #281 ) ;
#268 = ADVANCED_FACE ( 'NONE', ( #49 ), #109, .T. ) ;
#269 = DIRECTION ( 'NONE',  ( 0.0000000000000000000, 0.0000000000000000000, 1.000000000000000000 ) ) ;
#270 = DIRECTION ( 'NONE',  ( 1.224646799147353207E-16, 0.0000000000000000000, 1.000000000000000000 ) ) ;
#271 = EDGE_CURVE ( 'NONE', #94, #187, #50, .T. ) ;
#272 = CYLINDRICAL_SURFACE ( 'NONE', #23, 0.1875000000000000278 ) ;
#273 = DIRECTION ( 'NONE',  ( 1.000000000000000000, 0.0000000000000000000, 0.0000000000000000000 ) ) ;
#274 = EDGE_CURVE ( 'NONE', #221, #94, #162, .T. ) ;
#275 = FACE_OUTER_BOUND ( 'NONE', #290, .T. ) ;
#276 = FILL_AREA_STYLE_COLOUR ( '', #255 ) ;
#277 = CARTESIAN_POINT ( 'NONE',  ( 0.1725000000000001532, 2.204364238465236130E-17, 2.000000000000000000 ) ) ;
#278 = AXIS2_PLACEMENT_3D ( 'NONE', #55, #269, #273 ) ;
#279 = CARTESIAN_POINT ( 'NONE',  ( 0.1638859500000000302, 0.0000000000000000000, 0.5000000000000000000 ) ) ;
#280 = EDGE_CURVE ( 'NONE', #103, #233, #174, .T. ) ;
#281 =( GEOMETRIC_REPRESENTATION_CONTEXT ( 3 ) GLOBAL_UNCERTAINTY_ASSIGNED_CONTEXT ( ( #39 ) ) GLOBAL_UNIT_ASSIGNED_CONTEXT ( ( #58, #222, #146 ) ) REPRESENTATION_CONTEXT ( 'NONE', 'WORKASPACE' ) );
#282 = DIRECTION ( 'NONE',  ( -0.1736481776669311639, 2.126576849575783008E-17, 0.9848077530122080203 ) ) ;
#283 = ORIENTED_EDGE ( 'NONE', *, *, #199, .T. ) ;
#284 = VECTOR ( 'NONE', #26, 39.37007874015748143 ) ;
#285 = DIRECTION ( 'NONE',  ( -1.224646799147353207E-16, -0.0000000000000000000, -1.000000000000000000 ) ) ;
#286 = EDGE_LOOP ( 'NONE', ( #4, #54, #102, #111 ) ) ;
#287 = CARTESIAN_POINT ( 'NONE',  ( 7.763304654873116999E-17, 0.0000000000000000000, 0.6339219324525432464 ) ) ;
#288 = ORIENTED_EDGE ( 'NONE', *, *, #274, .T. ) ;
#289 = ADVANCED_BREP_SHAPE_REPRESENTATION ( 'Micro_SEM-328-02', ( #189, #278 ), #235 ) ;
#290 = EDGE_LOOP ( 'NONE', ( #288, #53, #27, #51 ) ) ;
#291 = DIRECTION ( 'NONE',  ( 1.000000000000000000, 0.0000000000000000000, 0.0000000000000000000 ) ) ;
#292 = CARTESIAN_POINT ( 'NONE',  ( 2.457895567533320651E-33, 0.0000000000000000000, 2.007024040927231763E-17 ) ) ;
#293 = CARTESIAN_POINT ( 'NONE',  ( 6.123233995736766036E-17, 0.0000000000000000000, 0.5000000000000000000 ) ) ;
#294 = FACE_OUTER_BOUND ( 'NONE', #145, .T. ) ;
#295 = EDGE_CURVE ( 'NONE', #233, #103, #186, .T. ) ;
#296 = DIRECTION ( 'NONE',  ( -0.0000000000000000000, -0.0000000000000000000, -1.000000000000000000 ) ) ;
#297 = AXIS2_PLACEMENT_3D ( 'NONE', #74, #70, #168 ) ;
#298 = DIRECTION ( 'NONE',  ( 1.000000000000000000, 0.0000000000000000000, 0.0000000000000000000 ) ) ;
#299 = LINE ( 'NONE', #7, #62 ) ;
ENDSEC;
END-ISO-10303-21;
