ISO-10303-21;
HEADER;
FILE_DESCRIPTION (( 'STEP AP214' ),
    '1' );
FILE_NAME ('56662.STEP',
    '2023-06-30T22:12:18',
    ( '' ),
    ( '' ),
    'SwSTEP 2.0',
    'SolidWorks 2023',
    '' );
FILE_SCHEMA (( 'AUTOMOTIVE_DESIGN' ));
ENDSEC;

DATA;
#1 = VERTEX_POINT ( 'NONE', #271 ) ;
#2 = SURFACE_SIDE_STYLE ('',( #197 ) ) ;
#3 =( LENGTH_UNIT ( ) NAMED_UNIT ( * ) SI_UNIT ( $, .METRE. ) );
#4 = ORIENTED_EDGE ( 'NONE', *, *, #246, .T. ) ;
#5 = DIRECTION ( 'NONE',  ( -1.000000000000000000, 0.000000000000000000, 0.000000000000000000 ) ) ;
#6 = CIRCLE ( 'NONE', #368, 0.3749999999999999445 ) ;
#7 = STYLED_ITEM ( 'NONE', ( #272 ), #211 ) ;
#8 = LENGTH_MEASURE_WITH_UNIT ( LENGTH_MEASURE( 0.02539999999999999897 ), #266 );
#9 = AXIS2_PLACEMENT_3D ( 'NONE', #108, #344, #109 ) ;
#10 = ORIENTED_EDGE ( 'NONE', *, *, #134, .F. ) ;
#11 = CARTESIAN_POINT ( 'NONE',  ( -1.224646799147352714E-16, 4.000000000000000000, 0.000000000000000000 ) ) ;
#12 = DIRECTION ( 'NONE',  ( 0.000000000000000000, 0.000000000000000000, -1.000000000000000000 ) ) ;
#13 = CARTESIAN_POINT ( 'NONE',  ( 4.592425496802572986E-17, 0.000000000000000000, 0.3749999999999998890 ) ) ;
#14 = ADVANCED_FACE ( 'NONE', ( #182 ), #124, .F. ) ;
#15 = ORIENTED_EDGE ( 'NONE', *, *, #73, .F. ) ;
#16 =( CONVERSION_BASED_UNIT ( 'INCH', #8 ) LENGTH_UNIT ( ) NAMED_UNIT ( #47 ) );
#17 =( GEOMETRIC_REPRESENTATION_CONTEXT ( 3 ) GLOBAL_UNCERTAINTY_ASSIGNED_CONTEXT ( ( #212 ) ) GLOBAL_UNIT_ASSIGNED_CONTEXT ( ( #274, #133, #127 ) ) REPRESENTATION_CONTEXT ( 'NONE', 'WORKASPACE' ) );
#18 = ORIENTED_EDGE ( 'NONE', *, *, #246, .F. ) ;
#19 = DIRECTION ( 'NONE',  ( -1.000000000000000000, 0.000000000000000000, 0.000000000000000000 ) ) ;
#20 = ADVANCED_BREP_SHAPE_REPRESENTATION ( '56662', ( #345, #211, #250 ), #97 ) ;
#21 = LINE ( 'NONE', #363, #149 ) ;
#22 = SURFACE_SIDE_STYLE ('',( #53 ) ) ;
#23 = ORIENTED_EDGE ( 'NONE', *, *, #253, .T. ) ;
#24 = CARTESIAN_POINT ( 'NONE',  ( 0.000000000000000000, 0.3750000000000001110, 0.000000000000000000 ) ) ;
#25 = PRODUCT_CONTEXT ( 'NONE', #122, 'mechanical' ) ;
#26 = STYLED_ITEM ( 'NONE', ( #294 ), #345 ) ;
#27 = EDGE_CURVE ( 'NONE', #128, #138, #21, .T. ) ;
#28 = SURFACE_STYLE_USAGE ( .BOTH. , #155 ) ;
#29 = EDGE_CURVE ( 'NONE', #236, #114, #6, .T. ) ;
#30 = EDGE_CURVE ( 'NONE', #114, #1, #225, .T. ) ;
#31 = AXIS2_PLACEMENT_3D ( 'NONE', #243, #361, #216 ) ;
#32 = PRESENTATION_LAYER_ASSIGNMENT (  '', '', ( #7 ) ) ;
#33 = PRESENTATION_STYLE_ASSIGNMENT (( #163 ) ) ;
#34 =( NAMED_UNIT ( * ) PLANE_ANGLE_UNIT ( ) SI_UNIT ( $, .RADIAN. ) );
#35 = PRESENTATION_LAYER_ASSIGNMENT (  '', '', ( #311 ) ) ;
#36 = AXIS2_PLACEMENT_3D ( 'NONE', #72, #46, #93 ) ;
#37 = ORIENTED_EDGE ( 'NONE', *, *, #360, .T. ) ;
#38 = DIRECTION ( 'NONE',  ( -1.000000000000000000, 0.000000000000000000, 0.000000000000000000 ) ) ;
#39 = CARTESIAN_POINT ( 'NONE',  ( 0.000000000000000000, 1.625000000000000000, -0.3749999999999998335 ) ) ;
#40 = CARTESIAN_POINT ( 'NONE',  ( 0.3749999999999999445, 0.3750000000000001110, 0.000000000000000000 ) ) ;
#41 = MECHANICAL_DESIGN_GEOMETRIC_PRESENTATION_REPRESENTATION (  '', ( #7 ), #214 ) ;
#42 = DIMENSIONAL_EXPONENTS ( 1.000000000000000000, 0.000000000000000000, 0.000000000000000000, 0.000000000000000000, 0.000000000000000000, 0.000000000000000000, 0.000000000000000000 ) ;
#43 = CARTESIAN_POINT ( 'NONE',  ( -0.3750000000000001110, 4.000000000000000000, 0.000000000000000000 ) ) ;
#44 = UNCERTAINTY_MEASURE_WITH_UNIT (LENGTH_MEASURE( 1.000000000000000082E-05 ), #337, 'distance_accuracy_value', 'NONE');
#45 = EDGE_LOOP ( 'NONE', ( #10, #254, #74, #323 ) ) ;
#46 = DIRECTION ( 'NONE',  ( -0.000000000000000000, -1.000000000000000000, -0.000000000000000000 ) ) ;
#47 = DIMENSIONAL_EXPONENTS ( 1.000000000000000000, 0.000000000000000000, 0.000000000000000000, 0.000000000000000000, 0.000000000000000000, 0.000000000000000000, 0.000000000000000000 ) ;
#48 = DIRECTION ( 'NONE',  ( -1.740287556683080860E-16, 1.000000000000000000, -0.000000000000000000 ) ) ;
#49 = DIRECTION ( 'NONE',  ( -1.740287556683080860E-16, 1.000000000000000000, -0.000000000000000000 ) ) ;
#50 = CARTESIAN_POINT ( 'NONE',  ( -0.3750000000000000555, 0.3750000000000001110, 4.592425496802574219E-17 ) ) ;
#51 = EDGE_CURVE ( 'NONE', #196, #138, #190, .T. ) ;
#52 = UNCERTAINTY_MEASURE_WITH_UNIT (LENGTH_MEASURE( 1.000000000000000082E-05 ), #16, 'distance_accuracy_value', 'NONE');
#53 = SURFACE_STYLE_FILL_AREA ( #242 ) ;
#54 = EDGE_LOOP ( 'NONE', ( #98, #140 ) ) ;
#55 = DIRECTION ( 'NONE',  ( -1.740287556683080860E-16, 1.000000000000000000, -0.000000000000000000 ) ) ;
#56 = PRODUCT_DEFINITION_CONTEXT ( 'detailed design', #137, 'design' ) ;
#57 = SURFACE_STYLE_FILL_AREA ( #303 ) ;
#58 = ADVANCED_FACE ( 'NONE', ( #240 ), #71, .T. ) ;
#59 = SURFACE_STYLE_USAGE ( .BOTH. , #22 ) ;
#60 = CIRCLE ( 'NONE', #142, 0.3750000000000000555 ) ;
#61 = AXIS2_PLACEMENT_3D ( 'NONE', #11, #309, #348 ) ;
#62 = CYLINDRICAL_SURFACE ( 'NONE', #9, 0.3749999999999997780 ) ;
#63 = SURFACE_SIDE_STYLE ('',( #369 ) ) ;
#64 = PRESENTATION_LAYER_ASSIGNMENT (  '', '', ( #26 ) ) ;
#65 =( LENGTH_UNIT ( ) NAMED_UNIT ( * ) SI_UNIT ( $, .METRE. ) );
#66 = SURFACE_STYLE_FILL_AREA ( #91 ) ;
#67 = SURFACE_STYLE_USAGE ( .BOTH. , #2 ) ;
#68 = EDGE_CURVE ( 'NONE', #315, #156, #176, .T. ) ;
#69 =( GEOMETRIC_REPRESENTATION_CONTEXT ( 3 ) GLOBAL_UNCERTAINTY_ASSIGNED_CONTEXT ( ( #199 ) ) GLOBAL_UNIT_ASSIGNED_CONTEXT ( ( #292, #357, #204 ) ) REPRESENTATION_CONTEXT ( 'NONE', 'WORKASPACE' ) );
#70 = AXIS2_PLACEMENT_3D ( 'NONE', #241, #55, #359 ) ;
#71 = SPHERICAL_SURFACE ( 'NONE', #123, 0.3750000000000000555 ) ;
#72 = CARTESIAN_POINT ( 'NONE',  ( 0.000000000000000000, 0.3750000000000001110, 0.000000000000000000 ) ) ;
#73 = EDGE_CURVE ( 'NONE', #1, #317, #150, .T. ) ;
#74 = ORIENTED_EDGE ( 'NONE', *, *, #73, .T. ) ;
#75 = FACE_OUTER_BOUND ( 'NONE', #54, .T. ) ;
#76 = STYLED_ITEM ( 'NONE', ( #33 ), #222 ) ;
#77 = SURFACE_STYLE_FILL_AREA ( #320 ) ;
#78 = DIRECTION ( 'NONE',  ( 0.000000000000000000, 0.000000000000000000, -1.000000000000000000 ) ) ;
#79 = CARTESIAN_POINT ( 'NONE',  ( -4.592425496802575451E-17, 0.3750000000000000555, 0.000000000000000000 ) ) ;
#80 = DIRECTION ( 'NONE',  ( 0.000000000000000000, 0.000000000000000000, -1.000000000000000000 ) ) ;
#81 = COLOUR_RGB ( '',1.000000000000000000, 0.000000000000000000, 0.000000000000000000 ) ;
#82 = EDGE_LOOP ( 'NONE', ( #145, #347, #233, #326 ) ) ;
#83 =( LENGTH_UNIT ( ) NAMED_UNIT ( * ) SI_UNIT ( $, .METRE. ) );
#84 = DIRECTION ( 'NONE',  ( -1.000000000000000000, 0.000000000000000000, 0.000000000000000000 ) ) ;
#85 = FILL_AREA_STYLE ('',( #349 ) ) ;
#86 = CARTESIAN_POINT ( 'NONE',  ( -4.592425496802575451E-17, 0.3750000000000000555, 0.000000000000000000 ) ) ;
#87 = CARTESIAN_POINT ( 'NONE',  ( 0.000000000000000000, 0.000000000000000000, 0.000000000000000000 ) ) ;
#88 = CIRCLE ( 'NONE', #103, 0.3749999999999995559 ) ;
#89 = FILL_AREA_STYLE ('',( #107 ) ) ;
#90 = CIRCLE ( 'NONE', #143, 0.3749999999999998335 ) ;
#91 = FILL_AREA_STYLE ('',( #306 ) ) ;
#92 = CARTESIAN_POINT ( 'NONE',  ( 0.000000000000000000, 0.000000000000000000, -0.3749999999999998890 ) ) ;
#93 = DIRECTION ( 'NONE',  ( 0.000000000000000000, 0.000000000000000000, -1.000000000000000000 ) ) ;
#94 = LINE ( 'NONE', #92, #282 ) ;
#95 = ORIENTED_EDGE ( 'NONE', *, *, #215, .T. ) ;
#96 = DIRECTION ( 'NONE',  ( 1.740287556683080860E-16, -1.000000000000000000, 0.000000000000000000 ) ) ;
#97 =( GEOMETRIC_REPRESENTATION_CONTEXT ( 3 ) GLOBAL_UNCERTAINTY_ASSIGNED_CONTEXT ( ( #350 ) ) GLOBAL_UNIT_ASSIGNED_CONTEXT ( ( #333, #129, #148 ) ) REPRESENTATION_CONTEXT ( 'NONE', 'WORKASPACE' ) );
#98 = ORIENTED_EDGE ( 'NONE', *, *, #353, .T. ) ;
#99 = DIRECTION ( 'NONE',  ( 1.000000000000000000, 0.000000000000000000, -1.224646799147353207E-16 ) ) ;
#100 = DIRECTION ( 'NONE',  ( -0.000000000000000000, -1.000000000000000000, -0.000000000000000000 ) ) ;
#101 = LENGTH_MEASURE_WITH_UNIT ( LENGTH_MEASURE( 0.02539999999999999897 ), #331 );
#102 = FILL_AREA_STYLE_COLOUR ( '', #81 ) ;
#103 = AXIS2_PLACEMENT_3D ( 'NONE', #332, #49, #19 ) ;
#104 =( GEOMETRIC_REPRESENTATION_CONTEXT ( 3 ) GLOBAL_UNCERTAINTY_ASSIGNED_CONTEXT ( ( #153 ) ) GLOBAL_UNIT_ASSIGNED_CONTEXT ( ( #291, #228, #195 ) ) REPRESENTATION_CONTEXT ( 'NONE', 'WORKASPACE' ) );
#105 = DIRECTION ( 'NONE',  ( -1.740287556683080860E-16, 1.000000000000000000, -0.000000000000000000 ) ) ;
#106 = SPHERICAL_SURFACE ( 'NONE', #162, 0.3750000000000000555 ) ;
#107 = FILL_AREA_STYLE_COLOUR ( '', #339 ) ;
#108 = CARTESIAN_POINT ( 'NONE',  ( -1.224646799147352714E-16, 4.000000000000000000, 0.000000000000000000 ) ) ;
#109 = DIRECTION ( 'NONE',  ( -1.000000000000000000, 0.000000000000000000, 0.000000000000000000 ) ) ;
#110 = PRESENTATION_STYLE_ASSIGNMENT (( #164 ) ) ;
#111 = VECTOR ( 'NONE', #113, 39.37007874015748143 ) ;
#112 = PRODUCT_DEFINITION_FORMATION_WITH_SPECIFIED_SOURCE ( 'ANY', '', #192, .NOT_KNOWN. ) ;
#113 = DIRECTION ( 'NONE',  ( -1.740287556683080860E-16, 1.000000000000000000, -0.000000000000000000 ) ) ;
#114 = VERTEX_POINT ( 'NONE', #50 ) ;
#115 = CARTESIAN_POINT ( 'NONE',  ( 4.592425496802572986E-17, 1.625000000000000000, 0.3749999999999998335 ) ) ;
#116 = EDGE_LOOP ( 'NONE', ( #295, #290 ) ) ;
#117 = FACE_OUTER_BOUND ( 'NONE', #121, .T. ) ;
#118 = AXIS2_PLACEMENT_3D ( 'NONE', #232, #144, #264 ) ;
#119 =( LENGTH_UNIT ( ) NAMED_UNIT ( * ) SI_UNIT ( $, .METRE. ) );
#120 = DIRECTION ( 'NONE',  ( -0.000000000000000000, -1.000000000000000000, -0.000000000000000000 ) ) ;
#121 = EDGE_LOOP ( 'NONE', ( #95, #358, #200, #285 ) ) ;
#122 = APPLICATION_CONTEXT ( 'automotive_design' ) ;
#123 = AXIS2_PLACEMENT_3D ( 'NONE', #79, #288, #259 ) ;
#124 = PLANE ( 'NONE',  #31 ) ;
#125 = UNCERTAINTY_MEASURE_WITH_UNIT (LENGTH_MEASURE( 1.000000000000000082E-05 ), #340, 'distance_accuracy_value', 'NONE');
#126 = CARTESIAN_POINT ( 'NONE',  ( 0.000000000000000000, 0.3750000000000001110, 0.000000000000000000 ) ) ;
#127 =( NAMED_UNIT ( * ) SI_UNIT ( $, .STERADIAN. ) SOLID_ANGLE_UNIT ( ) );
#128 = VERTEX_POINT ( 'NONE', #180 ) ;
#129 =( NAMED_UNIT ( * ) PLANE_ANGLE_UNIT ( ) SI_UNIT ( $, .RADIAN. ) );
#130 = STYLED_ITEM ( 'NONE', ( #110 ), #165 ) ;
#131 = DIRECTION ( 'NONE',  ( 0.000000000000000000, 0.000000000000000000, -1.000000000000000000 ) ) ;
#132 = DIRECTION ( 'NONE',  ( 0.000000000000000000, 0.000000000000000000, 1.000000000000000000 ) ) ;
#133 =( NAMED_UNIT ( * ) PLANE_ANGLE_UNIT ( ) SI_UNIT ( $, .RADIAN. ) );
#134 = EDGE_CURVE ( 'NONE', #114, #172, #60, .T. ) ;
#135 = DIRECTION ( 'NONE',  ( 0.000000000000000000, 0.000000000000000000, -1.000000000000000000 ) ) ;
#136 = DIRECTION ( 'NONE',  ( -0.000000000000000000, -1.000000000000000000, -0.000000000000000000 ) ) ;
#137 = APPLICATION_CONTEXT ( 'automotive_design' ) ;
#138 = VERTEX_POINT ( 'NONE', #43 ) ;
#139 = FACE_OUTER_BOUND ( 'NONE', #116, .T. ) ;
#140 = ORIENTED_EDGE ( 'NONE', *, *, #51, .T. ) ;
#141 = DIMENSIONAL_EXPONENTS ( 1.000000000000000000, 0.000000000000000000, 0.000000000000000000, 0.000000000000000000, 0.000000000000000000, 0.000000000000000000, 0.000000000000000000 ) ;
#142 = AXIS2_PLACEMENT_3D ( 'NONE', #179, #208, #99 ) ;
#143 = AXIS2_PLACEMENT_3D ( 'NONE', #263, #283, #201 ) ;
#144 = DIRECTION ( 'NONE',  ( -0.000000000000000000, -1.000000000000000000, -0.000000000000000000 ) ) ;
#145 = ORIENTED_EDGE ( 'NONE', *, *, #29, .T. ) ;
#146 = ADVANCED_FACE ( 'NONE', ( #256 ), #106, .T. ) ;
#147 = SURFACE_SIDE_STYLE ('',( #57 ) ) ;
#148 =( NAMED_UNIT ( * ) SI_UNIT ( $, .STERADIAN. ) SOLID_ANGLE_UNIT ( ) );
#149 = VECTOR ( 'NONE', #105, 39.37007874015748143 ) ;
#150 = CIRCLE ( 'NONE', #118, 0.3749999999999999445 ) ;
#151 = AXIS2_PLACEMENT_3D ( 'NONE', #318, #313, #78 ) ;
#152 = ORIENTED_EDGE ( 'NONE', *, *, #215, .F. ) ;
#153 = UNCERTAINTY_MEASURE_WITH_UNIT (LENGTH_MEASURE( 1.000000000000000082E-05 ), #291, 'distance_accuracy_value', 'NONE');
#154 = ORIENTED_EDGE ( 'NONE', *, *, #29, .F. ) ;
#155 = SURFACE_SIDE_STYLE ('',( #244 ) ) ;
#156 = VERTEX_POINT ( 'NONE', #115 ) ;
#157 = APPLICATION_PROTOCOL_DEFINITION ( 'draft international standard', 'automotive_design', 1998, #122 ) ;
#158 =( GEOMETRIC_REPRESENTATION_CONTEXT ( 3 ) GLOBAL_UNCERTAINTY_ASSIGNED_CONTEXT ( ( #44 ) ) GLOBAL_UNIT_ASSIGNED_CONTEXT ( ( #337, #34, #308 ) ) REPRESENTATION_CONTEXT ( 'NONE', 'WORKASPACE' ) );
#159 =( NAMED_UNIT ( * ) SI_UNIT ( $, .STERADIAN. ) SOLID_ANGLE_UNIT ( ) );
#160 = ADVANCED_FACE ( 'NONE', ( #249 ), #62, .T. ) ;
#161 = AXIS2_PLACEMENT_3D ( 'NONE', #278, #136, #135 ) ;
#162 = AXIS2_PLACEMENT_3D ( 'NONE', #86, #132, #366 ) ;
#163 = SURFACE_STYLE_USAGE ( .BOTH. , #63 ) ;
#164 = SURFACE_STYLE_USAGE ( .BOTH. , #166 ) ;
#165 = ADVANCED_FACE ( 'NONE', ( #341 ), #221, .T. ) ;
#166 = SURFACE_SIDE_STYLE ('',( #66 ) ) ;
#167 = STYLED_ITEM ( 'NONE', ( #362 ), #188 ) ;
#168 = CIRCLE ( 'NONE', #36, 0.3749999999999999445 ) ;
#169 = ORIENTED_EDGE ( 'NONE', *, *, #68, .T. ) ;
#170 = FILL_AREA_STYLE ('',( #346 ) ) ;
#171 = SURFACE_STYLE_USAGE ( .BOTH. , #284 ) ;
#172 = VERTEX_POINT ( 'NONE', #252 ) ;
#173 = CARTESIAN_POINT ( 'NONE',  ( -4.592425496802575451E-17, 0.3750000000000000555, 0.000000000000000000 ) ) ;
#174 = DIMENSIONAL_EXPONENTS ( 1.000000000000000000, 0.000000000000000000, 0.000000000000000000, 0.000000000000000000, 0.000000000000000000, 0.000000000000000000, 0.000000000000000000 ) ;
#175 = CARTESIAN_POINT ( 'NONE',  ( 0.3749999999999998335, 4.000000000000000000, 0.000000000000000000 ) ) ;
#176 = CIRCLE ( 'NONE', #279, 0.3749999999999998335 ) ;
#177 = EDGE_CURVE ( 'NONE', #267, #196, #373, .T. ) ;
#178 = PLANE ( 'NONE',  #312 ) ;
#179 = CARTESIAN_POINT ( 'NONE',  ( -4.592425496802575451E-17, 0.3750000000000000555, 0.000000000000000000 ) ) ;
#180 = CARTESIAN_POINT ( 'NONE',  ( -0.3749999999999992784, 1.625000000000000000, 0.000000000000000000 ) ) ;
#181 = SURFACE_STYLE_USAGE ( .BOTH. , #147 ) ;
#182 = FACE_OUTER_BOUND ( 'NONE', #351, .T. ) ;
#183 = LENGTH_MEASURE_WITH_UNIT ( LENGTH_MEASURE( 0.02539999999999999897 ), #365 );
#184 = ORIENTED_EDGE ( 'NONE', *, *, #177, .F. ) ;
#185 = DIRECTION ( 'NONE',  ( 1.000000000000000000, 0.000000000000000000, 0.000000000000000000 ) ) ;
#186 = AXIS2_PLACEMENT_3D ( 'NONE', #126, #100, #80 ) ;
#187 = MECHANICAL_DESIGN_GEOMETRIC_PRESENTATION_REPRESENTATION (  '', ( #26 ), #104 ) ;
#188 = ADVANCED_FACE ( 'NONE', ( #139 ), #230, .T. ) ;
#189 =( NAMED_UNIT ( * ) PLANE_ANGLE_UNIT ( ) SI_UNIT ( $, .RADIAN. ) );
#190 = CIRCLE ( 'NONE', #219, 0.3749999999999999445 ) ;
#191 = AXIS2_PLACEMENT_3D ( 'NONE', #265, #258, #5 ) ;
#192 = PRODUCT ( '56662', '56662', '', ( #25 ) ) ;
#193 = DIRECTION ( 'NONE',  ( -0.000000000000000000, -1.000000000000000000, -0.000000000000000000 ) ) ;
#194 = PRESENTATION_LAYER_ASSIGNMENT (  '', '', ( #167 ) ) ;
#195 =( NAMED_UNIT ( * ) SI_UNIT ( $, .STERADIAN. ) SOLID_ANGLE_UNIT ( ) );
#196 = VERTEX_POINT ( 'NONE', #217 ) ;
#197 = SURFACE_STYLE_FILL_AREA ( #170 ) ;
#198 = PRESENTATION_STYLE_ASSIGNMENT (( #171 ) ) ;
#199 = UNCERTAINTY_MEASURE_WITH_UNIT (LENGTH_MEASURE( 1.000000000000000082E-05 ), #292, 'distance_accuracy_value', 'NONE');
#200 = ORIENTED_EDGE ( 'NONE', *, *, #353, .F. ) ;
#201 = DIRECTION ( 'NONE',  ( 0.000000000000000000, 0.000000000000000000, -1.000000000000000000 ) ) ;
#202 = ORIENTED_EDGE ( 'NONE', *, *, #51, .F. ) ;
#203 = DIRECTION ( 'NONE',  ( 1.000000000000000000, 1.740287556683080860E-16, 0.000000000000000000 ) ) ;
#204 =( NAMED_UNIT ( * ) SI_UNIT ( $, .STERADIAN. ) SOLID_ANGLE_UNIT ( ) );
#205 = ORIENTED_EDGE ( 'NONE', *, *, #30, .F. ) ;
#206 = PRODUCT_RELATED_PRODUCT_CATEGORY ( 'part', '', ( #192 ) ) ;
#207 = DIMENSIONAL_EXPONENTS ( 1.000000000000000000, 0.000000000000000000, 0.000000000000000000, 0.000000000000000000, 0.000000000000000000, 0.000000000000000000, 0.000000000000000000 ) ;
#208 = DIRECTION ( 'NONE',  ( 1.224646799147353207E-16, -0.000000000000000000, 1.000000000000000000 ) ) ;
#209 = CARTESIAN_POINT ( 'NONE',  ( 0.000000000000000000, 1.625000000000000000, 0.000000000000000000 ) ) ;
#210 = APPLICATION_PROTOCOL_DEFINITION ( 'draft international standard', 'automotive_design', 1998, #137 ) ;
#211 = MANIFOLD_SOLID_BREP ( 'Revolve - Tool Body (Straight Shanked)', #310 ) ;
#212 = UNCERTAINTY_MEASURE_WITH_UNIT (LENGTH_MEASURE( 1.000000000000000082E-05 ), #274, 'distance_accuracy_value', 'NONE');
#213 = EDGE_LOOP ( 'NONE', ( #184, #273, #257, #202 ) ) ;
#214 =( GEOMETRIC_REPRESENTATION_CONTEXT ( 3 ) GLOBAL_UNCERTAINTY_ASSIGNED_CONTEXT ( ( #354 ) ) GLOBAL_UNIT_ASSIGNED_CONTEXT ( ( #334, #269, #159 ) ) REPRESENTATION_CONTEXT ( 'NONE', 'WORKASPACE' ) );
#215 = EDGE_CURVE ( 'NONE', #128, #267, #88, .T. ) ;
#216 = DIRECTION ( 'NONE',  ( -1.000000000000000000, -1.740287556683080860E-16, 0.000000000000000000 ) ) ;
#217 = CARTESIAN_POINT ( 'NONE',  ( 0.3749999999999998335, 4.000000000000000000, 4.592425496802573602E-17 ) ) ;
#218 = LENGTH_MEASURE_WITH_UNIT ( LENGTH_MEASURE( 0.02539999999999999897 ), #83 );
#219 = AXIS2_PLACEMENT_3D ( 'NONE', #330, #48, #84 ) ;
#220 = CIRCLE ( 'NONE', #70, 0.3749999999999995559 ) ;
#221 = CYLINDRICAL_SURFACE ( 'NONE', #161, 0.3749999999999998890 ) ;
#222 = ADVANCED_FACE ( 'NONE', ( #224 ), #305, .T. ) ;
#223 = LENGTH_MEASURE_WITH_UNIT ( LENGTH_MEASURE( 0.02539999999999999897 ), #281 );
#224 = FACE_OUTER_BOUND ( 'NONE', #293, .T. ) ;
#225 = CIRCLE ( 'NONE', #186, 0.3749999999999999445 ) ;
#226 = STYLED_ITEM ( 'NONE', ( #198 ), #146 ) ;
#227 = EDGE_CURVE ( 'NONE', #317, #236, #168, .T. ) ;
#228 =( NAMED_UNIT ( * ) PLANE_ANGLE_UNIT ( ) SI_UNIT ( $, .RADIAN. ) );
#229 = LINE ( 'NONE', #13, #237 ) ;
#230 = PLANE ( 'NONE',  #245 ) ;
#231 =( NAMED_UNIT ( * ) PLANE_ANGLE_UNIT ( ) SI_UNIT ( $, .RADIAN. ) );
#232 = CARTESIAN_POINT ( 'NONE',  ( 0.000000000000000000, 0.3750000000000001110, 0.000000000000000000 ) ) ;
#233 = ORIENTED_EDGE ( 'NONE', *, *, #270, .F. ) ;
#234 = CARTESIAN_POINT ( 'NONE',  ( 0.3749999999999998335, 1.625000000000000000, 4.592425496802573602E-17 ) ) ;
#235 = LENGTH_MEASURE_WITH_UNIT ( LENGTH_MEASURE( 0.02539999999999999897 ), #3 );
#236 = VERTEX_POINT ( 'NONE', #255 ) ;
#237 = VECTOR ( 'NONE', #120, 39.37007874015748143 ) ;
#238 = DIRECTION ( 'NONE',  ( -0.000000000000000000, -1.000000000000000000, -0.000000000000000000 ) ) ;
#239 = EDGE_LOOP ( 'NONE', ( #169, #37, #275, #15, #18 ) ) ;
#240 = FACE_OUTER_BOUND ( 'NONE', #82, .T. ) ;
#241 = CARTESIAN_POINT ( 'NONE',  ( 2.908536147974964206E-16, 1.625000000000000000, 0.000000000000000000 ) ) ;
#242 = FILL_AREA_STYLE ('',( #302 ) ) ;
#243 = CARTESIAN_POINT ( 'NONE',  ( 2.908536147974963713E-16, 1.625000000000000000, 0.000000000000000000 ) ) ;
#244 = SURFACE_STYLE_FILL_AREA ( #85 ) ;
#245 = AXIS2_PLACEMENT_3D ( 'NONE', #300, #329, #276 ) ;
#246 = EDGE_CURVE ( 'NONE', #315, #1, #94, .T. ) ;
#247 =( GEOMETRIC_REPRESENTATION_CONTEXT ( 3 ) GLOBAL_UNCERTAINTY_ASSIGNED_CONTEXT ( ( #125 ) ) GLOBAL_UNIT_ASSIGNED_CONTEXT ( ( #340, #189, #352 ) ) REPRESENTATION_CONTEXT ( 'NONE', 'WORKASPACE' ) );
#248 = SHAPE_DEFINITION_REPRESENTATION ( #328, #20 ) ;
#249 = FACE_OUTER_BOUND ( 'NONE', #213, .T. ) ;
#250 = AXIS2_PLACEMENT_3D ( 'NONE', #87, #356, #185 ) ;
#251 = PRESENTATION_LAYER_ASSIGNMENT (  '', '', ( #130 ) ) ;
#252 = CARTESIAN_POINT ( 'NONE',  ( -2.296212748401287726E-17, 0.000000000000000000, 0.000000000000000000 ) ) ;
#253 = EDGE_CURVE ( 'NONE', #156, #315, #90, .T. ) ;
#254 = ORIENTED_EDGE ( 'NONE', *, *, #30, .T. ) ;
#255 = CARTESIAN_POINT ( 'NONE',  ( 4.592425496802573602E-17, 0.3750000000000001110, 0.3749999999999999445 ) ) ;
#256 = FACE_OUTER_BOUND ( 'NONE', #45, .T. ) ;
#257 = ORIENTED_EDGE ( 'NONE', *, *, #27, .T. ) ;
#258 = DIRECTION ( 'NONE',  ( -1.740287556683080860E-16, 1.000000000000000000, -0.000000000000000000 ) ) ;
#259 = DIRECTION ( 'NONE',  ( 1.000000000000000000, 0.000000000000000000, 0.000000000000000000 ) ) ;
#260 = PRESENTATION_LAYER_ASSIGNMENT (  '', '', ( #226 ) ) ;
#261 = ORIENTED_EDGE ( 'NONE', *, *, #367, .F. ) ;
#262 = AXIS2_PLACEMENT_3D ( 'NONE', #173, #286, #38 ) ;
#263 = CARTESIAN_POINT ( 'NONE',  ( 0.000000000000000000, 1.625000000000000000, 0.000000000000000000 ) ) ;
#264 = DIRECTION ( 'NONE',  ( 0.000000000000000000, 0.000000000000000000, -1.000000000000000000 ) ) ;
#265 = CARTESIAN_POINT ( 'NONE',  ( -1.224646799147352468E-16, 4.000000000000000000, 0.000000000000000000 ) ) ;
#266 =( LENGTH_UNIT ( ) NAMED_UNIT ( * ) SI_UNIT ( $, .METRE. ) );
#267 = VERTEX_POINT ( 'NONE', #234 ) ;
#268 = DIMENSIONAL_EXPONENTS ( 1.000000000000000000, 0.000000000000000000, 0.000000000000000000, 0.000000000000000000, 0.000000000000000000, 0.000000000000000000, 0.000000000000000000 ) ;
#269 =( NAMED_UNIT ( * ) PLANE_ANGLE_UNIT ( ) SI_UNIT ( $, .RADIAN. ) );
#270 = EDGE_CURVE ( 'NONE', #317, #172, #370, .T. ) ;
#271 = CARTESIAN_POINT ( 'NONE',  ( 0.000000000000000000, 0.3750000000000001110, -0.3749999999999999445 ) ) ;
#272 = PRESENTATION_STYLE_ASSIGNMENT (( #59 ) ) ;
#273 = ORIENTED_EDGE ( 'NONE', *, *, #367, .T. ) ;
#274 =( CONVERSION_BASED_UNIT ( 'INCH', #183 ) LENGTH_UNIT ( ) NAMED_UNIT ( #207 ) );
#275 = ORIENTED_EDGE ( 'NONE', *, *, #227, .F. ) ;
#276 = DIRECTION ( 'NONE',  ( 0.000000000000000000, -0.000000000000000000, 1.000000000000000000 ) ) ;
#277 = PRESENTATION_LAYER_ASSIGNMENT (  '', '', ( #76 ) ) ;
#278 = CARTESIAN_POINT ( 'NONE',  ( 0.000000000000000000, 0.000000000000000000, 0.000000000000000000 ) ) ;
#279 = AXIS2_PLACEMENT_3D ( 'NONE', #209, #238, #12 ) ;
#280 = LENGTH_MEASURE_WITH_UNIT ( LENGTH_MEASURE( 0.02539999999999999897 ), #65 );
#281 =( LENGTH_UNIT ( ) NAMED_UNIT ( * ) SI_UNIT ( $, .METRE. ) );
#282 = VECTOR ( 'NONE', #193, 39.37007874015748143 ) ;
#283 = DIRECTION ( 'NONE',  ( -0.000000000000000000, -1.000000000000000000, -0.000000000000000000 ) ) ;
#284 = SURFACE_SIDE_STYLE ('',( #77 ) ) ;
#285 = ORIENTED_EDGE ( 'NONE', *, *, #27, .F. ) ;
#286 = DIRECTION ( 'NONE',  ( 0.000000000000000000, 0.000000000000000000, -1.000000000000000000 ) ) ;
#287 = CLOSED_SHELL ( 'NONE', ( #58, #165, #188, #222, #146 ) ) ;
#288 = DIRECTION ( 'NONE',  ( 0.000000000000000000, 0.000000000000000000, 1.000000000000000000 ) ) ;
#289 =( GEOMETRIC_REPRESENTATION_CONTEXT ( 3 ) GLOBAL_UNCERTAINTY_ASSIGNED_CONTEXT ( ( #52 ) ) GLOBAL_UNIT_ASSIGNED_CONTEXT ( ( #16, #231, #316 ) ) REPRESENTATION_CONTEXT ( 'NONE', 'WORKASPACE' ) );
#290 = ORIENTED_EDGE ( 'NONE', *, *, #253, .F. ) ;
#291 =( CONVERSION_BASED_UNIT ( 'INCH', #372 ) LENGTH_UNIT ( ) NAMED_UNIT ( #297 ) );
#292 =( CONVERSION_BASED_UNIT ( 'INCH', #235 ) LENGTH_UNIT ( ) NAMED_UNIT ( #141 ) );
#293 = EDGE_LOOP ( 'NONE', ( #325, #23, #4, #205, #154 ) ) ;
#294 = PRESENTATION_STYLE_ASSIGNMENT (( #67 ) ) ;
#295 = ORIENTED_EDGE ( 'NONE', *, *, #68, .F. ) ;
#296 = ADVANCED_FACE ( 'NONE', ( #117 ), #343, .T. ) ;
#297 = DIMENSIONAL_EXPONENTS ( 1.000000000000000000, 0.000000000000000000, 0.000000000000000000, 0.000000000000000000, 0.000000000000000000, 0.000000000000000000, 0.000000000000000000 ) ;
#298 = PRESENTATION_STYLE_ASSIGNMENT (( #181 ) ) ;
#299 = MECHANICAL_DESIGN_GEOMETRIC_PRESENTATION_REPRESENTATION (  '', ( #167 ), #17 ) ;
#300 = CARTESIAN_POINT ( 'NONE',  ( 0.000000000000000000, 1.625000000000000000, 0.000000000000000000 ) ) ;
#301 = DIRECTION ( 'NONE',  ( -0.000000000000000000, -1.000000000000000000, -0.000000000000000000 ) ) ;
#302 = FILL_AREA_STYLE_COLOUR ( '', #355 ) ;
#303 = FILL_AREA_STYLE ('',( #102 ) ) ;
#304 = COLOUR_RGB ( '',1.000000000000000000, 0.000000000000000000, 0.000000000000000000 ) ;
#305 = CYLINDRICAL_SURFACE ( 'NONE', #151, 0.3749999999999998890 ) ;
#306 = FILL_AREA_STYLE_COLOUR ( '', #307 ) ;
#307 = COLOUR_RGB ( '',1.000000000000000000, 0.000000000000000000, 0.000000000000000000 ) ;
#308 =( NAMED_UNIT ( * ) SI_UNIT ( $, .STERADIAN. ) SOLID_ANGLE_UNIT ( ) );
#309 = DIRECTION ( 'NONE',  ( -1.740287556683080860E-16, 1.000000000000000000, -0.000000000000000000 ) ) ;
#310 = CLOSED_SHELL ( 'NONE', ( #296, #14, #160, #324 ) ) ;
#311 = STYLED_ITEM ( 'NONE', ( #298 ), #58 ) ;
#312 = AXIS2_PLACEMENT_3D ( 'NONE', #175, #96, #203 ) ;
#313 = DIRECTION ( 'NONE',  ( -0.000000000000000000, -1.000000000000000000, -0.000000000000000000 ) ) ;
#314 = FILL_AREA_STYLE_COLOUR ( '', #304 ) ;
#315 = VERTEX_POINT ( 'NONE', #39 ) ;
#316 =( NAMED_UNIT ( * ) SI_UNIT ( $, .STERADIAN. ) SOLID_ANGLE_UNIT ( ) );
#317 = VERTEX_POINT ( 'NONE', #40 ) ;
#318 = CARTESIAN_POINT ( 'NONE',  ( 0.000000000000000000, 0.000000000000000000, 0.000000000000000000 ) ) ;
#319 = DIMENSIONAL_EXPONENTS ( 1.000000000000000000, 0.000000000000000000, 0.000000000000000000, 0.000000000000000000, 0.000000000000000000, 0.000000000000000000, 0.000000000000000000 ) ;
#320 = FILL_AREA_STYLE ('',( #314 ) ) ;
#321 = MECHANICAL_DESIGN_GEOMETRIC_PRESENTATION_REPRESENTATION (  '', ( #76 ), #247 ) ;
#322 = CIRCLE ( 'NONE', #191, 0.3749999999999999445 ) ;
#323 = ORIENTED_EDGE ( 'NONE', *, *, #270, .T. ) ;
#324 = ADVANCED_FACE ( 'NONE', ( #75 ), #178, .F. ) ;
#325 = ORIENTED_EDGE ( 'NONE', *, *, #360, .F. ) ;
#326 = ORIENTED_EDGE ( 'NONE', *, *, #227, .T. ) ;
#327 = MECHANICAL_DESIGN_GEOMETRIC_PRESENTATION_REPRESENTATION (  '', ( #226 ), #289 ) ;
#328 = PRODUCT_DEFINITION_SHAPE ( 'NONE', 'NONE',  #342 ) ;
#329 = DIRECTION ( 'NONE',  ( 0.000000000000000000, 1.000000000000000000, 0.000000000000000000 ) ) ;
#330 = CARTESIAN_POINT ( 'NONE',  ( -1.224646799147352468E-16, 4.000000000000000000, 0.000000000000000000 ) ) ;
#331 =( LENGTH_UNIT ( ) NAMED_UNIT ( * ) SI_UNIT ( $, .METRE. ) );
#332 = CARTESIAN_POINT ( 'NONE',  ( 2.908536147974964206E-16, 1.625000000000000000, 0.000000000000000000 ) ) ;
#333 =( CONVERSION_BASED_UNIT ( 'INCH', #101 ) LENGTH_UNIT ( ) NAMED_UNIT ( #319 ) );
#334 =( CONVERSION_BASED_UNIT ( 'INCH', #218 ) LENGTH_UNIT ( ) NAMED_UNIT ( #42 ) );
#335 = MECHANICAL_DESIGN_GEOMETRIC_PRESENTATION_REPRESENTATION (  '', ( #311 ), #69 ) ;
#336 = COLOUR_RGB ( '',0.7921568627450980005, 0.8196078431372548767, 0.9333333333333333481 ) ;
#337 =( CONVERSION_BASED_UNIT ( 'INCH', #223 ) LENGTH_UNIT ( ) NAMED_UNIT ( #174 ) );
#338 = CARTESIAN_POINT ( 'NONE',  ( 0.3749999999999996114, 4.000000000000000000, 4.592425496802571754E-17 ) ) ;
#339 = COLOUR_RGB ( '',1.000000000000000000, 0.000000000000000000, 0.000000000000000000 ) ;
#340 =( CONVERSION_BASED_UNIT ( 'INCH', #280 ) LENGTH_UNIT ( ) NAMED_UNIT ( #268 ) );
#341 = FACE_OUTER_BOUND ( 'NONE', #239, .T. ) ;
#342 = PRODUCT_DEFINITION ( 'UNKNOWN', '', #112, #56 ) ;
#343 = CYLINDRICAL_SURFACE ( 'NONE', #61, 0.3749999999999997780 ) ;
#344 = DIRECTION ( 'NONE',  ( -1.740287556683080860E-16, 1.000000000000000000, -0.000000000000000000 ) ) ;
#345 = MANIFOLD_SOLID_BREP ( 'Revolve - Cutting Edge', #287 ) ;
#346 = FILL_AREA_STYLE_COLOUR ( '', #336 ) ;
#347 = ORIENTED_EDGE ( 'NONE', *, *, #134, .T. ) ;
#348 = DIRECTION ( 'NONE',  ( -1.000000000000000000, 0.000000000000000000, 0.000000000000000000 ) ) ;
#349 = FILL_AREA_STYLE_COLOUR ( '', #364 ) ;
#350 = UNCERTAINTY_MEASURE_WITH_UNIT (LENGTH_MEASURE( 1.000000000000000082E-05 ), #333, 'distance_accuracy_value', 'NONE');
#351 = EDGE_LOOP ( 'NONE', ( #152, #261 ) ) ;
#352 =( NAMED_UNIT ( * ) SI_UNIT ( $, .STERADIAN. ) SOLID_ANGLE_UNIT ( ) );
#353 = EDGE_CURVE ( 'NONE', #138, #196, #322, .T. ) ;
#354 = UNCERTAINTY_MEASURE_WITH_UNIT (LENGTH_MEASURE( 1.000000000000000082E-05 ), #334, 'distance_accuracy_value', 'NONE');
#355 = COLOUR_RGB ( '',0.7921568627450980005, 0.8196078431372548767, 0.9333333333333333481 ) ;
#356 = DIRECTION ( 'NONE',  ( 0.000000000000000000, 0.000000000000000000, 1.000000000000000000 ) ) ;
#357 =( NAMED_UNIT ( * ) PLANE_ANGLE_UNIT ( ) SI_UNIT ( $, .RADIAN. ) );
#358 = ORIENTED_EDGE ( 'NONE', *, *, #177, .T. ) ;
#359 = DIRECTION ( 'NONE',  ( -1.000000000000000000, 0.000000000000000000, 0.000000000000000000 ) ) ;
#360 = EDGE_CURVE ( 'NONE', #156, #236, #229, .T. ) ;
#361 = DIRECTION ( 'NONE',  ( -1.740287556683080860E-16, 1.000000000000000000, 0.000000000000000000 ) ) ;
#362 = PRESENTATION_STYLE_ASSIGNMENT (( #28 ) ) ;
#363 = CARTESIAN_POINT ( 'NONE',  ( -0.3749999999999998890, 4.000000000000000000, 0.000000000000000000 ) ) ;
#364 = COLOUR_RGB ( '',1.000000000000000000, 0.000000000000000000, 0.000000000000000000 ) ;
#365 =( LENGTH_UNIT ( ) NAMED_UNIT ( * ) SI_UNIT ( $, .METRE. ) );
#366 = DIRECTION ( 'NONE',  ( 1.000000000000000000, 0.000000000000000000, 0.000000000000000000 ) ) ;
#367 = EDGE_CURVE ( 'NONE', #267, #128, #220, .T. ) ;
#368 = AXIS2_PLACEMENT_3D ( 'NONE', #24, #301, #131 ) ;
#369 = SURFACE_STYLE_FILL_AREA ( #89 ) ;
#370 = CIRCLE ( 'NONE', #262, 0.3750000000000000555 ) ;
#371 = MECHANICAL_DESIGN_GEOMETRIC_PRESENTATION_REPRESENTATION (  '', ( #130 ), #158 ) ;
#372 = LENGTH_MEASURE_WITH_UNIT ( LENGTH_MEASURE( 0.02539999999999999897 ), #119 );
#373 = LINE ( 'NONE', #338, #111 ) ;
ENDSEC;
END-ISO-10303-21;
