ISO-10303-21;
HEADER;
FILE_DESCRIPTION (( 'STEP AP214' ),
    '1' );
FILE_NAME ('01585.STEP',
    '2023-06-22T14:37:59',
    ( '' ),
    ( '' ),
    'SwSTEP 2.0',
    'SolidWorks 2023',
    '' );
FILE_SCHEMA (( 'AUTOMOTIVE_DESIGN' ));
ENDSEC;

DATA;
#1 = UNCERTAINTY_MEASURE_WITH_UNIT (LENGTH_MEASURE( 1.000000000000000082E-05 ), #302, 'distance_accuracy_value', 'NONE');
#2 = EDGE_LOOP ( 'NONE', ( #117, #92, #231, #44 ) ) ;
#3 =( LENGTH_UNIT ( ) NAMED_UNIT ( * ) SI_UNIT ( $, .METRE. ) );
#4 = CIRCLE ( 'NONE', #205, 0.3125000000000000000 ) ;
#5 = COLOUR_RGB ( '',0.7921568627450980005, 0.8196078431372548767, 0.9333333333333333481 ) ;
#6 = PLANE ( 'NONE',  #190 ) ;
#7 = CIRCLE ( 'NONE', #42, 0.3125000000000000555 ) ;
#8 = PRODUCT_DEFINITION ( 'UNKNOWN', '', #102, #107 ) ;
#9 = SURFACE_STYLE_FILL_AREA ( #274 ) ;
#10 =( NAMED_UNIT ( * ) PLANE_ANGLE_UNIT ( ) SI_UNIT ( $, .RADIAN. ) );
#11 = CARTESIAN_POINT ( 'NONE',  ( 0.3124999999999999445, 4.000000000000000000, 3.827021247335478926E-17 ) ) ;
#12 = EDGE_CURVE ( 'NONE', #170, #209, #304, .T. ) ;
#13 = CARTESIAN_POINT ( 'NONE',  ( 0.000000000000000000, 0.000000000000000000, 0.000000000000000000 ) ) ;
#14 = APPLICATION_PROTOCOL_DEFINITION ( 'draft international standard', 'automotive_design', 1998, #210 ) ;
#15 = FILL_AREA_STYLE ('',( #159 ) ) ;
#16 = AXIS2_PLACEMENT_3D ( 'NONE', #206, #224, #161 ) ;
#17 = DIMENSIONAL_EXPONENTS ( 1.000000000000000000, 0.000000000000000000, 0.000000000000000000, 0.000000000000000000, 0.000000000000000000, 0.000000000000000000, 0.000000000000000000 ) ;
#18 = PRESENTATION_LAYER_ASSIGNMENT (  '', '', ( #38 ) ) ;
#19 = SURFACE_STYLE_FILL_AREA ( #283 ) ;
#20 = ORIENTED_EDGE ( 'NONE', *, *, #155, .T. ) ;
#21 =( NAMED_UNIT ( * ) PLANE_ANGLE_UNIT ( ) SI_UNIT ( $, .RADIAN. ) );
#22 = DIRECTION ( 'NONE',  ( -1.000000000000000000, -3.265724797726275178E-17, 0.000000000000000000 ) ) ;
#23 = AXIS2_PLACEMENT_3D ( 'NONE', #63, #157, #228 ) ;
#24 = MECHANICAL_DESIGN_GEOMETRIC_PRESENTATION_REPRESENTATION (  '', ( #110 ), #199 ) ;
#25 = FILL_AREA_STYLE_COLOUR ( '', #96 ) ;
#26 = SURFACE_STYLE_FILL_AREA ( #31 ) ;
#27 = ORIENTED_EDGE ( 'NONE', *, *, #262, .F. ) ;
#28 = FILL_AREA_STYLE_COLOUR ( '', #5 ) ;
#29 = CARTESIAN_POINT ( 'NONE',  ( 0.000000000000000000, 2.125000000000000000, -0.3125000000000000000 ) ) ;
#30 = EDGE_CURVE ( 'NONE', #99, #213, #168, .T. ) ;
#31 = FILL_AREA_STYLE ('',( #28 ) ) ;
#32 = UNCERTAINTY_MEASURE_WITH_UNIT (LENGTH_MEASURE( 1.000000000000000082E-05 ), #173, 'distance_accuracy_value', 'NONE');
#33 =( NAMED_UNIT ( * ) PLANE_ANGLE_UNIT ( ) SI_UNIT ( $, .RADIAN. ) );
#34 = LENGTH_MEASURE_WITH_UNIT ( LENGTH_MEASURE( 0.02539999999999999897 ), #3 );
#35 = DIRECTION ( 'NONE',  ( -3.265724797726275178E-17, 1.000000000000000000, -0.000000000000000000 ) ) ;
#36 = PRESENTATION_STYLE_ASSIGNMENT (( #125 ) ) ;
#37 = COLOUR_RGB ( '',1.000000000000000000, 0.000000000000000000, 0.000000000000000000 ) ;
#38 = STYLED_ITEM ( 'NONE', ( #275 ), #136 ) ;
#39 =( CONVERSION_BASED_UNIT ( 'INCH', #257 ) LENGTH_UNIT ( ) NAMED_UNIT ( #17 ) );
#40 = DIMENSIONAL_EXPONENTS ( 1.000000000000000000, 0.000000000000000000, 0.000000000000000000, 0.000000000000000000, 0.000000000000000000, 0.000000000000000000, 0.000000000000000000 ) ;
#41 = ORIENTED_EDGE ( 'NONE', *, *, #12, .F. ) ;
#42 = AXIS2_PLACEMENT_3D ( 'NONE', #150, #35, #130 ) ;
#43 = SURFACE_SIDE_STYLE ('',( #19 ) ) ;
#44 = ORIENTED_EDGE ( 'NONE', *, *, #153, .F. ) ;
#45 = ADVANCED_FACE ( 'NONE', ( #69 ), #6, .F. ) ;
#46 = ORIENTED_EDGE ( 'NONE', *, *, #242, .F. ) ;
#47 = DIRECTION ( 'NONE',  ( -3.265724797726275178E-17, 1.000000000000000000, -0.000000000000000000 ) ) ;
#48 = ORIENTED_EDGE ( 'NONE', *, *, #12, .T. ) ;
#49 = LENGTH_MEASURE_WITH_UNIT ( LENGTH_MEASURE( 0.02539999999999999897 ), #51 );
#50 = ADVANCED_FACE ( 'NONE', ( #74 ), #101, .F. ) ;
#51 =( LENGTH_UNIT ( ) NAMED_UNIT ( * ) SI_UNIT ( $, .METRE. ) );
#52 =( NAMED_UNIT ( * ) SI_UNIT ( $, .STERADIAN. ) SOLID_ANGLE_UNIT ( ) );
#53 = FACE_OUTER_BOUND ( 'NONE', #137, .T. ) ;
#54 = CYLINDRICAL_SURFACE ( 'NONE', #135, 0.3125000000000000000 ) ;
#55 = LENGTH_MEASURE_WITH_UNIT ( LENGTH_MEASURE( 0.02539999999999999897 ), #253 );
#56 = PRESENTATION_LAYER_ASSIGNMENT (  '', '', ( #57 ) ) ;
#57 = STYLED_ITEM ( 'NONE', ( #121 ), #61 ) ;
#58 = ADVANCED_BREP_SHAPE_REPRESENTATION ( '01585', ( #184, #294, #141 ), #258 ) ;
#59 = DIRECTION ( 'NONE',  ( -0.000000000000000000, -1.000000000000000000, -0.000000000000000000 ) ) ;
#60 = APPLICATION_CONTEXT ( 'automotive_design' ) ;
#61 = ADVANCED_FACE ( 'NONE', ( #293 ), #120, .T. ) ;
#62 = COLOUR_RGB ( '',1.000000000000000000, 0.000000000000000000, 0.000000000000000000 ) ;
#63 = CARTESIAN_POINT ( 'NONE',  ( 0.000000000000000000, 2.125000000000000000, 0.000000000000000000 ) ) ;
#64 = ORIENTED_EDGE ( 'NONE', *, *, #177, .T. ) ;
#65 = ORIENTED_EDGE ( 'NONE', *, *, #30, .F. ) ;
#66 = UNCERTAINTY_MEASURE_WITH_UNIT (LENGTH_MEASURE( 1.000000000000000082E-05 ), #183, 'distance_accuracy_value', 'NONE');
#67 = VERTEX_POINT ( 'NONE', #217 ) ;
#68 = CARTESIAN_POINT ( 'NONE',  ( 0.000000000000000000, 2.125000000000000000, 0.000000000000000000 ) ) ;
#69 = FACE_OUTER_BOUND ( 'NONE', #309, .T. ) ;
#70 = AXIS2_PLACEMENT_3D ( 'NONE', #166, #188, #193 ) ;
#71 = CIRCLE ( 'NONE', #79, 0.3125000000000000000 ) ;
#72 = ORIENTED_EDGE ( 'NONE', *, *, #115, .F. ) ;
#73 = COLOUR_RGB ( '',1.000000000000000000, 0.000000000000000000, 0.000000000000000000 ) ;
#74 = FACE_OUTER_BOUND ( 'NONE', #239, .T. ) ;
#75 = EDGE_LOOP ( 'NONE', ( #46, #259 ) ) ;
#76 = SURFACE_SIDE_STYLE ('',( #211 ) ) ;
#77 = LINE ( 'NONE', #196, #80 ) ;
#78 = SURFACE_STYLE_USAGE ( .BOTH. , #142 ) ;
#79 = AXIS2_PLACEMENT_3D ( 'NONE', #272, #147, #215 ) ;
#80 = VECTOR ( 'NONE', #129, 39.37007874015748143 ) ;
#81 = LINE ( 'NONE', #11, #127 ) ;
#82 = FACE_OUTER_BOUND ( 'NONE', #162, .T. ) ;
#83 = DIMENSIONAL_EXPONENTS ( 1.000000000000000000, 0.000000000000000000, 0.000000000000000000, 0.000000000000000000, 0.000000000000000000, 0.000000000000000000, 0.000000000000000000 ) ;
#84 = SURFACE_STYLE_FILL_AREA ( #301 ) ;
#85 = DIMENSIONAL_EXPONENTS ( 1.000000000000000000, 0.000000000000000000, 0.000000000000000000, 0.000000000000000000, 0.000000000000000000, 0.000000000000000000, 0.000000000000000000 ) ;
#86 = AXIS2_PLACEMENT_3D ( 'NONE', #251, #202, #181 ) ;
#87 = SURFACE_STYLE_USAGE ( .BOTH. , #285 ) ;
#88 = DIRECTION ( 'NONE',  ( -0.000000000000000000, -1.000000000000000000, -0.000000000000000000 ) ) ;
#89 = AXIS2_PLACEMENT_3D ( 'NONE', #109, #119, #164 ) ;
#90 = VERTEX_POINT ( 'NONE', #29 ) ;
#91 = DIRECTION ( 'NONE',  ( 3.265724797726275178E-17, -1.000000000000000000, 0.000000000000000000 ) ) ;
#92 = ORIENTED_EDGE ( 'NONE', *, *, #115, .T. ) ;
#93 = DIRECTION ( 'NONE',  ( -0.000000000000000000, -1.000000000000000000, -0.000000000000000000 ) ) ;
#94 = ORIENTED_EDGE ( 'NONE', *, *, #262, .T. ) ;
#95 = CARTESIAN_POINT ( 'NONE',  ( 0.000000000000000000, 0.000000000000000000, 0.000000000000000000 ) ) ;
#96 = COLOUR_RGB ( '',1.000000000000000000, 0.000000000000000000, 0.000000000000000000 ) ;
#97 = AXIS2_PLACEMENT_3D ( 'NONE', #265, #244, #268 ) ;
#98 = LENGTH_MEASURE_WITH_UNIT ( LENGTH_MEASURE( 0.02539999999999999897 ), #145 );
#99 = VERTEX_POINT ( 'NONE', #169 ) ;
#100 = MECHANICAL_DESIGN_GEOMETRIC_PRESENTATION_REPRESENTATION (  '', ( #38 ), #276 ) ;
#101 = PLANE ( 'NONE',  #154 ) ;
#102 = PRODUCT_DEFINITION_FORMATION_WITH_SPECIFIED_SOURCE ( 'ANY', '', #172, .NOT_KNOWN. ) ;
#103 = DIMENSIONAL_EXPONENTS ( 1.000000000000000000, 0.000000000000000000, 0.000000000000000000, 0.000000000000000000, 0.000000000000000000, 0.000000000000000000, 0.000000000000000000 ) ;
#104 = MECHANICAL_DESIGN_GEOMETRIC_PRESENTATION_REPRESENTATION (  '', ( #286 ), #160 ) ;
#105 = CLOSED_SHELL ( 'NONE', ( #61, #216, #136, #207 ) ) ;
#106 = LENGTH_MEASURE_WITH_UNIT ( LENGTH_MEASURE( 0.02539999999999999897 ), #230 );
#107 = PRODUCT_DEFINITION_CONTEXT ( 'detailed design', #60, 'design' ) ;
#108 = VECTOR ( 'NONE', #165, 39.37007874015748143 ) ;
#109 = CARTESIAN_POINT ( 'NONE',  ( 0.000000000000000000, 2.125000000000000000, 0.000000000000000000 ) ) ;
#110 = STYLED_ITEM ( 'NONE', ( #36 ), #184 ) ;
#111 =( NAMED_UNIT ( * ) SI_UNIT ( $, .STERADIAN. ) SOLID_ANGLE_UNIT ( ) );
#112 = ORIENTED_EDGE ( 'NONE', *, *, #30, .T. ) ;
#113 = EDGE_CURVE ( 'NONE', #270, #90, #126, .T. ) ;
#114 = MECHANICAL_DESIGN_GEOMETRIC_PRESENTATION_REPRESENTATION (  '', ( #290 ), #197 ) ;
#115 = EDGE_CURVE ( 'NONE', #67, #261, #4, .T. ) ;
#116 = PRESENTATION_STYLE_ASSIGNMENT (( #78 ) ) ;
#117 = ORIENTED_EDGE ( 'NONE', *, *, #194, .F. ) ;
#118 = FILL_AREA_STYLE ('',( #25 ) ) ;
#119 = DIRECTION ( 'NONE',  ( -0.000000000000000000, -1.000000000000000000, -0.000000000000000000 ) ) ;
#120 = CYLINDRICAL_SURFACE ( 'NONE', #220, 0.3125000000000000000 ) ;
#121 = PRESENTATION_STYLE_ASSIGNMENT (( #171 ) ) ;
#122 = CARTESIAN_POINT ( 'NONE',  ( 3.827021247335478926E-17, 2.125000000000000000, 0.3125000000000000000 ) ) ;
#123 = DIRECTION ( 'NONE',  ( 0.000000000000000000, 0.000000000000000000, -1.000000000000000000 ) ) ;
#124 = DIRECTION ( 'NONE',  ( -3.265724797726275178E-17, 1.000000000000000000, -0.000000000000000000 ) ) ;
#125 = SURFACE_STYLE_USAGE ( .BOTH. , #174 ) ;
#126 = CIRCLE ( 'NONE', #134, 0.3125000000000000000 ) ;
#127 = VECTOR ( 'NONE', #305, 39.37007874015748143 ) ;
#128 = DIRECTION ( 'NONE',  ( -3.265724797726275178E-17, 1.000000000000000000, -0.000000000000000000 ) ) ;
#129 = DIRECTION ( 'NONE',  ( -0.000000000000000000, -1.000000000000000000, -0.000000000000000000 ) ) ;
#130 = DIRECTION ( 'NONE',  ( -1.000000000000000000, 0.000000000000000000, 0.000000000000000000 ) ) ;
#131 = ADVANCED_FACE ( 'NONE', ( #140 ), #266, .T. ) ;
#132 = PLANE ( 'NONE',  #23 ) ;
#133 = SURFACE_STYLE_USAGE ( .BOTH. , #43 ) ;
#134 = AXIS2_PLACEMENT_3D ( 'NONE', #68, #93, #189 ) ;
#135 = AXIS2_PLACEMENT_3D ( 'NONE', #13, #59, #123 ) ;
#136 = ADVANCED_FACE ( 'NONE', ( #82 ), #54, .T. ) ;
#137 = EDGE_LOOP ( 'NONE', ( #64, #263, #41, #284 ) ) ;
#138 = UNCERTAINTY_MEASURE_WITH_UNIT (LENGTH_MEASURE( 1.000000000000000082E-05 ), #39, 'distance_accuracy_value', 'NONE');
#139 = ORIENTED_EDGE ( 'NONE', *, *, #177, .F. ) ;
#140 = FACE_OUTER_BOUND ( 'NONE', #2, .T. ) ;
#141 = AXIS2_PLACEMENT_3D ( 'NONE', #252, #249, #246 ) ;
#142 = SURFACE_SIDE_STYLE ('',( #26 ) ) ;
#143 = UNCERTAINTY_MEASURE_WITH_UNIT (LENGTH_MEASURE( 1.000000000000000082E-05 ), #208, 'distance_accuracy_value', 'NONE');
#144 = CARTESIAN_POINT ( 'NONE',  ( 0.3125000000000000000, 4.000000000000000000, 0.000000000000000000 ) ) ;
#145 =( LENGTH_UNIT ( ) NAMED_UNIT ( * ) SI_UNIT ( $, .METRE. ) );
#146 = ORIENTED_EDGE ( 'NONE', *, *, #282, .T. ) ;
#147 = DIRECTION ( 'NONE',  ( -0.000000000000000000, -1.000000000000000000, -0.000000000000000000 ) ) ;
#148 = CARTESIAN_POINT ( 'NONE',  ( 0.000000000000000000, 0.000000000000000000, -0.3125000000000000000 ) ) ;
#149 = CYLINDRICAL_SURFACE ( 'NONE', #97, 0.3125000000000000000 ) ;
#150 = CARTESIAN_POINT ( 'NONE',  ( -6.123233995736766036E-17, 4.000000000000000000, 0.000000000000000000 ) ) ;
#151 = SHAPE_DEFINITION_REPRESENTATION ( #200, #58 ) ;
#152 = FILL_AREA_STYLE_COLOUR ( '', #180 ) ;
#153 = EDGE_CURVE ( 'NONE', #209, #170, #7, .T. ) ;
#154 = AXIS2_PLACEMENT_3D ( 'NONE', #271, #241, #22 ) ;
#155 = EDGE_CURVE ( 'NONE', #270, #99, #77, .T. ) ;
#156 = PRESENTATION_LAYER_ASSIGNMENT (  '', '', ( #110 ) ) ;
#157 = DIRECTION ( 'NONE',  ( 0.000000000000000000, 1.000000000000000000, 0.000000000000000000 ) ) ;
#158 = DIMENSIONAL_EXPONENTS ( 1.000000000000000000, 0.000000000000000000, 0.000000000000000000, 0.000000000000000000, 0.000000000000000000, 0.000000000000000000, 0.000000000000000000 ) ;
#159 = FILL_AREA_STYLE_COLOUR ( '', #37 ) ;
#160 =( GEOMETRIC_REPRESENTATION_CONTEXT ( 3 ) GLOBAL_UNCERTAINTY_ASSIGNED_CONTEXT ( ( #66 ) ) GLOBAL_UNIT_ASSIGNED_CONTEXT ( ( #183, #279, #255 ) ) REPRESENTATION_CONTEXT ( 'NONE', 'WORKASPACE' ) );
#161 = DIRECTION ( 'NONE',  ( 0.000000000000000000, 0.000000000000000000, -1.000000000000000000 ) ) ;
#162 = EDGE_LOOP ( 'NONE', ( #292, #218, #146, #65 ) ) ;
#163 = CARTESIAN_POINT ( 'NONE',  ( 0.000000000000000000, 2.125000000000000000, 0.000000000000000000 ) ) ;
#164 = DIRECTION ( 'NONE',  ( 0.000000000000000000, 0.000000000000000000, -1.000000000000000000 ) ) ;
#165 = DIRECTION ( 'NONE',  ( -0.000000000000000000, -1.000000000000000000, -0.000000000000000000 ) ) ;
#166 = CARTESIAN_POINT ( 'NONE',  ( 0.000000000000000000, 0.000000000000000000, 0.000000000000000000 ) ) ;
#167 = AXIS2_PLACEMENT_3D ( 'NONE', #235, #288, #240 ) ;
#168 = CIRCLE ( 'NONE', #70, 0.3125000000000000000 ) ;
#169 = CARTESIAN_POINT ( 'NONE',  ( 3.827021247335478926E-17, 0.000000000000000000, 0.3125000000000000000 ) ) ;
#170 = VERTEX_POINT ( 'NONE', #296 ) ;
#171 = SURFACE_STYLE_USAGE ( .BOTH. , #76 ) ;
#172 = PRODUCT ( '01585', '01585', '', ( #278 ) ) ;
#173 =( CONVERSION_BASED_UNIT ( 'INCH', #34 ) LENGTH_UNIT ( ) NAMED_UNIT ( #40 ) );
#174 = SURFACE_SIDE_STYLE ('',( #84 ) ) ;
#175 = CARTESIAN_POINT ( 'NONE',  ( -0.3125000000000000555, 4.000000000000000000, 0.000000000000000000 ) ) ;
#176 =( LENGTH_UNIT ( ) NAMED_UNIT ( * ) SI_UNIT ( $, .METRE. ) );
#177 = EDGE_CURVE ( 'NONE', #261, #67, #298, .T. ) ;
#178 = SURFACE_STYLE_USAGE ( .BOTH. , #245 ) ;
#179 = CIRCLE ( 'NONE', #89, 0.3125000000000000000 ) ;
#180 = COLOUR_RGB ( '',0.7921568627450980005, 0.8196078431372548767, 0.9333333333333333481 ) ;
#181 = DIRECTION ( 'NONE',  ( -1.000000000000000000, 0.000000000000000000, 0.000000000000000000 ) ) ;
#182 = CARTESIAN_POINT ( 'NONE',  ( 0.3125000000000000000, 4.000000000000000000, 3.827021247335478926E-17 ) ) ;
#183 =( CONVERSION_BASED_UNIT ( 'INCH', #106 ) LENGTH_UNIT ( ) NAMED_UNIT ( #85 ) );
#184 = MANIFOLD_SOLID_BREP ( 'Revolve - Cutting Edge', #105 ) ;
#185 = PRESENTATION_STYLE_ASSIGNMENT (( #87 ) ) ;
#186 = ORIENTED_EDGE ( 'NONE', *, *, #153, .T. ) ;
#187 =( NAMED_UNIT ( * ) PLANE_ANGLE_UNIT ( ) SI_UNIT ( $, .RADIAN. ) );
#188 = DIRECTION ( 'NONE',  ( -0.000000000000000000, -1.000000000000000000, -0.000000000000000000 ) ) ;
#189 = DIRECTION ( 'NONE',  ( 0.000000000000000000, 0.000000000000000000, -1.000000000000000000 ) ) ;
#190 = AXIS2_PLACEMENT_3D ( 'NONE', #144, #91, #237 ) ;
#191 =( CONVERSION_BASED_UNIT ( 'INCH', #98 ) LENGTH_UNIT ( ) NAMED_UNIT ( #158 ) );
#192 = ORIENTED_EDGE ( 'NONE', *, *, #242, .T. ) ;
#193 = DIRECTION ( 'NONE',  ( 0.000000000000000000, 0.000000000000000000, -1.000000000000000000 ) ) ;
#194 = EDGE_CURVE ( 'NONE', #67, #209, #81, .T. ) ;
#195 =( NAMED_UNIT ( * ) PLANE_ANGLE_UNIT ( ) SI_UNIT ( $, .RADIAN. ) );
#196 = CARTESIAN_POINT ( 'NONE',  ( 3.827021247335478926E-17, 0.000000000000000000, 0.3125000000000000000 ) ) ;
#197 =( GEOMETRIC_REPRESENTATION_CONTEXT ( 3 ) GLOBAL_UNCERTAINTY_ASSIGNED_CONTEXT ( ( #32 ) ) GLOBAL_UNIT_ASSIGNED_CONTEXT ( ( #173, #10, #212 ) ) REPRESENTATION_CONTEXT ( 'NONE', 'WORKASPACE' ) );
#198 = CLOSED_SHELL ( 'NONE', ( #295, #50, #131, #45 ) ) ;
#199 =( GEOMETRIC_REPRESENTATION_CONTEXT ( 3 ) GLOBAL_UNCERTAINTY_ASSIGNED_CONTEXT ( ( #1 ) ) GLOBAL_UNIT_ASSIGNED_CONTEXT ( ( #302, #221, #52 ) ) REPRESENTATION_CONTEXT ( 'NONE', 'WORKASPACE' ) );
#200 = PRODUCT_DEFINITION_SHAPE ( 'NONE', 'NONE',  #8 ) ;
#201 = LENGTH_MEASURE_WITH_UNIT ( LENGTH_MEASURE( 0.02539999999999999897 ), #176 );
#202 = DIRECTION ( 'NONE',  ( -3.265724797726275178E-17, 1.000000000000000000, -0.000000000000000000 ) ) ;
#203 = FACE_OUTER_BOUND ( 'NONE', #236, .T. ) ;
#204 = PRESENTATION_STYLE_ASSIGNMENT (( #133 ) ) ;
#205 = AXIS2_PLACEMENT_3D ( 'NONE', #163, #47, #269 ) ;
#206 = CARTESIAN_POINT ( 'NONE',  ( 0.000000000000000000, 0.000000000000000000, 0.000000000000000000 ) ) ;
#207 = ADVANCED_FACE ( 'NONE', ( #203 ), #306, .T. ) ;
#208 =( CONVERSION_BASED_UNIT ( 'INCH', #49 ) LENGTH_UNIT ( ) NAMED_UNIT ( #103 ) );
#209 = VERTEX_POINT ( 'NONE', #182 ) ;
#210 = APPLICATION_CONTEXT ( 'automotive_design' ) ;
#211 = SURFACE_STYLE_FILL_AREA ( #118 ) ;
#212 =( NAMED_UNIT ( * ) SI_UNIT ( $, .STERADIAN. ) SOLID_ANGLE_UNIT ( ) );
#213 = VERTEX_POINT ( 'NONE', #226 ) ;
#214 =( NAMED_UNIT ( * ) SI_UNIT ( $, .STERADIAN. ) SOLID_ANGLE_UNIT ( ) );
#215 = DIRECTION ( 'NONE',  ( 0.000000000000000000, 0.000000000000000000, -1.000000000000000000 ) ) ;
#216 = ADVANCED_FACE ( 'NONE', ( #260 ), #132, .T. ) ;
#217 = CARTESIAN_POINT ( 'NONE',  ( 0.3125000000000000000, 2.125000000000000000, 3.827021247335478926E-17 ) ) ;
#218 = ORIENTED_EDGE ( 'NONE', *, *, #113, .T. ) ;
#219 = DIRECTION ( 'NONE',  ( -1.000000000000000000, 0.000000000000000000, 0.000000000000000000 ) ) ;
#220 = AXIS2_PLACEMENT_3D ( 'NONE', #95, #88, #289 ) ;
#221 =( NAMED_UNIT ( * ) PLANE_ANGLE_UNIT ( ) SI_UNIT ( $, .RADIAN. ) );
#222 = DIMENSIONAL_EXPONENTS ( 1.000000000000000000, 0.000000000000000000, 0.000000000000000000, 0.000000000000000000, 0.000000000000000000, 0.000000000000000000, 0.000000000000000000 ) ;
#223 =( NAMED_UNIT ( * ) SI_UNIT ( $, .STERADIAN. ) SOLID_ANGLE_UNIT ( ) );
#224 = DIRECTION ( 'NONE',  ( 0.000000000000000000, -1.000000000000000000, -0.000000000000000000 ) ) ;
#225 = APPLICATION_PROTOCOL_DEFINITION ( 'draft international standard', 'automotive_design', 1998, #60 ) ;
#226 = CARTESIAN_POINT ( 'NONE',  ( 0.000000000000000000, 0.000000000000000000, -0.3125000000000000000 ) ) ;
#227 = UNCERTAINTY_MEASURE_WITH_UNIT (LENGTH_MEASURE( 1.000000000000000082E-05 ), #191, 'distance_accuracy_value', 'NONE');
#228 = DIRECTION ( 'NONE',  ( 0.000000000000000000, -0.000000000000000000, 1.000000000000000000 ) ) ;
#229 =( GEOMETRIC_REPRESENTATION_CONTEXT ( 3 ) GLOBAL_UNCERTAINTY_ASSIGNED_CONTEXT ( ( #143 ) ) GLOBAL_UNIT_ASSIGNED_CONTEXT ( ( #208, #187, #214 ) ) REPRESENTATION_CONTEXT ( 'NONE', 'WORKASPACE' ) );
#230 =( LENGTH_UNIT ( ) NAMED_UNIT ( * ) SI_UNIT ( $, .METRE. ) );
#231 = ORIENTED_EDGE ( 'NONE', *, *, #273, .T. ) ;
#232 = FILL_AREA_STYLE_COLOUR ( '', #62 ) ;
#233 = PRODUCT_RELATED_PRODUCT_CATEGORY ( 'part', '', ( #172 ) ) ;
#234 = ORIENTED_EDGE ( 'NONE', *, *, #282, .F. ) ;
#235 = CARTESIAN_POINT ( 'NONE',  ( -6.123233995736766036E-17, 4.000000000000000000, 0.000000000000000000 ) ) ;
#236 = EDGE_LOOP ( 'NONE', ( #94, #112 ) ) ;
#237 = DIRECTION ( 'NONE',  ( 1.000000000000000000, 3.265724797726275178E-17, 0.000000000000000000 ) ) ;
#238 = STYLED_ITEM ( 'NONE', ( #204 ), #207 ) ;
#239 = EDGE_LOOP ( 'NONE', ( #139, #72 ) ) ;
#240 = DIRECTION ( 'NONE',  ( -1.000000000000000000, 0.000000000000000000, 0.000000000000000000 ) ) ;
#241 = DIRECTION ( 'NONE',  ( -3.265724797726275178E-17, 1.000000000000000000, 0.000000000000000000 ) ) ;
#242 = EDGE_CURVE ( 'NONE', #90, #270, #179, .T. ) ;
#243 =( NAMED_UNIT ( * ) SI_UNIT ( $, .STERADIAN. ) SOLID_ANGLE_UNIT ( ) );
#244 = DIRECTION ( 'NONE',  ( -3.265724797726275178E-17, 1.000000000000000000, -0.000000000000000000 ) ) ;
#245 = SURFACE_SIDE_STYLE ('',( #9 ) ) ;
#246 = DIRECTION ( 'NONE',  ( 1.000000000000000000, 0.000000000000000000, 0.000000000000000000 ) ) ;
#247 =( CONVERSION_BASED_UNIT ( 'INCH', #55 ) LENGTH_UNIT ( ) NAMED_UNIT ( #83 ) );
#248 = VECTOR ( 'NONE', #124, 39.37007874015748143 ) ;
#249 = DIRECTION ( 'NONE',  ( 0.000000000000000000, 0.000000000000000000, 1.000000000000000000 ) ) ;
#250 = MECHANICAL_DESIGN_GEOMETRIC_PRESENTATION_REPRESENTATION (  '', ( #57 ), #229 ) ;
#251 = CARTESIAN_POINT ( 'NONE',  ( 0.000000000000000000, 2.125000000000000000, 0.000000000000000000 ) ) ;
#252 = CARTESIAN_POINT ( 'NONE',  ( 0.000000000000000000, 0.000000000000000000, 0.000000000000000000 ) ) ;
#253 =( LENGTH_UNIT ( ) NAMED_UNIT ( * ) SI_UNIT ( $, .METRE. ) );
#254 = PRESENTATION_LAYER_ASSIGNMENT (  '', '', ( #290 ) ) ;
#255 =( NAMED_UNIT ( * ) SI_UNIT ( $, .STERADIAN. ) SOLID_ANGLE_UNIT ( ) );
#256 = SURFACE_STYLE_FILL_AREA ( #15 ) ;
#257 = LENGTH_MEASURE_WITH_UNIT ( LENGTH_MEASURE( 0.02539999999999999897 ), #308 );
#258 =( GEOMETRIC_REPRESENTATION_CONTEXT ( 3 ) GLOBAL_UNCERTAINTY_ASSIGNED_CONTEXT ( ( #227 ) ) GLOBAL_UNIT_ASSIGNED_CONTEXT ( ( #191, #195, #223 ) ) REPRESENTATION_CONTEXT ( 'NONE', 'WORKASPACE' ) );
#259 = ORIENTED_EDGE ( 'NONE', *, *, #113, .F. ) ;
#260 = FACE_OUTER_BOUND ( 'NONE', #75, .T. ) ;
#261 = VERTEX_POINT ( 'NONE', #264 ) ;
#262 = EDGE_CURVE ( 'NONE', #213, #99, #71, .T. ) ;
#263 = ORIENTED_EDGE ( 'NONE', *, *, #194, .T. ) ;
#264 = CARTESIAN_POINT ( 'NONE',  ( -0.3125000000000000000, 2.125000000000000000, 0.000000000000000000 ) ) ;
#265 = CARTESIAN_POINT ( 'NONE',  ( -6.123233995736766036E-17, 4.000000000000000000, 0.000000000000000000 ) ) ;
#266 = CYLINDRICAL_SURFACE ( 'NONE', #307, 0.3125000000000000000 ) ;
#267 = MECHANICAL_DESIGN_GEOMETRIC_PRESENTATION_REPRESENTATION (  '', ( #238 ), #303 ) ;
#268 = DIRECTION ( 'NONE',  ( -1.000000000000000000, 0.000000000000000000, 0.000000000000000000 ) ) ;
#269 = DIRECTION ( 'NONE',  ( -1.000000000000000000, 0.000000000000000000, 0.000000000000000000 ) ) ;
#270 = VERTEX_POINT ( 'NONE', #122 ) ;
#271 = CARTESIAN_POINT ( 'NONE',  ( 1.666399758513175262E-34, 2.125000000000000000, 0.000000000000000000 ) ) ;
#272 = CARTESIAN_POINT ( 'NONE',  ( 0.000000000000000000, 0.000000000000000000, 0.000000000000000000 ) ) ;
#273 = EDGE_CURVE ( 'NONE', #261, #170, #299, .T. ) ;
#274 = FILL_AREA_STYLE ('',( #277 ) ) ;
#275 = PRESENTATION_STYLE_ASSIGNMENT (( #178 ) ) ;
#276 =( GEOMETRIC_REPRESENTATION_CONTEXT ( 3 ) GLOBAL_UNCERTAINTY_ASSIGNED_CONTEXT ( ( #291 ) ) GLOBAL_UNIT_ASSIGNED_CONTEXT ( ( #247, #33, #243 ) ) REPRESENTATION_CONTEXT ( 'NONE', 'WORKASPACE' ) );
#277 = FILL_AREA_STYLE_COLOUR ( '', #73 ) ;
#278 = PRODUCT_CONTEXT ( 'NONE', #210, 'mechanical' ) ;
#279 =( NAMED_UNIT ( * ) PLANE_ANGLE_UNIT ( ) SI_UNIT ( $, .RADIAN. ) );
#280 = PRESENTATION_LAYER_ASSIGNMENT (  '', '', ( #286 ) ) ;
#281 = PRESENTATION_LAYER_ASSIGNMENT (  '', '', ( #238 ) ) ;
#282 = EDGE_CURVE ( 'NONE', #90, #213, #297, .T. ) ;
#283 = FILL_AREA_STYLE ('',( #232 ) ) ;
#284 = ORIENTED_EDGE ( 'NONE', *, *, #273, .F. ) ;
#285 = SURFACE_SIDE_STYLE ('',( #256 ) ) ;
#286 = STYLED_ITEM ( 'NONE', ( #185 ), #216 ) ;
#287 = EDGE_LOOP ( 'NONE', ( #192, #20, #27, #234 ) ) ;
#288 = DIRECTION ( 'NONE',  ( -3.265724797726275178E-17, 1.000000000000000000, -0.000000000000000000 ) ) ;
#289 = DIRECTION ( 'NONE',  ( 0.000000000000000000, 0.000000000000000000, -1.000000000000000000 ) ) ;
#290 = STYLED_ITEM ( 'NONE', ( #116 ), #294 ) ;
#291 = UNCERTAINTY_MEASURE_WITH_UNIT (LENGTH_MEASURE( 1.000000000000000082E-05 ), #247, 'distance_accuracy_value', 'NONE');
#292 = ORIENTED_EDGE ( 'NONE', *, *, #155, .F. ) ;
#293 = FACE_OUTER_BOUND ( 'NONE', #287, .T. ) ;
#294 = MANIFOLD_SOLID_BREP ( 'Revolve - Tool Body (Straight Shanked)', #198 ) ;
#295 = ADVANCED_FACE ( 'NONE', ( #53 ), #149, .T. ) ;
#296 = CARTESIAN_POINT ( 'NONE',  ( -0.3125000000000001665, 4.000000000000000000, 0.000000000000000000 ) ) ;
#297 = LINE ( 'NONE', #148, #108 ) ;
#298 = CIRCLE ( 'NONE', #86, 0.3125000000000000000 ) ;
#299 = LINE ( 'NONE', #175, #248 ) ;
#300 = CARTESIAN_POINT ( 'NONE',  ( -6.123233995736766036E-17, 4.000000000000000000, 0.000000000000000000 ) ) ;
#301 = FILL_AREA_STYLE ('',( #152 ) ) ;
#302 =( CONVERSION_BASED_UNIT ( 'INCH', #201 ) LENGTH_UNIT ( ) NAMED_UNIT ( #222 ) );
#303 =( GEOMETRIC_REPRESENTATION_CONTEXT ( 3 ) GLOBAL_UNCERTAINTY_ASSIGNED_CONTEXT ( ( #138 ) ) GLOBAL_UNIT_ASSIGNED_CONTEXT ( ( #39, #21, #111 ) ) REPRESENTATION_CONTEXT ( 'NONE', 'WORKASPACE' ) );
#304 = CIRCLE ( 'NONE', #167, 0.3125000000000000555 ) ;
#305 = DIRECTION ( 'NONE',  ( -3.265724797726275178E-17, 1.000000000000000000, -0.000000000000000000 ) ) ;
#306 = PLANE ( 'NONE',  #16 ) ;
#307 = AXIS2_PLACEMENT_3D ( 'NONE', #300, #128, #219 ) ;
#308 =( LENGTH_UNIT ( ) NAMED_UNIT ( * ) SI_UNIT ( $, .METRE. ) );
#309 = EDGE_LOOP ( 'NONE', ( #48, #186 ) ) ;
ENDSEC;
END-ISO-10303-21;
