ISO-10303-21;
HEADER;
FILE_DESCRIPTION (( 'STEP AP214' ),
    '1' );
FILE_NAME ('06243.STEP',
    '2023-07-05T16:01:17',
    ( '' ),
    ( '' ),
    'SwSTEP 2.0',
    'SolidWorks 2023',
    '' );
FILE_SCHEMA (( 'AUTOMOTIVE_DESIGN' ));
ENDSEC;

DATA;
#1 = LINE ( 'NONE', #101, #161 ) ;
#2 = DIMENSIONAL_EXPONENTS ( 1.000000000000000000, 0.000000000000000000, 0.000000000000000000, 0.000000000000000000, 0.000000000000000000, 0.000000000000000000, 0.000000000000000000 ) ;
#3 = PRESENTATION_STYLE_ASSIGNMENT (( #203 ) ) ;
#4 = MECHANICAL_DESIGN_GEOMETRIC_PRESENTATION_REPRESENTATION (  '', ( #152 ), #27 ) ;
#5 = CARTESIAN_POINT ( 'NONE',  ( 0.000000000000000000, 0.000000000000000000, 0.000000000000000000 ) ) ;
#6 = ORIENTED_EDGE ( 'NONE', *, *, #246, .F. ) ;
#7 = COLOUR_RGB ( '',1.000000000000000000, 0.000000000000000000, 0.000000000000000000 ) ;
#8 =( GEOMETRIC_REPRESENTATION_CONTEXT ( 3 ) GLOBAL_UNCERTAINTY_ASSIGNED_CONTEXT ( ( #220 ) ) GLOBAL_UNIT_ASSIGNED_CONTEXT ( ( #164, #83, #105 ) ) REPRESENTATION_CONTEXT ( 'NONE', 'WORKASPACE' ) );
#9 =( LENGTH_UNIT ( ) NAMED_UNIT ( * ) SI_UNIT ( $, .METRE. ) );
#10 = DIRECTION ( 'NONE',  ( -1.000000000000000000, -5.646785988917090927E-17, 0.000000000000000000 ) ) ;
#11 = DIRECTION ( 'NONE',  ( 0.000000000000000000, 0.000000000000000000, 1.000000000000000000 ) ) ;
#12 = PRODUCT_CONTEXT ( 'NONE', #199, 'mechanical' ) ;
#13 = CARTESIAN_POINT ( 'NONE',  ( 1.224646799147353700E-16, 2.000000000000000000, 0.000000000000000000 ) ) ;
#14 = PRESENTATION_LAYER_ASSIGNMENT (  '', '', ( #70 ) ) ;
#15 =( NAMED_UNIT ( * ) PLANE_ANGLE_UNIT ( ) SI_UNIT ( $, .RADIAN. ) );
#16 =( NAMED_UNIT ( * ) SI_UNIT ( $, .STERADIAN. ) SOLID_ANGLE_UNIT ( ) );
#17 = PRODUCT_DEFINITION ( 'UNKNOWN', '', #46, #57 ) ;
#18 =( NAMED_UNIT ( * ) PLANE_ANGLE_UNIT ( ) SI_UNIT ( $, .RADIAN. ) );
#19 =( LENGTH_UNIT ( ) NAMED_UNIT ( * ) SI_UNIT ( $, .METRE. ) );
#20 = ADVANCED_FACE ( 'NONE', ( #113 ), #236, .T. ) ;
#21 = SURFACE_STYLE_FILL_AREA ( #40 ) ;
#22 = DIRECTION ( 'NONE',  ( -1.000000000000000000, 0.000000000000000000, 0.000000000000000000 ) ) ;
#23 =( GEOMETRIC_REPRESENTATION_CONTEXT ( 3 ) GLOBAL_UNCERTAINTY_ASSIGNED_CONTEXT ( ( #200 ) ) GLOBAL_UNIT_ASSIGNED_CONTEXT ( ( #252, #213, #16 ) ) REPRESENTATION_CONTEXT ( 'NONE', 'WORKASPACE' ) );
#24 = EDGE_CURVE ( 'NONE', #196, #176, #151, .T. ) ;
#25 = DIMENSIONAL_EXPONENTS ( 1.000000000000000000, 0.000000000000000000, 0.000000000000000000, 0.000000000000000000, 0.000000000000000000, 0.000000000000000000, 0.000000000000000000 ) ;
#26 = CARTESIAN_POINT ( 'NONE',  ( 0.000000000000000000, 0.1623797632095817789, 0.09374999999999998612 ) ) ;
#27 =( GEOMETRIC_REPRESENTATION_CONTEXT ( 3 ) GLOBAL_UNCERTAINTY_ASSIGNED_CONTEXT ( ( #261 ) ) GLOBAL_UNIT_ASSIGNED_CONTEXT ( ( #126, #174, #48 ) ) REPRESENTATION_CONTEXT ( 'NONE', 'WORKASPACE' ) );
#28 = ADVANCED_FACE ( 'NONE', ( #65 ), #158, .F. ) ;
#29 = APPLICATION_PROTOCOL_DEFINITION ( 'draft international standard', 'automotive_design', 1998, #239 ) ;
#30 = SURFACE_SIDE_STYLE ('',( #131 ) ) ;
#31 = EDGE_CURVE ( 'NONE', #114, #62, #106, .T. ) ;
#32 = CARTESIAN_POINT ( 'NONE',  ( 0.000000000000000000, 39.37007874015748143, 0.000000000000000000 ) ) ;
#33 = EDGE_LOOP ( 'NONE', ( #251, #86, #148, #129 ) ) ;
#34 = APPLICATION_PROTOCOL_DEFINITION ( 'draft international standard', 'automotive_design', 1998, #199 ) ;
#35 = ORIENTED_EDGE ( 'NONE', *, *, #198, .F. ) ;
#36 = MECHANICAL_DESIGN_GEOMETRIC_PRESENTATION_REPRESENTATION (  '', ( #223 ), #214 ) ;
#37 =( NAMED_UNIT ( * ) SI_UNIT ( $, .STERADIAN. ) SOLID_ANGLE_UNIT ( ) );
#38 = SURFACE_SIDE_STYLE ('',( #94 ) ) ;
#39 = STYLED_ITEM ( 'NONE', ( #51 ), #20 ) ;
#40 = FILL_AREA_STYLE ('',( #260 ) ) ;
#41 = CARTESIAN_POINT ( 'NONE',  ( 0.09374999999999998612, 0.1623797632095817234, 1.148106374200641860E-17 ) ) ;
#42 = FILL_AREA_STYLE_COLOUR ( '', #224 ) ;
#43 = AXIS2_PLACEMENT_3D ( 'NONE', #103, #221, #146 ) ;
#44 = LENGTH_MEASURE_WITH_UNIT ( LENGTH_MEASURE( 0.02539999999999999897 ), #127 );
#45 = CARTESIAN_POINT ( 'NONE',  ( 1.224646799147353700E-16, 2.000000000000000000, 0.000000000000000000 ) ) ;
#46 = PRODUCT_DEFINITION_FORMATION_WITH_SPECIFIED_SOURCE ( 'ANY', '', #227, .NOT_KNOWN. ) ;
#47 = EDGE_CURVE ( 'NONE', #256, #175, #181, .T. ) ;
#48 =( NAMED_UNIT ( * ) SI_UNIT ( $, .STERADIAN. ) SOLID_ANGLE_UNIT ( ) );
#49 =( LENGTH_UNIT ( ) NAMED_UNIT ( * ) SI_UNIT ( $, .METRE. ) );
#50 = ORIENTED_EDGE ( 'NONE', *, *, #31, .F. ) ;
#51 = PRESENTATION_STYLE_ASSIGNMENT (( #229 ) ) ;
#52 = EDGE_LOOP ( 'NONE', ( #153, #232 ) ) ;
#53 = MANIFOLD_SOLID_BREP ( 'Revolve - Cutting Edge', #100 ) ;
#54 =( NAMED_UNIT ( * ) PLANE_ANGLE_UNIT ( ) SI_UNIT ( $, .RADIAN. ) );
#55 = CARTESIAN_POINT ( 'NONE',  ( 0.09374999999999998612, 2.000000000000000000, 0.000000000000000000 ) ) ;
#56 =( CONVERSION_BASED_UNIT ( 'INCH', #178 ) LENGTH_UNIT ( ) NAMED_UNIT ( #265 ) );
#57 = PRODUCT_DEFINITION_CONTEXT ( 'detailed design', #239, 'design' ) ;
#58 = CARTESIAN_POINT ( 'NONE',  ( 0.000000000000000000, 0.1623797632095817789, 0.000000000000000000 ) ) ;
#59 = DIRECTION ( 'NONE',  ( 6.123233995736778362E-17, 0.8660254037844380415, -0.5000000000000009992 ) ) ;
#60 = PRESENTATION_STYLE_ASSIGNMENT (( #248 ) ) ;
#61 = COLOUR_RGB ( '',1.000000000000000000, 0.000000000000000000, 0.000000000000000000 ) ;
#62 = VERTEX_POINT ( 'NONE', #155 ) ;
#63 = ADVANCED_FACE ( 'NONE', ( #74 ), #123, .T. ) ;
#64 = DIRECTION ( 'NONE',  ( 1.000000000000000000, 0.000000000000000000, 0.000000000000000000 ) ) ;
#65 = FACE_OUTER_BOUND ( 'NONE', #52, .T. ) ;
#66 = AXIS2_PLACEMENT_3D ( 'NONE', #192, #109, #10 ) ;
#67 = EDGE_LOOP ( 'NONE', ( #235, #92, #194 ) ) ;
#68 = ORIENTED_EDGE ( 'NONE', *, *, #167, .F. ) ;
#69 =( CONVERSION_BASED_UNIT ( 'INCH', #137 ) LENGTH_UNIT ( ) NAMED_UNIT ( #2 ) );
#70 = STYLED_ITEM ( 'NONE', ( #242 ), #53 ) ;
#71 = SURFACE_STYLE_FILL_AREA ( #177 ) ;
#72 = ADVANCED_FACE ( 'NONE', ( #140 ), #219, .T. ) ;
#73 = UNCERTAINTY_MEASURE_WITH_UNIT (LENGTH_MEASURE( 1.000000000000000082E-05 ), #195, 'distance_accuracy_value', 'NONE');
#74 = FACE_OUTER_BOUND ( 'NONE', #67, .T. ) ;
#75 = PRESENTATION_LAYER_ASSIGNMENT (  '', '', ( #223 ) ) ;
#76 = DIRECTION ( 'NONE',  ( 1.000000000000000000, 5.646785988917090927E-17, 0.000000000000000000 ) ) ;
#77 = LENGTH_MEASURE_WITH_UNIT ( LENGTH_MEASURE( 0.02539999999999999897 ), #222 );
#78 = CARTESIAN_POINT ( 'NONE',  ( 1.224646799147353700E-16, 2.000000000000000000, 0.000000000000000000 ) ) ;
#79 = DIMENSIONAL_EXPONENTS ( 1.000000000000000000, 0.000000000000000000, 0.000000000000000000, 0.000000000000000000, 0.000000000000000000, 0.000000000000000000, 0.000000000000000000 ) ;
#80 = DIRECTION ( 'NONE',  ( -5.646785988917090927E-17, 1.000000000000000000, -0.000000000000000000 ) ) ;
#81 = VECTOR ( 'NONE', #59, 39.37007874015748143 ) ;
#82 = FACE_OUTER_BOUND ( 'NONE', #190, .T. ) ;
#83 =( NAMED_UNIT ( * ) PLANE_ANGLE_UNIT ( ) SI_UNIT ( $, .RADIAN. ) );
#84 = DIRECTION ( 'NONE',  ( -1.000000000000000000, 0.000000000000000000, 0.000000000000000000 ) ) ;
#85 = AXIS2_PLACEMENT_3D ( 'NONE', #119, #217, #93 ) ;
#86 = ORIENTED_EDGE ( 'NONE', *, *, #198, .T. ) ;
#87 = ADVANCED_BREP_SHAPE_REPRESENTATION ( '06243', ( #53, #230, #250 ), #91 ) ;
#88 = EDGE_LOOP ( 'NONE', ( #234, #110, #257 ) ) ;
#89 = VERTEX_POINT ( 'NONE', #204 ) ;
#90 = MECHANICAL_DESIGN_GEOMETRIC_PRESENTATION_REPRESENTATION (  '', ( #70 ), #160 ) ;
#91 =( GEOMETRIC_REPRESENTATION_CONTEXT ( 3 ) GLOBAL_UNCERTAINTY_ASSIGNED_CONTEXT ( ( #73 ) ) GLOBAL_UNIT_ASSIGNED_CONTEXT ( ( #195, #15, #172 ) ) REPRESENTATION_CONTEXT ( 'NONE', 'WORKASPACE' ) );
#92 = ORIENTED_EDGE ( 'NONE', *, *, #237, .T. ) ;
#93 = DIRECTION ( 'NONE',  ( 0.000000000000000000, 0.000000000000000000, -1.000000000000000000 ) ) ;
#94 = SURFACE_STYLE_FILL_AREA ( #120 ) ;
#95 = EDGE_CURVE ( 'NONE', #89, #62, #188, .T. ) ;
#96 = SURFACE_SIDE_STYLE ('',( #71 ) ) ;
#97 = CARTESIAN_POINT ( 'NONE',  ( 2.262311619753217762E-16, 0.1623797632095817234, 0.000000000000000000 ) ) ;
#98 = UNCERTAINTY_MEASURE_WITH_UNIT (LENGTH_MEASURE( 1.000000000000000082E-05 ), #69, 'distance_accuracy_value', 'NONE');
#99 = DIRECTION ( 'NONE',  ( -1.000000000000000000, 0.000000000000000000, 0.000000000000000000 ) ) ;
#100 = CLOSED_SHELL ( 'NONE', ( #20, #72, #63 ) ) ;
#101 = CARTESIAN_POINT ( 'NONE',  ( 0.09374999999999994449, 2.000000000000000000, 1.148106374200641398E-17 ) ) ;
#102 = AXIS2_PLACEMENT_3D ( 'NONE', #58, #225, #247 ) ;
#103 = CARTESIAN_POINT ( 'NONE',  ( 0.000000000000000000, 0.1623797632095817789, 0.000000000000000000 ) ) ;
#104 = CYLINDRICAL_SURFACE ( 'NONE', #205, 0.09374999999999981959 ) ;
#105 =( NAMED_UNIT ( * ) SI_UNIT ( $, .STERADIAN. ) SOLID_ANGLE_UNIT ( ) );
#106 = CIRCLE ( 'NONE', #85, 0.09374999999999998612 ) ;
#107 = AXIS2_PLACEMENT_3D ( 'NONE', #210, #208, #84 ) ;
#108 = DIRECTION ( 'NONE',  ( -5.646785988917090927E-17, 1.000000000000000000, -0.000000000000000000 ) ) ;
#109 = DIRECTION ( 'NONE',  ( -5.646785988917090927E-17, 1.000000000000000000, 0.000000000000000000 ) ) ;
#110 = ORIENTED_EDGE ( 'NONE', *, *, #95, .T. ) ;
#111 = EDGE_LOOP ( 'NONE', ( #50, #133 ) ) ;
#112 = AXIS2_PLACEMENT_3D ( 'NONE', #243, #165, #182 ) ;
#113 = FACE_OUTER_BOUND ( 'NONE', #88, .T. ) ;
#114 = VERTEX_POINT ( 'NONE', #26 ) ;
#115 = LINE ( 'NONE', #132, #241 ) ;
#116 = FILL_AREA_STYLE_COLOUR ( '', #169 ) ;
#117 = PRESENTATION_STYLE_ASSIGNMENT (( #263 ) ) ;
#118 = PRESENTATION_LAYER_ASSIGNMENT (  '', '', ( #152 ) ) ;
#119 = CARTESIAN_POINT ( 'NONE',  ( 0.000000000000000000, 0.1623797632095817789, 0.000000000000000000 ) ) ;
#120 = FILL_AREA_STYLE ('',( #138 ) ) ;
#121 = PRODUCT_RELATED_PRODUCT_CATEGORY ( 'part', '', ( #227 ) ) ;
#122 = SURFACE_SIDE_STYLE ('',( #21 ) ) ;
#123 = CONICAL_SURFACE ( 'NONE', #202, 22.73032555864674364, 0.5235987755983000369 ) ;
#124 = DIRECTION ( 'NONE',  ( -1.000000000000000000, 0.000000000000000000, 0.000000000000000000 ) ) ;
#125 = ADVANCED_FACE ( 'NONE', ( #249 ), #104, .T. ) ;
#126 =( CONVERSION_BASED_UNIT ( 'INCH', #44 ) LENGTH_UNIT ( ) NAMED_UNIT ( #79 ) );
#127 =( LENGTH_UNIT ( ) NAMED_UNIT ( * ) SI_UNIT ( $, .METRE. ) );
#128 = CIRCLE ( 'NONE', #43, 0.09374999999999998612 ) ;
#129 = ORIENTED_EDGE ( 'NONE', *, *, #259, .F. ) ;
#130 = DIRECTION ( 'NONE',  ( -5.646785988917090927E-17, 1.000000000000000000, -0.000000000000000000 ) ) ;
#131 = SURFACE_STYLE_FILL_AREA ( #170 ) ;
#132 = CARTESIAN_POINT ( 'NONE',  ( 0.000000000000000000, 0.000000000000000000, 0.000000000000000000 ) ) ;
#133 = ORIENTED_EDGE ( 'NONE', *, *, #141, .F. ) ;
#134 = PRODUCT_DEFINITION_SHAPE ( 'NONE', 'NONE',  #17 ) ;
#135 = ORIENTED_EDGE ( 'NONE', *, *, #259, .T. ) ;
#136 = AXIS2_PLACEMENT_3D ( 'NONE', #55, #258, #76 ) ;
#137 = LENGTH_MEASURE_WITH_UNIT ( LENGTH_MEASURE( 0.02539999999999999897 ), #180 );
#138 = FILL_AREA_STYLE_COLOUR ( '', #139 ) ;
#139 = COLOUR_RGB ( '',1.000000000000000000, 0.000000000000000000, 0.000000000000000000 ) ;
#140 = FACE_OUTER_BOUND ( 'NONE', #111, .T. ) ;
#141 = EDGE_CURVE ( 'NONE', #62, #114, #128, .T. ) ;
#142 =( NAMED_UNIT ( * ) SI_UNIT ( $, .STERADIAN. ) SOLID_ANGLE_UNIT ( ) );
#143 = PLANE ( 'NONE',  #66 ) ;
#144 = DIMENSIONAL_EXPONENTS ( 1.000000000000000000, 0.000000000000000000, 0.000000000000000000, 0.000000000000000000, 0.000000000000000000, 0.000000000000000000, 0.000000000000000000 ) ;
#145 = STYLED_ITEM ( 'NONE', ( #3 ), #72 ) ;
#146 = DIRECTION ( 'NONE',  ( 0.000000000000000000, 0.000000000000000000, -1.000000000000000000 ) ) ;
#147 = DIRECTION ( 'NONE',  ( -5.646785988917090927E-17, 1.000000000000000000, -0.000000000000000000 ) ) ;
#148 = ORIENTED_EDGE ( 'NONE', *, *, #24, .F. ) ;
#149 = CARTESIAN_POINT ( 'NONE',  ( -0.09374999999999969469, 2.000000000000000000, 0.000000000000000000 ) ) ;
#150 = ORIENTED_EDGE ( 'NONE', *, *, #167, .T. ) ;
#151 = CIRCLE ( 'NONE', #185, 0.09374999999999987510 ) ;
#152 = STYLED_ITEM ( 'NONE', ( #60 ), #230 ) ;
#153 = ORIENTED_EDGE ( 'NONE', *, *, #24, .T. ) ;
#154 = ORIENTED_EDGE ( 'NONE', *, *, #47, .F. ) ;
#155 = CARTESIAN_POINT ( 'NONE',  ( 1.148106374200643401E-17, 0.1623797632095817789, -0.09374999999999998612 ) ) ;
#156 = PRESENTATION_LAYER_ASSIGNMENT (  '', '', ( #39 ) ) ;
#157 = AXIS2_PLACEMENT_3D ( 'NONE', #78, #147, #22 ) ;
#158 = PLANE ( 'NONE',  #136 ) ;
#159 = DIRECTION ( 'NONE',  ( 0.000000000000000000, 1.000000000000000000, 0.000000000000000000 ) ) ;
#160 =( GEOMETRIC_REPRESENTATION_CONTEXT ( 3 ) GLOBAL_UNCERTAINTY_ASSIGNED_CONTEXT ( ( #98 ) ) GLOBAL_UNIT_ASSIGNED_CONTEXT ( ( #69, #54, #142 ) ) REPRESENTATION_CONTEXT ( 'NONE', 'WORKASPACE' ) );
#161 = VECTOR ( 'NONE', #108, 39.37007874015748143 ) ;
#162 = DIRECTION ( 'NONE',  ( -5.646785988917090927E-17, 1.000000000000000000, -0.000000000000000000 ) ) ;
#163 = CARTESIAN_POINT ( 'NONE',  ( 0.09374999999999998612, 2.000000000000000000, 1.148106374200641860E-17 ) ) ;
#164 =( CONVERSION_BASED_UNIT ( 'INCH', #77 ) LENGTH_UNIT ( ) NAMED_UNIT ( #144 ) );
#165 = DIRECTION ( 'NONE',  ( -5.646785988917090927E-17, 1.000000000000000000, -0.000000000000000000 ) ) ;
#166 = SURFACE_SIDE_STYLE ('',( #244 ) ) ;
#167 = EDGE_CURVE ( 'NONE', #175, #256, #186, .T. ) ;
#168 = DIRECTION ( 'NONE',  ( 0.000000000000000000, 0.8660254037844380415, 0.5000000000000009992 ) ) ;
#169 = COLOUR_RGB ( '',0.7921568627450980005, 0.8196078431372548767, 0.9333333333333333481 ) ;
#170 = FILL_AREA_STYLE ('',( #207 ) ) ;
#171 = LENGTH_MEASURE_WITH_UNIT ( LENGTH_MEASURE( 0.02539999999999999897 ), #9 );
#172 =( NAMED_UNIT ( * ) SI_UNIT ( $, .STERADIAN. ) SOLID_ANGLE_UNIT ( ) );
#173 = DIRECTION ( 'NONE',  ( -5.646785988917090927E-17, 1.000000000000000000, -0.000000000000000000 ) ) ;
#174 =( NAMED_UNIT ( * ) PLANE_ANGLE_UNIT ( ) SI_UNIT ( $, .RADIAN. ) );
#175 = VERTEX_POINT ( 'NONE', #41 ) ;
#176 = VERTEX_POINT ( 'NONE', #163 ) ;
#177 = FILL_AREA_STYLE ('',( #116 ) ) ;
#178 = LENGTH_MEASURE_WITH_UNIT ( LENGTH_MEASURE( 0.02539999999999999897 ), #19 );
#179 = UNCERTAINTY_MEASURE_WITH_UNIT (LENGTH_MEASURE( 1.000000000000000082E-05 ), #56, 'distance_accuracy_value', 'NONE');
#180 =( LENGTH_UNIT ( ) NAMED_UNIT ( * ) SI_UNIT ( $, .METRE. ) );
#181 = CIRCLE ( 'NONE', #264, 0.09374999999999976408 ) ;
#182 = DIRECTION ( 'NONE',  ( -1.000000000000000000, 0.000000000000000000, 0.000000000000000000 ) ) ;
#183 = CARTESIAN_POINT ( 'NONE',  ( -0.09374999999999975020, 2.000000000000000000, 0.000000000000000000 ) ) ;
#184 = FILL_AREA_STYLE ('',( #42 ) ) ;
#185 = AXIS2_PLACEMENT_3D ( 'NONE', #13, #173, #254 ) ;
#186 = CIRCLE ( 'NONE', #112, 0.09374999999999976408 ) ;
#187 = ADVANCED_FACE ( 'NONE', ( #82 ), #201, .T. ) ;
#188 = LINE ( 'NONE', #5, #81 ) ;
#189 = CARTESIAN_POINT ( 'NONE',  ( -0.09374999999999954203, 0.1623797632095817234, 0.000000000000000000 ) ) ;
#190 = EDGE_LOOP ( 'NONE', ( #35, #150, #135, #6 ) ) ;
#191 = SHAPE_DEFINITION_REPRESENTATION ( #134, #87 ) ;
#192 = CARTESIAN_POINT ( 'NONE',  ( 2.262311619753217762E-16, 0.1623797632095817789, 0.000000000000000000 ) ) ;
#193 = DIRECTION ( 'NONE',  ( 0.000000000000000000, 1.000000000000000000, 0.000000000000000000 ) ) ;
#194 = ORIENTED_EDGE ( 'NONE', *, *, #31, .T. ) ;
#195 =( CONVERSION_BASED_UNIT ( 'INCH', #228 ) LENGTH_UNIT ( ) NAMED_UNIT ( #262 ) );
#196 = VERTEX_POINT ( 'NONE', #183 ) ;
#197 = AXIS2_PLACEMENT_3D ( 'NONE', #32, #193, #11 ) ;
#198 = EDGE_CURVE ( 'NONE', #175, #176, #1, .T. ) ;
#199 = APPLICATION_CONTEXT ( 'automotive_design' ) ;
#200 = UNCERTAINTY_MEASURE_WITH_UNIT (LENGTH_MEASURE( 1.000000000000000082E-05 ), #252, 'distance_accuracy_value', 'NONE');
#201 = CYLINDRICAL_SURFACE ( 'NONE', #157, 0.09374999999999981959 ) ;
#202 = AXIS2_PLACEMENT_3D ( 'NONE', #216, #159, #240 ) ;
#203 = SURFACE_STYLE_USAGE ( .BOTH. , #122 ) ;
#204 = CARTESIAN_POINT ( 'NONE',  ( 0.000000000000000000, 0.000000000000000000, 0.000000000000000000 ) ) ;
#205 = AXIS2_PLACEMENT_3D ( 'NONE', #45, #80, #124 ) ;
#206 = CARTESIAN_POINT ( 'NONE',  ( 0.000000000000000000, 0.000000000000000000, 0.000000000000000000 ) ) ;
#207 = FILL_AREA_STYLE_COLOUR ( '', #61 ) ;
#208 = DIRECTION ( 'NONE',  ( -5.646785988917090927E-17, 1.000000000000000000, -0.000000000000000000 ) ) ;
#209 = CLOSED_SHELL ( 'NONE', ( #125, #233, #187, #28 ) ) ;
#210 = CARTESIAN_POINT ( 'NONE',  ( 1.224646799147353700E-16, 2.000000000000000000, 0.000000000000000000 ) ) ;
#211 = EDGE_LOOP ( 'NONE', ( #154, #68 ) ) ;
#212 = FACE_OUTER_BOUND ( 'NONE', #211, .T. ) ;
#213 =( NAMED_UNIT ( * ) PLANE_ANGLE_UNIT ( ) SI_UNIT ( $, .RADIAN. ) );
#214 =( GEOMETRIC_REPRESENTATION_CONTEXT ( 3 ) GLOBAL_UNCERTAINTY_ASSIGNED_CONTEXT ( ( #179 ) ) GLOBAL_UNIT_ASSIGNED_CONTEXT ( ( #56, #18, #37 ) ) REPRESENTATION_CONTEXT ( 'NONE', 'WORKASPACE' ) );
#215 = VECTOR ( 'NONE', #130, 39.37007874015748143 ) ;
#216 = CARTESIAN_POINT ( 'NONE',  ( 0.000000000000000000, 39.37007874015748143, 0.000000000000000000 ) ) ;
#217 = DIRECTION ( 'NONE',  ( -0.000000000000000000, -1.000000000000000000, -0.000000000000000000 ) ) ;
#218 = CIRCLE ( 'NONE', #107, 0.09374999999999987510 ) ;
#219 = PLANE ( 'NONE',  #102 ) ;
#220 = UNCERTAINTY_MEASURE_WITH_UNIT (LENGTH_MEASURE( 1.000000000000000082E-05 ), #164, 'distance_accuracy_value', 'NONE');
#221 = DIRECTION ( 'NONE',  ( -0.000000000000000000, -1.000000000000000000, -0.000000000000000000 ) ) ;
#222 =( LENGTH_UNIT ( ) NAMED_UNIT ( * ) SI_UNIT ( $, .METRE. ) );
#223 = STYLED_ITEM ( 'NONE', ( #117 ), #63 ) ;
#224 = COLOUR_RGB ( '',0.7921568627450980005, 0.8196078431372548767, 0.9333333333333333481 ) ;
#225 = DIRECTION ( 'NONE',  ( 0.000000000000000000, 1.000000000000000000, 0.000000000000000000 ) ) ;
#226 = PRESENTATION_LAYER_ASSIGNMENT (  '', '', ( #145 ) ) ;
#227 = PRODUCT ( '06243', '06243', '', ( #12 ) ) ;
#228 = LENGTH_MEASURE_WITH_UNIT ( LENGTH_MEASURE( 0.02539999999999999897 ), #49 );
#229 = SURFACE_STYLE_USAGE ( .BOTH. , #30 ) ;
#230 = MANIFOLD_SOLID_BREP ( 'Revolve - Tool Body (Pointed)', #209 ) ;
#231 = DIRECTION ( 'NONE',  ( 0.000000000000000000, 0.000000000000000000, 1.000000000000000000 ) ) ;
#232 = ORIENTED_EDGE ( 'NONE', *, *, #246, .T. ) ;
#233 = ADVANCED_FACE ( 'NONE', ( #212 ), #143, .F. ) ;
#234 = ORIENTED_EDGE ( 'NONE', *, *, #237, .F. ) ;
#235 = ORIENTED_EDGE ( 'NONE', *, *, #95, .F. ) ;
#236 = CONICAL_SURFACE ( 'NONE', #197, 22.73032555864674364, 0.5235987755983000369 ) ;
#237 = EDGE_CURVE ( 'NONE', #89, #114, #115, .T. ) ;
#238 = SURFACE_STYLE_USAGE ( .BOTH. , #96 ) ;
#239 = APPLICATION_CONTEXT ( 'automotive_design' ) ;
#240 = DIRECTION ( 'NONE',  ( 0.000000000000000000, 0.000000000000000000, 1.000000000000000000 ) ) ;
#241 = VECTOR ( 'NONE', #168, 39.37007874015748143 ) ;
#242 = PRESENTATION_STYLE_ASSIGNMENT (( #238 ) ) ;
#243 = CARTESIAN_POINT ( 'NONE',  ( 2.262311619753217762E-16, 0.1623797632095817234, 0.000000000000000000 ) ) ;
#244 = SURFACE_STYLE_FILL_AREA ( #184 ) ;
#245 = MECHANICAL_DESIGN_GEOMETRIC_PRESENTATION_REPRESENTATION (  '', ( #145 ), #8 ) ;
#246 = EDGE_CURVE ( 'NONE', #176, #196, #218, .T. ) ;
#247 = DIRECTION ( 'NONE',  ( 0.000000000000000000, -0.000000000000000000, 1.000000000000000000 ) ) ;
#248 = SURFACE_STYLE_USAGE ( .BOTH. , #166 ) ;
#249 = FACE_OUTER_BOUND ( 'NONE', #33, .T. ) ;
#250 = AXIS2_PLACEMENT_3D ( 'NONE', #206, #231, #64 ) ;
#251 = ORIENTED_EDGE ( 'NONE', *, *, #47, .T. ) ;
#252 =( CONVERSION_BASED_UNIT ( 'INCH', #171 ) LENGTH_UNIT ( ) NAMED_UNIT ( #25 ) );
#253 = LINE ( 'NONE', #149, #215 ) ;
#254 = DIRECTION ( 'NONE',  ( -1.000000000000000000, 0.000000000000000000, 0.000000000000000000 ) ) ;
#255 = MECHANICAL_DESIGN_GEOMETRIC_PRESENTATION_REPRESENTATION (  '', ( #39 ), #23 ) ;
#256 = VERTEX_POINT ( 'NONE', #189 ) ;
#257 = ORIENTED_EDGE ( 'NONE', *, *, #141, .T. ) ;
#258 = DIRECTION ( 'NONE',  ( 5.646785988917090927E-17, -1.000000000000000000, 0.000000000000000000 ) ) ;
#259 = EDGE_CURVE ( 'NONE', #256, #196, #253, .T. ) ;
#260 = FILL_AREA_STYLE_COLOUR ( '', #7 ) ;
#261 = UNCERTAINTY_MEASURE_WITH_UNIT (LENGTH_MEASURE( 1.000000000000000082E-05 ), #126, 'distance_accuracy_value', 'NONE');
#262 = DIMENSIONAL_EXPONENTS ( 1.000000000000000000, 0.000000000000000000, 0.000000000000000000, 0.000000000000000000, 0.000000000000000000, 0.000000000000000000, 0.000000000000000000 ) ;
#263 = SURFACE_STYLE_USAGE ( .BOTH. , #38 ) ;
#264 = AXIS2_PLACEMENT_3D ( 'NONE', #97, #162, #99 ) ;
#265 = DIMENSIONAL_EXPONENTS ( 1.000000000000000000, 0.000000000000000000, 0.000000000000000000, 0.000000000000000000, 0.000000000000000000, 0.000000000000000000, 0.000000000000000000 ) ;
ENDSEC;
END-ISO-10303-21;
