ISO-10303-21;
HEADER;
FILE_DESCRIPTION (( 'STEP AP214' ),
    '1' );
FILE_NAME ('Micro_RMEM-025-2.STEP',
    '2021-09-02T00:24:23',
    ( '' ),
    ( '' ),
    'SwSTEP 2.0',
    'SolidWorks 2020',
    '' );
FILE_SCHEMA (( 'AUTOMOTIVE_DESIGN' ));
ENDSEC;

DATA;
#1 = EDGE_CURVE ( 'NONE', #161, #218, #15, .T. ) ;
#2 = CIRCLE ( 'NONE', #210, 0.04916328749999999276 ) ;
#3 = DIRECTION ( 'NONE',  ( -1.000000000000000000, 0.0000000000000000000, 1.224646799147353207E-16 ) ) ;
#4 = AXIS2_PLACEMENT_3D ( 'NONE', #200, #199, #228 ) ;
#5 = AXIS2_PLACEMENT_3D ( 'NONE', #48, #41, #278 ) ;
#6 = ORIENTED_EDGE ( 'NONE', *, *, #231, .F. ) ;
#7 = APPLICATION_CONTEXT ( 'automotive_design' ) ;
#8 = VERTEX_POINT ( 'NONE', #56 ) ;
#9 = DIRECTION ( 'NONE',  ( -1.224646799147353207E-16, -0.0000000000000000000, -1.000000000000000000 ) ) ;
#10 = AXIS2_PLACEMENT_3D ( 'NONE', #191, #279, #259 ) ;
#11 = UNCERTAINTY_MEASURE_WITH_UNIT (LENGTH_MEASURE( 1.000000000000000082E-05 ), #137, 'distance_accuracy_value', 'NONE');
#12 = ORIENTED_EDGE ( 'NONE', *, *, #295, .F. ) ;
#13 = ORIENTED_EDGE ( 'NONE', *, *, #282, .T. ) ;
#14 = DIRECTION ( 'NONE',  ( 1.000000000000000000, 0.0000000000000000000, 0.0000000000000000000 ) ) ;
#15 = CIRCLE ( 'NONE', #133, 0.05905500000000000332 ) ;
#16 = DIRECTION ( 'NONE',  ( 1.000000000000000000, 0.0000000000000000000, 0.0000000000000000000 ) ) ;
#17 =( NAMED_UNIT ( * ) PLANE_ANGLE_UNIT ( ) SI_UNIT ( $, .RADIAN. ) );
#18 = FACE_OUTER_BOUND ( 'NONE', #243, .T. ) ;
#19 = ORIENTED_EDGE ( 'NONE', *, *, #267, .T. ) ;
#20 = FILL_AREA_STYLE ('',( #162 ) ) ;
#21 = FACE_OUTER_BOUND ( 'NONE', #183, .T. ) ;
#22 = DIRECTION ( 'NONE',  ( -1.224646799147353207E-16, -0.0000000000000000000, -1.000000000000000000 ) ) ;
#23 = APPLICATION_PROTOCOL_DEFINITION ( 'draft international standard', 'automotive_design', 1998, #7 ) ;
#24 = CYLINDRICAL_SURFACE ( 'NONE', #286, 0.05905500000000000332 ) ;
#25 = CARTESIAN_POINT ( 'NONE',  ( 0.05905500000000000332, 7.232151672364695422E-18, 1.496062999999999921 ) ) ;
#26 =( LENGTH_UNIT ( ) NAMED_UNIT ( * ) SI_UNIT ( $, .METRE. ) );
#27 = CARTESIAN_POINT ( 'NONE',  ( 0.0000000000000000000, 0.0000000000000000000, 0.0000000000000000000 ) ) ;
#28 = DIRECTION ( 'NONE',  ( -1.224646799147353207E-16, -0.0000000000000000000, -1.000000000000000000 ) ) ;
#29 = ADVANCED_FACE ( 'NONE', ( #109 ), #104, .T. ) ;
#30 = ORIENTED_EDGE ( 'NONE', *, *, #282, .F. ) ;
#31 = STYLED_ITEM ( 'NONE', ( #168 ), #130 ) ;
#32 = VECTOR ( 'NONE', #42, 39.37007874015748143 ) ;
#33 =( GEOMETRIC_REPRESENTATION_CONTEXT ( 3 ) GLOBAL_UNCERTAINTY_ASSIGNED_CONTEXT ( ( #78 ) ) GLOBAL_UNIT_ASSIGNED_CONTEXT ( ( #225, #294, #123 ) ) REPRESENTATION_CONTEXT ( 'NONE', 'WORKASPACE' ) );
#34 = EDGE_CURVE ( 'NONE', #197, #175, #156, .T. ) ;
#35 = DIRECTION ( 'NONE',  ( -1.000000000000000000, 0.0000000000000000000, 0.0000000000000000000 ) ) ;
#36 = AXIS2_PLACEMENT_3D ( 'NONE', #57, #158, #115 ) ;
#37 = LINE ( 'NONE', #222, #266 ) ;
#38 = DIRECTION ( 'NONE',  ( -1.224646799147353207E-16, -0.0000000000000000000, -1.000000000000000000 ) ) ;
#39 = ORIENTED_EDGE ( 'NONE', *, *, #1, .F. ) ;
#40 = EDGE_CURVE ( 'NONE', #8, #218, #248, .T. ) ;
#41 = DIRECTION ( 'NONE',  ( -1.224646799147353207E-16, -0.0000000000000000000, -1.000000000000000000 ) ) ;
#42 = DIRECTION ( 'NONE',  ( 0.1736481776669313859, 0.0000000000000000000, 0.9848077530122077983 ) ) ;
#43 = ORIENTED_EDGE ( 'NONE', *, *, #188, .F. ) ;
#44 = CARTESIAN_POINT ( 'NONE',  ( 0.0000000000000000000, 0.0000000000000000000, 0.0000000000000000000 ) ) ;
#45 =( NAMED_UNIT ( * ) SI_UNIT ( $, .STERADIAN. ) SOLID_ANGLE_UNIT ( ) );
#46 = APPLICATION_PROTOCOL_DEFINITION ( 'draft international standard', 'automotive_design', 1998, #108 ) ;
#47 = CARTESIAN_POINT ( 'NONE',  ( 0.0000000000000000000, 0.0000000000000000000, 1.496062999999999921 ) ) ;
#48 = CARTESIAN_POINT ( 'NONE',  ( 3.857159805062494824E-17, 0.0000000000000000000, 0.3149609999999999910 ) ) ;
#49 = AXIS2_PLACEMENT_3D ( 'NONE', #268, #58, #14 ) ;
#50 =( CONVERSION_BASED_UNIT ( 'INCH', #189 ) LENGTH_UNIT ( ) NAMED_UNIT ( #52 ) );
#51 = DIRECTION ( 'NONE',  ( -0.0000000000000000000, -0.0000000000000000000, -1.000000000000000000 ) ) ;
#52 = DIMENSIONAL_EXPONENTS ( 1.000000000000000000, 0.0000000000000000000, 0.0000000000000000000, 0.0000000000000000000, 0.0000000000000000000, 0.0000000000000000000, 0.0000000000000000000 ) ;
#53 = VERTEX_POINT ( 'NONE', #244 ) ;
#54 = AXIS2_PLACEMENT_3D ( 'NONE', #212, #234, #119 ) ;
#55 = FACE_OUTER_BOUND ( 'NONE', #151, .T. ) ;
#56 = CARTESIAN_POINT ( 'NONE',  ( 0.04916328750000004827, 0.0000000000000000000, 0.3149609999999999910 ) ) ;
#57 = CARTESIAN_POINT ( 'NONE',  ( 0.0000000000000000000, 0.0000000000000000000, 1.496062999999999921 ) ) ;
#58 = DIRECTION ( 'NONE',  ( 0.0000000000000000000, 0.0000000000000000000, -1.000000000000000000 ) ) ;
#59 = EDGE_CURVE ( 'NONE', #160, #53, #99, .T. ) ;
#60 = ORIENTED_EDGE ( 'NONE', *, *, #188, .T. ) ;
#61 = PRODUCT ( 'Micro_RMEM-025-2', 'Micro_RMEM-025-2', '', ( #92 ) ) ;
#62 = LINE ( 'NONE', #249, #216 ) ;
#63 = VERTEX_POINT ( 'NONE', #181 ) ;
#64 = CARTESIAN_POINT ( 'NONE',  ( 0.0000000000000000000, 0.0000000000000000000, 0.0000000000000000000 ) ) ;
#65 = CARTESIAN_POINT ( 'NONE',  ( 7.373312137594241536E-34, 0.0000000000000000000, 6.020766267243607560E-18 ) ) ;
#66 = DIRECTION ( 'NONE',  ( -1.000000000000000000, 0.0000000000000000000, 1.224646799147353207E-16 ) ) ;
#67 = ORIENTED_EDGE ( 'NONE', *, *, #231, .T. ) ;
#68 = SHAPE_DEFINITION_REPRESENTATION ( #226, #224 ) ;
#69 = ADVANCED_FACE ( 'NONE', ( #86 ), #192, .T. ) ;
#70 = FACE_OUTER_BOUND ( 'NONE', #116, .T. ) ;
#71 = ADVANCED_FACE ( 'NONE', ( #18 ), #262, .T. ) ;
#72 = DIRECTION ( 'NONE',  ( 1.000000000000000000, 0.0000000000000000000, -0.0000000000000000000 ) ) ;
#73 = CARTESIAN_POINT ( 'NONE',  ( -0.04405499999999973326, 0.0000000000000000000, 1.496062999999999921 ) ) ;
#74 = ORIENTED_EDGE ( 'NONE', *, *, #295, .T. ) ;
#75 =( GEOMETRIC_REPRESENTATION_CONTEXT ( 3 ) GLOBAL_UNCERTAINTY_ASSIGNED_CONTEXT ( ( #132 ) ) GLOBAL_UNIT_ASSIGNED_CONTEXT ( ( #50, #232, #45 ) ) REPRESENTATION_CONTEXT ( 'NONE', 'WORKASPACE' ) );
#76 = CIRCLE ( 'NONE', #54, 0.05905500000000000332 ) ;
#77 = CIRCLE ( 'NONE', #96, 0.05905500000000000332 ) ;
#78 = UNCERTAINTY_MEASURE_WITH_UNIT (LENGTH_MEASURE( 1.000000000000000082E-05 ), #225, 'distance_accuracy_value', 'NONE');
#79 = ORIENTED_EDGE ( 'NONE', *, *, #98, .F. ) ;
#80 = VERTEX_POINT ( 'NONE', #246 ) ;
#81 = CIRCLE ( 'NONE', #49, 0.05905500000000000332 ) ;
#82 = DIRECTION ( 'NONE',  ( -0.1736481776669311916, 2.126576849575783316E-17, 0.9848077530122080203 ) ) ;
#83 = AXIS2_PLACEMENT_3D ( 'NONE', #276, #139, #72 ) ;
#84 = DIRECTION ( 'NONE',  ( 0.0000000000000000000, 0.0000000000000000000, 1.000000000000000000 ) ) ;
#85 = EDGE_CURVE ( 'NONE', #160, #219, #37, .T. ) ;
#86 = FACE_OUTER_BOUND ( 'NONE', #136, .T. ) ;
#87 = ORIENTED_EDGE ( 'NONE', *, *, #194, .F. ) ;
#88 = ORIENTED_EDGE ( 'NONE', *, *, #267, .F. ) ;
#89 = EDGE_CURVE ( 'NONE', #63, #219, #81, .T. ) ;
#90 = DIRECTION ( 'NONE',  ( 0.0000000000000000000, 0.0000000000000000000, 1.000000000000000000 ) ) ;
#91 = SURFACE_SIDE_STYLE ('',( #240 ) ) ;
#92 = PRODUCT_CONTEXT ( 'NONE', #7, 'mechanical' ) ;
#93 = DIRECTION ( 'NONE',  ( -1.224646799147353207E-16, -0.0000000000000000000, -1.000000000000000000 ) ) ;
#94 = EDGE_CURVE ( 'NONE', #53, #63, #110, .T. ) ;
#95 = AXIS2_PLACEMENT_3D ( 'NONE', #208, #293, #277 ) ;
#96 = AXIS2_PLACEMENT_3D ( 'NONE', #164, #207, #171 ) ;
#97 = CARTESIAN_POINT ( 'NONE',  ( -0.04916328749999996500, 6.626458969804151876E-18, 0.3149609999999999910 ) ) ;
#98 = EDGE_CURVE ( 'NONE', #197, #161, #62, .T. ) ;
#99 = CIRCLE ( 'NONE', #213, 0.04405499999999973326 ) ;
#100 = AXIS2_PLACEMENT_3D ( 'NONE', #64, #90, #16 ) ;
#101 = ORIENTED_EDGE ( 'NONE', *, *, #59, .T. ) ;
#102 = ORIENTED_EDGE ( 'NONE', *, *, #144, .T. ) ;
#103 = ORIENTED_EDGE ( 'NONE', *, *, #178, .F. ) ;
#104 = CONICAL_SURFACE ( 'NONE', #4, 0.04916328750000000664, 0.1745329251994338915 ) ;
#105 = DIRECTION ( 'NONE',  ( 1.000000000000000000, 0.0000000000000000000, 0.0000000000000000000 ) ) ;
#106 = MECHANICAL_DESIGN_GEOMETRIC_PRESENTATION_REPRESENTATION (  '', ( #177 ), #33 ) ;
#107 = ADVANCED_FACE ( 'NONE', ( #55 ), #292, .T. ) ;
#108 = APPLICATION_CONTEXT ( 'automotive_design' ) ;
#109 = FACE_OUTER_BOUND ( 'NONE', #165, .T. ) ;
#110 = LINE ( 'NONE', #184, #251 ) ;
#111 = VECTOR ( 'NONE', #38, 39.37007874015748143 ) ;
#112 = ORIENTED_EDGE ( 'NONE', *, *, #194, .T. ) ;
#113 = CARTESIAN_POINT ( 'NONE',  ( 0.05905500000000004496, 7.232151672364700045E-18, 0.3710596892661349178 ) ) ;
#114 = ADVANCED_FACE ( 'NONE', ( #117 ), #299, .T. ) ;
#115 = DIRECTION ( 'NONE',  ( -1.000000000000000000, 0.0000000000000000000, 0.0000000000000000000 ) ) ;
#116 = EDGE_LOOP ( 'NONE', ( #60, #19 ) ) ;
#117 = FACE_OUTER_BOUND ( 'NONE', #179, .T. ) ;
#118 = PLANE ( 'NONE',  #83 ) ;
#119 = DIRECTION ( 'NONE',  ( 1.000000000000000000, 0.0000000000000000000, 0.0000000000000000000 ) ) ;
#120 = SURFACE_STYLE_FILL_AREA ( #20 ) ;
#121 = DIRECTION ( 'NONE',  ( 1.000000000000000000, 0.0000000000000000000, -0.0000000000000000000 ) ) ;
#122 = DIRECTION ( 'NONE',  ( -0.0000000000000000000, -0.0000000000000000000, -1.000000000000000000 ) ) ;
#123 =( NAMED_UNIT ( * ) SI_UNIT ( $, .STERADIAN. ) SOLID_ANGLE_UNIT ( ) );
#124 = FILL_AREA_STYLE_COLOUR ( '', #209 ) ;
#125 = AXIS2_PLACEMENT_3D ( 'NONE', #44, #167, #121 ) ;
#126 = ADVANCED_FACE ( 'NONE', ( #170 ), #24, .T. ) ;
#127 = CYLINDRICAL_SURFACE ( 'NONE', #283, 0.04916328750000000664 ) ;
#128 = EDGE_LOOP ( 'NONE', ( #74, #291, #43, #271 ) ) ;
#129 = ORIENTED_EDGE ( 'NONE', *, *, #85, .T. ) ;
#130 = MANIFOLD_SOLID_BREP ( 'Cut-Revolve1', #236 ) ;
#131 = CARTESIAN_POINT ( 'NONE',  ( 0.04916328750000004827, 0.0000000000000000000, 0.3149609999999999910 ) ) ;
#132 = UNCERTAINTY_MEASURE_WITH_UNIT (LENGTH_MEASURE( 1.000000000000000082E-05 ), #50, 'distance_accuracy_value', 'NONE');
#133 = AXIS2_PLACEMENT_3D ( 'NONE', #287, #9, #134 ) ;
#134 = DIRECTION ( 'NONE',  ( 1.000000000000000000, 0.0000000000000000000, 0.0000000000000000000 ) ) ;
#135 = DIRECTION ( 'NONE',  ( 1.000000000000000000, 0.0000000000000000000, 0.0000000000000000000 ) ) ;
#136 = EDGE_LOOP ( 'NONE', ( #30, #290, #103, #273 ) ) ;
#137 =( CONVERSION_BASED_UNIT ( 'INCH', #298 ) LENGTH_UNIT ( ) NAMED_UNIT ( #150 ) );
#138 = ORIENTED_EDGE ( 'NONE', *, *, #89, .F. ) ;
#139 = DIRECTION ( 'NONE',  ( 0.0000000000000000000, 0.0000000000000000000, 1.000000000000000000 ) ) ;
#140 = CARTESIAN_POINT ( 'NONE',  ( -0.04916328749999999276, 0.0000000000000000000, 1.204153253448721512E-17 ) ) ;
#141 = ORIENTED_EDGE ( 'NONE', *, *, #34, .T. ) ;
#142 = CARTESIAN_POINT ( 'NONE',  ( -0.05905499999999996169, 0.0000000000000000000, 0.3710596892661349178 ) ) ;
#143 = SURFACE_SIDE_STYLE ('',( #120 ) ) ;
#144 = EDGE_CURVE ( 'NONE', #63, #218, #239, .T. ) ;
#145 = LENGTH_MEASURE_WITH_UNIT ( LENGTH_MEASURE( 0.02539999999999999897 ), #230 );
#146 = CIRCLE ( 'NONE', #5, 0.04916328750000000664 ) ;
#147 = DIRECTION ( 'NONE',  ( -0.0000000000000000000, -0.0000000000000000000, -1.000000000000000000 ) ) ;
#148 = ADVANCED_FACE ( 'NONE', ( #185 ), #280, .T. ) ;
#149 = CIRCLE ( 'NONE', #10, 0.04916328750000000664 ) ;
#150 = DIMENSIONAL_EXPONENTS ( 1.000000000000000000, 0.0000000000000000000, 0.0000000000000000000, 0.0000000000000000000, 0.0000000000000000000, 0.0000000000000000000, 0.0000000000000000000 ) ;
#151 = EDGE_LOOP ( 'NONE', ( #79, #87, #195, #67 ) ) ;
#152 = MECHANICAL_DESIGN_GEOMETRIC_PRESENTATION_REPRESENTATION (  '', ( #31 ), #75 ) ;
#153 = AXIS2_PLACEMENT_3D ( 'NONE', #255, #190, #296 ) ;
#154 = ORIENTED_EDGE ( 'NONE', *, *, #1, .T. ) ;
#155 = CARTESIAN_POINT ( 'NONE',  ( 3.857159805062494824E-17, 0.0000000000000000000, 0.3149609999999999910 ) ) ;
#156 = LINE ( 'NONE', #270, #111 ) ;
#157 = CIRCLE ( 'NONE', #95, 0.04916328749999999276 ) ;
#158 = DIRECTION ( 'NONE',  ( 0.0000000000000000000, 0.0000000000000000000, -1.000000000000000000 ) ) ;
#159 = PRESENTATION_LAYER_ASSIGNMENT (  '', '', ( #177 ) ) ;
#160 = VERTEX_POINT ( 'NONE', #73 ) ;
#161 = VERTEX_POINT ( 'NONE', #142 ) ;
#162 = FILL_AREA_STYLE_COLOUR ( '', #237 ) ;
#163 = ORIENTED_EDGE ( 'NONE', *, *, #40, .F. ) ;
#164 = CARTESIAN_POINT ( 'NONE',  ( 4.544170607523835535E-17, 0.0000000000000000000, 0.3710596892661349178 ) ) ;
#165 = EDGE_LOOP ( 'NONE', ( #12, #250, #154, #163 ) ) ;
#166 = VECTOR ( 'NONE', #93, 39.37007874015748143 ) ;
#167 = DIRECTION ( 'NONE',  ( 0.0000000000000000000, 0.0000000000000000000, 1.000000000000000000 ) ) ;
#168 = PRESENTATION_STYLE_ASSIGNMENT (( #187 ) ) ;
#169 = DIRECTION ( 'NONE',  ( -1.224646799147353207E-16, -0.0000000000000000000, -1.000000000000000000 ) ) ;
#170 = FACE_OUTER_BOUND ( 'NONE', #205, .T. ) ;
#171 = DIRECTION ( 'NONE',  ( 1.000000000000000000, 0.0000000000000000000, 0.0000000000000000000 ) ) ;
#172 = CARTESIAN_POINT ( 'NONE',  ( 0.0000000000000000000, 0.0000000000000000000, 0.0000000000000000000 ) ) ;
#173 = FACE_OUTER_BOUND ( 'NONE', #260, .T. ) ;
#174 = AXIS2_PLACEMENT_3D ( 'NONE', #264, #265, #35 ) ;
#175 = VERTEX_POINT ( 'NONE', #140 ) ;
#176 = ORIENTED_EDGE ( 'NONE', *, *, #94, .F. ) ;
#177 = STYLED_ITEM ( 'NONE', ( #254 ), #224 ) ;
#178 = EDGE_CURVE ( 'NONE', #219, #63, #76, .T. ) ;
#179 = EDGE_LOOP ( 'NONE', ( #285, #269, #186, #6 ) ) ;
#180 = PRODUCT_RELATED_PRODUCT_CATEGORY ( 'part', '', ( #61 ) ) ;
#181 = CARTESIAN_POINT ( 'NONE',  ( 0.05905500000000000332, 7.232151672364695422E-18, 1.481062999999999574 ) ) ;
#182 = DIRECTION ( 'NONE',  ( -0.0000000000000000000, -0.0000000000000000000, -1.000000000000000000 ) ) ;
#183 = EDGE_LOOP ( 'NONE', ( #101, #13 ) ) ;
#184 = CARTESIAN_POINT ( 'NONE',  ( 0.04405499999999973326, 5.395181473643630390E-18, 1.496062999999999921 ) ) ;
#185 = FACE_OUTER_BOUND ( 'NONE', #128, .T. ) ;
#186 = ORIENTED_EDGE ( 'NONE', *, *, #214, .T. ) ;
#187 = SURFACE_STYLE_USAGE ( .BOTH. , #91 ) ;
#188 = EDGE_CURVE ( 'NONE', #175, #80, #157, .T. ) ;
#189 = LENGTH_MEASURE_WITH_UNIT ( LENGTH_MEASURE( 0.02539999999999999897 ), #26 );
#190 = DIRECTION ( 'NONE',  ( 0.0000000000000000000, 0.0000000000000000000, 1.000000000000000000 ) ) ;
#191 = CARTESIAN_POINT ( 'NONE',  ( 3.857159805062494824E-17, 0.0000000000000000000, 0.3149609999999999910 ) ) ;
#192 = CONICAL_SURFACE ( 'NONE', #174, 0.04405499999999973326, 0.7853981633974491672 ) ;
#193 = CIRCLE ( 'NONE', #153, 0.04405499999999973326 ) ;
#194 = EDGE_CURVE ( 'NONE', #8, #197, #149, .T. ) ;
#195 = ORIENTED_EDGE ( 'NONE', *, *, #40, .T. ) ;
#196 = LINE ( 'NONE', #284, #252 ) ;
#197 = VERTEX_POINT ( 'NONE', #97 ) ;
#198 = ADVANCED_FACE ( 'NONE', ( #173 ), #127, .T. ) ;
#199 = DIRECTION ( 'NONE',  ( 1.224646799147353207E-16, 0.0000000000000000000, 1.000000000000000000 ) ) ;
#200 = CARTESIAN_POINT ( 'NONE',  ( 3.857159805062494824E-17, 0.0000000000000000000, 0.3149609999999999910 ) ) ;
#201 = PRESENTATION_LAYER_ASSIGNMENT (  '', '', ( #31 ) ) ;
#202 = AXIS2_PLACEMENT_3D ( 'NONE', #155, #221, #105 ) ;
#203 = ORIENTED_EDGE ( 'NONE', *, *, #223, .F. ) ;
#204 = DIRECTION ( 'NONE',  ( 0.7071067811865482389, 8.659560562354941486E-17, -0.7071067811865469066 ) ) ;
#205 = EDGE_LOOP ( 'NONE', ( #263, #102, #39, #229 ) ) ;
#206 = DIRECTION ( 'NONE',  ( -1.000000000000000000, 0.0000000000000000000, 0.0000000000000000000 ) ) ;
#207 = DIRECTION ( 'NONE',  ( -1.224646799147353207E-16, -0.0000000000000000000, -1.000000000000000000 ) ) ;
#208 = CARTESIAN_POINT ( 'NONE',  ( 7.373312137594241536E-34, 0.0000000000000000000, 6.020766267243607560E-18 ) ) ;
#209 = COLOUR_RGB ( '',0.7921568627450980005, 0.8196078431372548767, 0.9333333333333333481 ) ;
#210 = AXIS2_PLACEMENT_3D ( 'NONE', #65, #169, #211 ) ;
#211 = DIRECTION ( 'NONE',  ( -1.000000000000000000, 0.0000000000000000000, 1.224646799147353207E-16 ) ) ;
#212 = CARTESIAN_POINT ( 'NONE',  ( 0.0000000000000000000, 0.0000000000000000000, 1.481062999999999574 ) ) ;
#213 = AXIS2_PLACEMENT_3D ( 'NONE', #288, #84, #135 ) ;
#214 = EDGE_CURVE ( 'NONE', #219, #161, #196, .T. ) ;
#215 = PRODUCT_DEFINITION_CONTEXT ( 'detailed design', #108, 'design' ) ;
#216 = VECTOR ( 'NONE', #82, 39.37007874015747433 ) ;
#217 = ORIENTED_EDGE ( 'NONE', *, *, #59, .F. ) ;
#218 = VERTEX_POINT ( 'NONE', #113 ) ;
#219 = VERTEX_POINT ( 'NONE', #238 ) ;
#220 = PRODUCT_DEFINITION ( 'UNKNOWN', '', #227, #215 ) ;
#221 = DIRECTION ( 'NONE',  ( 1.224646799147353207E-16, 0.0000000000000000000, 1.000000000000000000 ) ) ;
#222 = CARTESIAN_POINT ( 'NONE',  ( -0.04405499999999973326, 0.0000000000000000000, 1.496062999999999921 ) ) ;
#223 = EDGE_CURVE ( 'NONE', #8, #80, #272, .T. ) ;
#224 = ADVANCED_BREP_SHAPE_REPRESENTATION ( 'Micro_RMEM-025-2', ( #130, #100 ), #245 ) ;
#225 =( CONVERSION_BASED_UNIT ( 'INCH', #145 ) LENGTH_UNIT ( ) NAMED_UNIT ( #258 ) );
#226 = PRODUCT_DEFINITION_SHAPE ( 'NONE', 'NONE',  #220 ) ;
#227 = PRODUCT_DEFINITION_FORMATION_WITH_SPECIFIED_SOURCE ( 'ANY', '', #61, .NOT_KNOWN. ) ;
#228 = DIRECTION ( 'NONE',  ( 1.000000000000000000, 0.0000000000000000000, 0.0000000000000000000 ) ) ;
#229 = ORIENTED_EDGE ( 'NONE', *, *, #214, .F. ) ;
#230 =( LENGTH_UNIT ( ) NAMED_UNIT ( * ) SI_UNIT ( $, .METRE. ) );
#231 = EDGE_CURVE ( 'NONE', #218, #161, #77, .T. ) ;
#232 =( NAMED_UNIT ( * ) PLANE_ANGLE_UNIT ( ) SI_UNIT ( $, .RADIAN. ) );
#233 = CARTESIAN_POINT ( 'NONE',  ( 0.04916328750000000664, 6.020766267243608331E-18, -6.020766267243608331E-18 ) ) ;
#234 = DIRECTION ( 'NONE',  ( 0.0000000000000000000, 0.0000000000000000000, -1.000000000000000000 ) ) ;
#235 =( LENGTH_UNIT ( ) NAMED_UNIT ( * ) SI_UNIT ( $, .METRE. ) );
#236 = CLOSED_SHELL ( 'NONE', ( #148, #29, #69, #126, #114, #261, #71, #107, #198, #247 ) ) ;
#237 = COLOUR_RGB ( '',0.7921568627450980005, 0.8196078431372548767, 0.9333333333333333481 ) ;
#238 = CARTESIAN_POINT ( 'NONE',  ( -0.05905500000000000332, 0.0000000000000000000, 1.481062999999999574 ) ) ;
#239 = LINE ( 'NONE', #25, #241 ) ;
#240 = SURFACE_STYLE_FILL_AREA ( #297 ) ;
#241 = VECTOR ( 'NONE', #122, 39.37007874015748143 ) ;
#242 = AXIS2_PLACEMENT_3D ( 'NONE', #172, #22, #66 ) ;
#243 = EDGE_LOOP ( 'NONE', ( #176, #217, #129, #138 ) ) ;
#244 = CARTESIAN_POINT ( 'NONE',  ( 0.04405499999999973326, 6.313666573004162521E-18, 1.496062999999999921 ) ) ;
#245 =( GEOMETRIC_REPRESENTATION_CONTEXT ( 3 ) GLOBAL_UNCERTAINTY_ASSIGNED_CONTEXT ( ( #11 ) ) GLOBAL_UNIT_ASSIGNED_CONTEXT ( ( #137, #17, #281 ) ) REPRESENTATION_CONTEXT ( 'NONE', 'WORKASPACE' ) );
#246 = CARTESIAN_POINT ( 'NONE',  ( 0.04916328749999999276, 6.020766267243607560E-18, -9.478001694819074349E-34 ) ) ;
#247 = ADVANCED_FACE ( 'NONE', ( #70 ), #256, .F. ) ;
#248 = LINE ( 'NONE', #131, #32 ) ;
#249 = CARTESIAN_POINT ( 'NONE',  ( -0.04916328749999996500, 6.020766267243608331E-18, 0.3149609999999999910 ) ) ;
#250 = ORIENTED_EDGE ( 'NONE', *, *, #98, .T. ) ;
#251 = VECTOR ( 'NONE', #204, 39.37007874015748143 ) ;
#252 = VECTOR ( 'NONE', #182, 39.37007874015748143 ) ;
#253 = DIRECTION ( 'NONE',  ( -1.000000000000000000, 0.0000000000000000000, 0.0000000000000000000 ) ) ;
#254 = PRESENTATION_STYLE_ASSIGNMENT (( #274 ) ) ;
#255 = CARTESIAN_POINT ( 'NONE',  ( 0.0000000000000000000, 0.0000000000000000000, 1.496062999999999921 ) ) ;
#256 = PLANE ( 'NONE',  #125 ) ;
#257 = CARTESIAN_POINT ( 'NONE',  ( 0.0000000000000000000, 0.0000000000000000000, 1.496062999999999921 ) ) ;
#258 = DIMENSIONAL_EXPONENTS ( 1.000000000000000000, 0.0000000000000000000, 0.0000000000000000000, 0.0000000000000000000, 0.0000000000000000000, 0.0000000000000000000, 0.0000000000000000000 ) ;
#259 = DIRECTION ( 'NONE',  ( -1.000000000000000000, 0.0000000000000000000, 0.0000000000000000000 ) ) ;
#260 = EDGE_LOOP ( 'NONE', ( #203, #112, #141, #88 ) ) ;
#261 = ADVANCED_FACE ( 'NONE', ( #21 ), #118, .T. ) ;
#262 = CONICAL_SURFACE ( 'NONE', #36, 0.04405499999999973326, 0.7853981633974491672 ) ;
#263 = ORIENTED_EDGE ( 'NONE', *, *, #178, .T. ) ;
#264 = CARTESIAN_POINT ( 'NONE',  ( 0.0000000000000000000, 0.0000000000000000000, 1.496062999999999921 ) ) ;
#265 = DIRECTION ( 'NONE',  ( 0.0000000000000000000, 0.0000000000000000000, -1.000000000000000000 ) ) ;
#266 = VECTOR ( 'NONE', #289, 39.37007874015748143 ) ;
#267 = EDGE_CURVE ( 'NONE', #80, #175, #2, .T. ) ;
#268 = CARTESIAN_POINT ( 'NONE',  ( 0.0000000000000000000, 0.0000000000000000000, 1.481062999999999574 ) ) ;
#269 = ORIENTED_EDGE ( 'NONE', *, *, #89, .T. ) ;
#270 = CARTESIAN_POINT ( 'NONE',  ( -0.04916328750000000664, 0.0000000000000000000, 6.020766267243608331E-18 ) ) ;
#271 = ORIENTED_EDGE ( 'NONE', *, *, #34, .F. ) ;
#272 = LINE ( 'NONE', #233, #166 ) ;
#273 = ORIENTED_EDGE ( 'NONE', *, *, #85, .F. ) ;
#274 = SURFACE_STYLE_USAGE ( .BOTH. , #143 ) ;
#275 = AXIS2_PLACEMENT_3D ( 'NONE', #257, #51, #253 ) ;
#276 = CARTESIAN_POINT ( 'NONE',  ( 0.0000000000000000000, 0.0000000000000000000, 1.496062999999999921 ) ) ;
#277 = DIRECTION ( 'NONE',  ( -1.000000000000000000, 0.0000000000000000000, 1.224646799147353207E-16 ) ) ;
#278 = DIRECTION ( 'NONE',  ( -1.000000000000000000, 0.0000000000000000000, 0.0000000000000000000 ) ) ;
#279 = DIRECTION ( 'NONE',  ( -1.224646799147353207E-16, -0.0000000000000000000, -1.000000000000000000 ) ) ;
#280 = CYLINDRICAL_SURFACE ( 'NONE', #242, 0.04916328750000000664 ) ;
#281 =( NAMED_UNIT ( * ) SI_UNIT ( $, .STERADIAN. ) SOLID_ANGLE_UNIT ( ) );
#282 = EDGE_CURVE ( 'NONE', #53, #160, #193, .T. ) ;
#283 = AXIS2_PLACEMENT_3D ( 'NONE', #27, #28, #3 ) ;
#284 = CARTESIAN_POINT ( 'NONE',  ( -0.05905500000000000332, 0.0000000000000000000, 1.496062999999999921 ) ) ;
#285 = ORIENTED_EDGE ( 'NONE', *, *, #144, .F. ) ;
#286 = AXIS2_PLACEMENT_3D ( 'NONE', #47, #147, #206 ) ;
#287 = CARTESIAN_POINT ( 'NONE',  ( 4.544170607523835535E-17, 0.0000000000000000000, 0.3710596892661349178 ) ) ;
#288 = CARTESIAN_POINT ( 'NONE',  ( 0.0000000000000000000, 0.0000000000000000000, 1.496062999999999921 ) ) ;
#289 = DIRECTION ( 'NONE',  ( -0.7071067811865482389, 0.0000000000000000000, -0.7071067811865469066 ) ) ;
#290 = ORIENTED_EDGE ( 'NONE', *, *, #94, .T. ) ;
#291 = ORIENTED_EDGE ( 'NONE', *, *, #223, .T. ) ;
#292 = CONICAL_SURFACE ( 'NONE', #202, 0.04916328750000000664, 0.1745329251994338915 ) ;
#293 = DIRECTION ( 'NONE',  ( -1.224646799147353207E-16, -0.0000000000000000000, -1.000000000000000000 ) ) ;
#294 =( NAMED_UNIT ( * ) PLANE_ANGLE_UNIT ( ) SI_UNIT ( $, .RADIAN. ) );
#295 = EDGE_CURVE ( 'NONE', #197, #8, #146, .T. ) ;
#296 = DIRECTION ( 'NONE',  ( 1.000000000000000000, 0.0000000000000000000, 0.0000000000000000000 ) ) ;
#297 = FILL_AREA_STYLE ('',( #124 ) ) ;
#298 = LENGTH_MEASURE_WITH_UNIT ( LENGTH_MEASURE( 0.02539999999999999897 ), #235 );
#299 = CYLINDRICAL_SURFACE ( 'NONE', #275, 0.05905500000000000332 ) ;
ENDSEC;
END-ISO-10303-21;
