ISO-10303-21;
HEADER;
FILE_DESCRIPTION (( 'STEP AP214' ),
    '1' );
FILE_NAME ('56077.STEP',
    '2023-06-30T22:05:21',
    ( '' ),
    ( '' ),
    'SwSTEP 2.0',
    'SolidWorks 2023',
    '' );
FILE_SCHEMA (( 'AUTOMOTIVE_DESIGN' ));
ENDSEC;

DATA;
#1 = FILL_AREA_STYLE ('',( #198 ) ) ;
#2 = COLOUR_RGB ( '',1.000000000000000000, 0.000000000000000000, 0.000000000000000000 ) ;
#3 =( CONVERSION_BASED_UNIT ( 'INCH', #234 ) LENGTH_UNIT ( ) NAMED_UNIT ( #98 ) );
#4 = PRESENTATION_LAYER_ASSIGNMENT (  '', '', ( #166 ) ) ;
#5 = LINE ( 'NONE', #302, #70 ) ;
#6 = FACE_OUTER_BOUND ( 'NONE', #161, .T. ) ;
#7 = EDGE_CURVE ( 'NONE', #16, #373, #62, .T. ) ;
#8 = DIRECTION ( 'NONE',  ( -1.000000000000000000, 0.000000000000000000, 0.000000000000000000 ) ) ;
#9 = CARTESIAN_POINT ( 'NONE',  ( 0.09374999999999995837, 0.3125000000000000000, 1.148106374200641706E-17 ) ) ;
#10 = CIRCLE ( 'NONE', #259, 0.09374999999999998612 ) ;
#11 = UNCERTAINTY_MEASURE_WITH_UNIT (LENGTH_MEASURE( 1.000000000000000082E-05 ), #252, 'distance_accuracy_value', 'NONE');
#12 = FACE_OUTER_BOUND ( 'NONE', #201, .T. ) ;
#13 = EDGE_CURVE ( 'NONE', #373, #46, #157, .T. ) ;
#14 = DIRECTION ( 'NONE',  ( 1.000000000000000000, 0.000000000000000000, 0.000000000000000000 ) ) ;
#15 = EDGE_LOOP ( 'NONE', ( #139, #107, #135, #18 ) ) ;
#16 = VERTEX_POINT ( 'NONE', #9 ) ;
#17 = FACE_OUTER_BOUND ( 'NONE', #136, .T. ) ;
#18 = ORIENTED_EDGE ( 'NONE', *, *, #13, .F. ) ;
#19 = VECTOR ( 'NONE', #334, 39.37007874015748143 ) ;
#20 =( CONVERSION_BASED_UNIT ( 'INCH', #280 ) LENGTH_UNIT ( ) NAMED_UNIT ( #123 ) );
#21 =( LENGTH_UNIT ( ) NAMED_UNIT ( * ) SI_UNIT ( $, .METRE. ) );
#22 =( NAMED_UNIT ( * ) SI_UNIT ( $, .STERADIAN. ) SOLID_ANGLE_UNIT ( ) );
#23 = ORIENTED_EDGE ( 'NONE', *, *, #155, .T. ) ;
#24 = CARTESIAN_POINT ( 'NONE',  ( 6.123233995736766036E-17, 2.000000000000000000, 0.000000000000000000 ) ) ;
#25 = EDGE_CURVE ( 'NONE', #289, #323, #286, .T. ) ;
#26 = PRESENTATION_STYLE_ASSIGNMENT (( #87 ) ) ;
#27 = CLOSED_SHELL ( 'NONE', ( #253, #179, #222, #308, #344 ) ) ;
#28 = MECHANICAL_DESIGN_GEOMETRIC_PRESENTATION_REPRESENTATION (  '', ( #265 ), #79 ) ;
#29 = CARTESIAN_POINT ( 'NONE',  ( 2.675941045781492611E-16, 0.3125000000000000000, 0.000000000000000000 ) ) ;
#30 = ORIENTED_EDGE ( 'NONE', *, *, #155, .F. ) ;
#31 = PRODUCT_CONTEXT ( 'NONE', #36, 'mechanical' ) ;
#32 = FILL_AREA_STYLE_COLOUR ( '', #250 ) ;
#33 = CARTESIAN_POINT ( 'NONE',  ( 0.000000000000000000, 0.3125000000000000000, 0.000000000000000000 ) ) ;
#34 = AXIS2_PLACEMENT_3D ( 'NONE', #147, #311, #93 ) ;
#35 =( LENGTH_UNIT ( ) NAMED_UNIT ( * ) SI_UNIT ( $, .METRE. ) );
#36 = APPLICATION_CONTEXT ( 'automotive_design' ) ;
#37 = FILL_AREA_STYLE_COLOUR ( '', #317 ) ;
#38 = PRESENTATION_STYLE_ASSIGNMENT (( #346 ) ) ;
#39 = DIRECTION ( 'NONE',  ( 1.224646799147353207E-16, -0.000000000000000000, 1.000000000000000000 ) ) ;
#40 = MECHANICAL_DESIGN_GEOMETRIC_PRESENTATION_REPRESENTATION (  '', ( #224 ), #254 ) ;
#41 = FILL_AREA_STYLE ('',( #238 ) ) ;
#42 = EDGE_CURVE ( 'NONE', #51, #243, #362, .T. ) ;
#43 = ORIENTED_EDGE ( 'NONE', *, *, #163, .T. ) ;
#44 = DIMENSIONAL_EXPONENTS ( 1.000000000000000000, 0.000000000000000000, 0.000000000000000000, 0.000000000000000000, 0.000000000000000000, 0.000000000000000000, 0.000000000000000000 ) ;
#45 = CARTESIAN_POINT ( 'NONE',  ( 0.000000000000000000, 0.000000000000000000, 0.000000000000000000 ) ) ;
#46 = VERTEX_POINT ( 'NONE', #206 ) ;
#47 = COLOUR_RGB ( '',1.000000000000000000, 0.000000000000000000, 0.000000000000000000 ) ;
#48 = PLANE ( 'NONE',  #125 ) ;
#49 = ORIENTED_EDGE ( 'NONE', *, *, #294, .F. ) ;
#50 =( NAMED_UNIT ( * ) PLANE_ANGLE_UNIT ( ) SI_UNIT ( $, .RADIAN. ) );
#51 = VERTEX_POINT ( 'NONE', #239 ) ;
#52 = CYLINDRICAL_SURFACE ( 'NONE', #86, 0.09374999999999980571 ) ;
#53 =( GEOMETRIC_REPRESENTATION_CONTEXT ( 3 ) GLOBAL_UNCERTAINTY_ASSIGNED_CONTEXT ( ( #349 ) ) GLOBAL_UNIT_ASSIGNED_CONTEXT ( ( #20, #269, #185 ) ) REPRESENTATION_CONTEXT ( 'NONE', 'WORKASPACE' ) );
#54 = DIRECTION ( 'NONE',  ( 1.000000000000000000, 0.000000000000000000, 0.000000000000000000 ) ) ;
#55 = VERTEX_POINT ( 'NONE', #314 ) ;
#56 = DIRECTION ( 'NONE',  ( -1.000000000000000000, 0.000000000000000000, 0.000000000000000000 ) ) ;
#57 = PRODUCT_DEFINITION ( 'UNKNOWN', '', #290, #371 ) ;
#58 = STYLED_ITEM ( 'NONE', ( #38 ), #260 ) ;
#59 = PRESENTATION_LAYER_ASSIGNMENT (  '', '', ( #176 ) ) ;
#60 = ORIENTED_EDGE ( 'NONE', *, *, #255, .F. ) ;
#61 = SURFACE_STYLE_FILL_AREA ( #1 ) ;
#62 = LINE ( 'NONE', #226, #19 ) ;
#63 = DIRECTION ( 'NONE',  ( -1.000000000000000000, 0.000000000000000000, 0.000000000000000000 ) ) ;
#64 = DIRECTION ( 'NONE',  ( -0.000000000000000000, -1.000000000000000000, -0.000000000000000000 ) ) ;
#65 = SURFACE_STYLE_USAGE ( .BOTH. , #257 ) ;
#66 = DIRECTION ( 'NONE',  ( -0.000000000000000000, -1.000000000000000000, -0.000000000000000000 ) ) ;
#67 = DIRECTION ( 'NONE',  ( 1.222884531086113345E-16, -1.000000000000000000, 0.000000000000000000 ) ) ;
#68 = DIMENSIONAL_EXPONENTS ( 1.000000000000000000, 0.000000000000000000, 0.000000000000000000, 0.000000000000000000, 0.000000000000000000, 0.000000000000000000, 0.000000000000000000 ) ;
#69 = SURFACE_STYLE_FILL_AREA ( #158 ) ;
#70 = VECTOR ( 'NONE', #218, 39.37007874015748143 ) ;
#71 = DIRECTION ( 'NONE',  ( 1.000000000000000000, 0.000000000000000000, -1.224646799147353207E-16 ) ) ;
#72 = VECTOR ( 'NONE', #66, 39.37007874015748143 ) ;
#73 = DIRECTION ( 'NONE',  ( -1.000000000000000000, -1.222884531086113345E-16, 0.000000000000000000 ) ) ;
#74 = SURFACE_STYLE_USAGE ( .BOTH. , #319 ) ;
#75 = SURFACE_SIDE_STYLE ('',( #191 ) ) ;
#76 = ORIENTED_EDGE ( 'NONE', *, *, #25, .F. ) ;
#77 = UNCERTAINTY_MEASURE_WITH_UNIT (LENGTH_MEASURE( 1.000000000000000082E-05 ), #213, 'distance_accuracy_value', 'NONE');
#78 = SURFACE_STYLE_USAGE ( .BOTH. , #80 ) ;
#79 =( GEOMETRIC_REPRESENTATION_CONTEXT ( 3 ) GLOBAL_UNCERTAINTY_ASSIGNED_CONTEXT ( ( #77 ) ) GLOBAL_UNIT_ASSIGNED_CONTEXT ( ( #213, #50, #365 ) ) REPRESENTATION_CONTEXT ( 'NONE', 'WORKASPACE' ) );
#80 = SURFACE_SIDE_STYLE ('',( #215 ) ) ;
#81 = ORIENTED_EDGE ( 'NONE', *, *, #42, .T. ) ;
#82 = DIRECTION ( 'NONE',  ( -1.000000000000000000, 0.000000000000000000, 0.000000000000000000 ) ) ;
#83 = ORIENTED_EDGE ( 'NONE', *, *, #255, .T. ) ;
#84 = LENGTH_MEASURE_WITH_UNIT ( LENGTH_MEASURE( 0.02539999999999999897 ), #21 );
#85 =( GEOMETRIC_REPRESENTATION_CONTEXT ( 3 ) GLOBAL_UNCERTAINTY_ASSIGNED_CONTEXT ( ( #284 ) ) GLOBAL_UNIT_ASSIGNED_CONTEXT ( ( #3, #343, #154 ) ) REPRESENTATION_CONTEXT ( 'NONE', 'WORKASPACE' ) );
#86 = AXIS2_PLACEMENT_3D ( 'NONE', #24, #332, #197 ) ;
#87 = SURFACE_STYLE_USAGE ( .BOTH. , #307 ) ;
#88 = DIRECTION ( 'NONE',  ( 0.000000000000000000, 0.000000000000000000, 1.000000000000000000 ) ) ;
#89 = CARTESIAN_POINT ( 'NONE',  ( 6.123233995736766036E-17, 2.000000000000000000, 0.000000000000000000 ) ) ;
#90 = AXIS2_PLACEMENT_3D ( 'NONE', #295, #39, #71 ) ;
#91 = COLOUR_RGB ( '',0.7921568627450980005, 0.8196078431372548767, 0.9333333333333333481 ) ;
#92 = EDGE_LOOP ( 'NONE', ( #83, #194, #223, #248 ) ) ;
#93 = DIRECTION ( 'NONE',  ( 1.000000000000000000, 0.000000000000000000, 0.000000000000000000 ) ) ;
#94 = PRESENTATION_LAYER_ASSIGNMENT (  '', '', ( #265 ) ) ;
#95 = PRODUCT ( '56077', '56077', '', ( #31 ) ) ;
#96 =( LENGTH_UNIT ( ) NAMED_UNIT ( * ) SI_UNIT ( $, .METRE. ) );
#97 = DIRECTION ( 'NONE',  ( 0.000000000000000000, 0.000000000000000000, -1.000000000000000000 ) ) ;
#98 = DIMENSIONAL_EXPONENTS ( 1.000000000000000000, 0.000000000000000000, 0.000000000000000000, 0.000000000000000000, 0.000000000000000000, 0.000000000000000000, 0.000000000000000000 ) ;
#99 = ADVANCED_FACE ( 'NONE', ( #12 ), #101, .F. ) ;
#100 = DIRECTION ( 'NONE',  ( -1.222884531086113345E-16, 1.000000000000000000, -0.000000000000000000 ) ) ;
#101 = PLANE ( 'NONE',  #360 ) ;
#102 = CARTESIAN_POINT ( 'NONE',  ( 0.09374999999999995837, 2.000000000000000000, 1.148106374200641706E-17 ) ) ;
#103 =( GEOMETRIC_REPRESENTATION_CONTEXT ( 3 ) GLOBAL_UNCERTAINTY_ASSIGNED_CONTEXT ( ( #361 ) ) GLOBAL_UNIT_ASSIGNED_CONTEXT ( ( #141, #272, #167 ) ) REPRESENTATION_CONTEXT ( 'NONE', 'WORKASPACE' ) );
#104 = DIRECTION ( 'NONE',  ( -0.000000000000000000, -1.000000000000000000, -0.000000000000000000 ) ) ;
#105 = DIRECTION ( 'NONE',  ( -1.222884531086113345E-16, 1.000000000000000000, -0.000000000000000000 ) ) ;
#106 = FACE_OUTER_BOUND ( 'NONE', #165, .T. ) ;
#107 = ORIENTED_EDGE ( 'NONE', *, *, #245, .T. ) ;
#108 = DIRECTION ( 'NONE',  ( 0.000000000000000000, 0.000000000000000000, -1.000000000000000000 ) ) ;
#109 = ORIENTED_EDGE ( 'NONE', *, *, #42, .F. ) ;
#110 = FILL_AREA_STYLE_COLOUR ( '', #369 ) ;
#111 = ORIENTED_EDGE ( 'NONE', *, *, #366, .T. ) ;
#112 = EDGE_CURVE ( 'NONE', #354, #55, #249, .T. ) ;
#113 = DIRECTION ( 'NONE',  ( 0.000000000000000000, -0.000000000000000000, 1.000000000000000000 ) ) ;
#114 = DIRECTION ( 'NONE',  ( -1.000000000000000000, 0.000000000000000000, 0.000000000000000000 ) ) ;
#115 = ORIENTED_EDGE ( 'NONE', *, *, #127, .F. ) ;
#116 = DIRECTION ( 'NONE',  ( 0.000000000000000000, 1.000000000000000000, 0.000000000000000000 ) ) ;
#117 = DIRECTION ( 'NONE',  ( -1.222884531086113345E-16, 1.000000000000000000, -0.000000000000000000 ) ) ;
#118 =( NAMED_UNIT ( * ) PLANE_ANGLE_UNIT ( ) SI_UNIT ( $, .RADIAN. ) );
#119 = CIRCLE ( 'NONE', #316, 0.09374999999999998612 ) ;
#120 = AXIS2_PLACEMENT_3D ( 'NONE', #207, #293, #63 ) ;
#121 = APPLICATION_PROTOCOL_DEFINITION ( 'draft international standard', 'automotive_design', 1998, #339 ) ;
#122 = EDGE_CURVE ( 'NONE', #219, #289, #296, .T. ) ;
#123 = DIMENSIONAL_EXPONENTS ( 1.000000000000000000, 0.000000000000000000, 0.000000000000000000, 0.000000000000000000, 0.000000000000000000, 0.000000000000000000, 0.000000000000000000 ) ;
#124 = DIRECTION ( 'NONE',  ( 0.000000000000000000, 0.000000000000000000, -1.000000000000000000 ) ) ;
#125 = AXIS2_PLACEMENT_3D ( 'NONE', #162, #137, #73 ) ;
#126 = PRODUCT_DEFINITION_SHAPE ( 'NONE', 'NONE',  #57 ) ;
#127 = EDGE_CURVE ( 'NONE', #243, #51, #336, .T. ) ;
#128 = CARTESIAN_POINT ( 'NONE',  ( -1.148106374200644017E-17, 0.09375000000000002776, 0.000000000000000000 ) ) ;
#129 = CARTESIAN_POINT ( 'NONE',  ( -0.09374999999999973632, 2.000000000000000000, 0.000000000000000000 ) ) ;
#130 = FILL_AREA_STYLE ('',( #110 ) ) ;
#131 = CIRCLE ( 'NONE', #132, 0.09375000000000002776 ) ;
#132 = AXIS2_PLACEMENT_3D ( 'NONE', #342, #124, #114 ) ;
#133 = SPHERICAL_SURFACE ( 'NONE', #352, 0.09375000000000002776 ) ;
#134 = FILL_AREA_STYLE ('',( #160 ) ) ;
#135 = ORIENTED_EDGE ( 'NONE', *, *, #340, .T. ) ;
#136 = EDGE_LOOP ( 'NONE', ( #270, #327 ) ) ;
#137 = DIRECTION ( 'NONE',  ( -1.222884531086113345E-16, 1.000000000000000000, 0.000000000000000000 ) ) ;
#138 = AXIS2_PLACEMENT_3D ( 'NONE', #351, #202, #174 ) ;
#139 = ORIENTED_EDGE ( 'NONE', *, *, #7, .F. ) ;
#140 =( GEOMETRIC_REPRESENTATION_CONTEXT ( 3 ) GLOBAL_UNCERTAINTY_ASSIGNED_CONTEXT ( ( #247 ) ) GLOBAL_UNIT_ASSIGNED_CONTEXT ( ( #264, #348, #205 ) ) REPRESENTATION_CONTEXT ( 'NONE', 'WORKASPACE' ) );
#141 =( CONVERSION_BASED_UNIT ( 'INCH', #192 ) LENGTH_UNIT ( ) NAMED_UNIT ( #152 ) );
#142 = FILL_AREA_STYLE ('',( #159 ) ) ;
#143 =( CONVERSION_BASED_UNIT ( 'INCH', #193 ) LENGTH_UNIT ( ) NAMED_UNIT ( #298 ) );
#144 = PRESENTATION_STYLE_ASSIGNMENT (( #171 ) ) ;
#145 =( CONVERSION_BASED_UNIT ( 'INCH', #256 ) LENGTH_UNIT ( ) NAMED_UNIT ( #318 ) );
#146 = SURFACE_STYLE_FILL_AREA ( #333 ) ;
#147 = CARTESIAN_POINT ( 'NONE',  ( 0.000000000000000000, 0.000000000000000000, 0.000000000000000000 ) ) ;
#148 = MECHANICAL_DESIGN_GEOMETRIC_PRESENTATION_REPRESENTATION (  '', ( #310 ), #188 ) ;
#149 = COLOUR_RGB ( '',1.000000000000000000, 0.000000000000000000, 0.000000000000000000 ) ;
#150 = LINE ( 'NONE', #313, #72 ) ;
#151 = DIRECTION ( 'NONE',  ( -0.000000000000000000, -1.000000000000000000, -0.000000000000000000 ) ) ;
#152 = DIMENSIONAL_EXPONENTS ( 1.000000000000000000, 0.000000000000000000, 0.000000000000000000, 0.000000000000000000, 0.000000000000000000, 0.000000000000000000, 0.000000000000000000 ) ;
#153 = CYLINDRICAL_SURFACE ( 'NONE', #175, 0.09374999999999998612 ) ;
#154 =( NAMED_UNIT ( * ) SI_UNIT ( $, .STERADIAN. ) SOLID_ANGLE_UNIT ( ) );
#155 = EDGE_CURVE ( 'NONE', #243, #219, #5, .T. ) ;
#156 = UNCERTAINTY_MEASURE_WITH_UNIT (LENGTH_MEASURE( 1.000000000000000082E-05 ), #145, 'distance_accuracy_value', 'NONE');
#157 = CIRCLE ( 'NONE', #235, 0.09374999999999990286 ) ;
#158 = FILL_AREA_STYLE ('',( #37 ) ) ;
#159 = FILL_AREA_STYLE_COLOUR ( '', #149 ) ;
#160 = FILL_AREA_STYLE_COLOUR ( '', #2 ) ;
#161 = EDGE_LOOP ( 'NONE', ( #111, #172, #49, #359 ) ) ;
#162 = CARTESIAN_POINT ( 'NONE',  ( 2.675941045781493104E-16, 0.3125000000000000000, 0.000000000000000000 ) ) ;
#163 = EDGE_CURVE ( 'NONE', #354, #219, #119, .T. ) ;
#164 = ORIENTED_EDGE ( 'NONE', *, *, #112, .F. ) ;
#165 = EDGE_LOOP ( 'NONE', ( #214, #217, #76, #330, #30 ) ) ;
#166 = STYLED_ITEM ( 'NONE', ( #266 ), #308 ) ;
#167 =( NAMED_UNIT ( * ) SI_UNIT ( $, .STERADIAN. ) SOLID_ANGLE_UNIT ( ) );
#168 =( LENGTH_UNIT ( ) NAMED_UNIT ( * ) SI_UNIT ( $, .METRE. ) );
#169 = AXIS2_PLACEMENT_3D ( 'NONE', #328, #116, #113 ) ;
#170 = AXIS2_PLACEMENT_3D ( 'NONE', #329, #240, #82 ) ;
#171 = SURFACE_STYLE_USAGE ( .BOTH. , #370 ) ;
#172 = ORIENTED_EDGE ( 'NONE', *, *, #7, .T. ) ;
#173 = CARTESIAN_POINT ( 'NONE',  ( 0.000000000000000000, 0.3125000000000000000, -0.09374999999999997224 ) ) ;
#174 = DIRECTION ( 'NONE',  ( 0.000000000000000000, 0.000000000000000000, -1.000000000000000000 ) ) ;
#175 = AXIS2_PLACEMENT_3D ( 'NONE', #232, #204, #180 ) ;
#176 = STYLED_ITEM ( 'NONE', ( #268 ), #344 ) ;
#177 = CYLINDRICAL_SURFACE ( 'NONE', #337, 0.09374999999999980571 ) ;
#178 = DIMENSIONAL_EXPONENTS ( 1.000000000000000000, 0.000000000000000000, 0.000000000000000000, 0.000000000000000000, 0.000000000000000000, 0.000000000000000000, 0.000000000000000000 ) ;
#179 = ADVANCED_FACE ( 'NONE', ( #106 ), #322, .T. ) ;
#180 = DIRECTION ( 'NONE',  ( 0.000000000000000000, 0.000000000000000000, -1.000000000000000000 ) ) ;
#181 = LENGTH_MEASURE_WITH_UNIT ( LENGTH_MEASURE( 0.02539999999999999897 ), #96 );
#182 = DIRECTION ( 'NONE',  ( 1.000000000000000000, 1.222884531086113345E-16, 0.000000000000000000 ) ) ;
#183 = PRESENTATION_STYLE_ASSIGNMENT (( #275 ) ) ;
#184 = ADVANCED_FACE ( 'NONE', ( #17 ), #48, .F. ) ;
#185 =( NAMED_UNIT ( * ) SI_UNIT ( $, .STERADIAN. ) SOLID_ANGLE_UNIT ( ) );
#186 = ORIENTED_EDGE ( 'NONE', *, *, #122, .T. ) ;
#187 = DIRECTION ( 'NONE',  ( -0.000000000000000000, -1.000000000000000000, -0.000000000000000000 ) ) ;
#188 =( GEOMETRIC_REPRESENTATION_CONTEXT ( 3 ) GLOBAL_UNCERTAINTY_ASSIGNED_CONTEXT ( ( #189 ) ) GLOBAL_UNIT_ASSIGNED_CONTEXT ( ( #143, #227, #22 ) ) REPRESENTATION_CONTEXT ( 'NONE', 'WORKASPACE' ) );
#189 = UNCERTAINTY_MEASURE_WITH_UNIT (LENGTH_MEASURE( 1.000000000000000082E-05 ), #143, 'distance_accuracy_value', 'NONE');
#190 = ORIENTED_EDGE ( 'NONE', *, *, #294, .T. ) ;
#191 = SURFACE_STYLE_FILL_AREA ( #130 ) ;
#192 = LENGTH_MEASURE_WITH_UNIT ( LENGTH_MEASURE( 0.02539999999999999897 ), #368 );
#193 = LENGTH_MEASURE_WITH_UNIT ( LENGTH_MEASURE( 0.02539999999999999897 ), #168 );
#194 = ORIENTED_EDGE ( 'NONE', *, *, #112, .T. ) ;
#195 = MECHANICAL_DESIGN_GEOMETRIC_PRESENTATION_REPRESENTATION (  '', ( #216 ), #53 ) ;
#196 =( NAMED_UNIT ( * ) SI_UNIT ( $, .STERADIAN. ) SOLID_ANGLE_UNIT ( ) );
#197 = DIRECTION ( 'NONE',  ( -1.000000000000000000, 0.000000000000000000, 0.000000000000000000 ) ) ;
#198 = FILL_AREA_STYLE_COLOUR ( '', #47 ) ;
#199 = PRESENTATION_LAYER_ASSIGNMENT (  '', '', ( #224 ) ) ;
#200 = CARTESIAN_POINT ( 'NONE',  ( 0.000000000000000000, 0.09375000000000004163, 0.000000000000000000 ) ) ;
#201 = EDGE_LOOP ( 'NONE', ( #190, #321 ) ) ;
#202 = DIRECTION ( 'NONE',  ( -0.000000000000000000, -1.000000000000000000, -0.000000000000000000 ) ) ;
#203 = AXIS2_PLACEMENT_3D ( 'NONE', #29, #309, #335 ) ;
#204 = DIRECTION ( 'NONE',  ( -0.000000000000000000, -1.000000000000000000, -0.000000000000000000 ) ) ;
#205 =( NAMED_UNIT ( * ) SI_UNIT ( $, .STERADIAN. ) SOLID_ANGLE_UNIT ( ) );
#206 = CARTESIAN_POINT ( 'NONE',  ( -0.09374999999999983347, 2.000000000000000000, 0.000000000000000000 ) ) ;
#207 = CARTESIAN_POINT ( 'NONE',  ( 6.123233995736766036E-17, 2.000000000000000000, 0.000000000000000000 ) ) ;
#208 = CARTESIAN_POINT ( 'NONE',  ( 0.09374999999999997224, 2.000000000000000000, 0.000000000000000000 ) ) ;
#209 = MECHANICAL_DESIGN_GEOMETRIC_PRESENTATION_REPRESENTATION (  '', ( #166 ), #85 ) ;
#210 = CARTESIAN_POINT ( 'NONE',  ( 1.148106374200643401E-17, 0.09375000000000004163, 0.09374999999999998612 ) ) ;
#211 = CARTESIAN_POINT ( 'NONE',  ( 0.000000000000000000, 0.09375000000000004163, -0.09374999999999998612 ) ) ;
#212 = VERTEX_POINT ( 'NONE', #299 ) ;
#213 =( CONVERSION_BASED_UNIT ( 'INCH', #356 ) LENGTH_UNIT ( ) NAMED_UNIT ( #68 ) );
#214 = ORIENTED_EDGE ( 'NONE', *, *, #127, .T. ) ;
#215 = SURFACE_STYLE_FILL_AREA ( #134 ) ;
#216 = STYLED_ITEM ( 'NONE', ( #183 ), #222 ) ;
#217 = ORIENTED_EDGE ( 'NONE', *, *, #285, .T. ) ;
#218 = DIRECTION ( 'NONE',  ( -0.000000000000000000, -1.000000000000000000, -0.000000000000000000 ) ) ;
#219 = VERTEX_POINT ( 'NONE', #211 ) ;
#220 =( NAMED_UNIT ( * ) PLANE_ANGLE_UNIT ( ) SI_UNIT ( $, .RADIAN. ) );
#221 = SPHERICAL_SURFACE ( 'NONE', #345, 0.09375000000000002776 ) ;
#222 = ADVANCED_FACE ( 'NONE', ( #251 ), #242, .T. ) ;
#223 = ORIENTED_EDGE ( 'NONE', *, *, #312, .F. ) ;
#224 = STYLED_ITEM ( 'NONE', ( #144 ), #253 ) ;
#225 = DIRECTION ( 'NONE',  ( -0.000000000000000000, -1.000000000000000000, -0.000000000000000000 ) ) ;
#226 = CARTESIAN_POINT ( 'NONE',  ( 0.09374999999999987510, 2.000000000000000000, 1.148106374200641089E-17 ) ) ;
#227 =( NAMED_UNIT ( * ) PLANE_ANGLE_UNIT ( ) SI_UNIT ( $, .RADIAN. ) );
#228 = FACE_OUTER_BOUND ( 'NONE', #92, .T. ) ;
#229 = AXIS2_PLACEMENT_3D ( 'NONE', #33, #151, #261 ) ;
#230 = PRESENTATION_LAYER_ASSIGNMENT (  '', '', ( #58 ) ) ;
#231 = SHAPE_DEFINITION_REPRESENTATION ( #126, #341 ) ;
#232 = CARTESIAN_POINT ( 'NONE',  ( 0.000000000000000000, 0.000000000000000000, 0.000000000000000000 ) ) ;
#233 = SURFACE_STYLE_FILL_AREA ( #41 ) ;
#234 = LENGTH_MEASURE_WITH_UNIT ( LENGTH_MEASURE( 0.02539999999999999897 ), #35 );
#235 = AXIS2_PLACEMENT_3D ( 'NONE', #89, #117, #56 ) ;
#236 = SURFACE_SIDE_STYLE ('',( #233 ) ) ;
#237 = DIRECTION ( 'NONE',  ( -0.000000000000000000, -1.000000000000000000, -0.000000000000000000 ) ) ;
#238 = FILL_AREA_STYLE_COLOUR ( '', #91 ) ;
#239 = CARTESIAN_POINT ( 'NONE',  ( 1.148106374200643247E-17, 0.3125000000000000000, 0.09374999999999997224 ) ) ;
#240 = DIRECTION ( 'NONE',  ( -1.222884531086113345E-16, 1.000000000000000000, -0.000000000000000000 ) ) ;
#241 = MECHANICAL_DESIGN_GEOMETRIC_PRESENTATION_REPRESENTATION (  '', ( #176 ), #103 ) ;
#242 = PLANE ( 'NONE',  #169 ) ;
#243 = VERTEX_POINT ( 'NONE', #173 ) ;
#244 = CARTESIAN_POINT ( 'NONE',  ( -0.09375000000000002776, 0.09375000000000004163, 1.148106374200643555E-17 ) ) ;
#245 = EDGE_CURVE ( 'NONE', #16, #212, #271, .T. ) ;
#246 = EDGE_LOOP ( 'NONE', ( #164, #43, #186, #277 ) ) ;
#247 = UNCERTAINTY_MEASURE_WITH_UNIT (LENGTH_MEASURE( 1.000000000000000082E-05 ), #264, 'distance_accuracy_value', 'NONE');
#248 = ORIENTED_EDGE ( 'NONE', *, *, #25, .T. ) ;
#249 = CIRCLE ( 'NONE', #90, 0.09375000000000002776 ) ;
#250 = COLOUR_RGB ( '',0.7921568627450980005, 0.8196078431372548767, 0.9333333333333333481 ) ;
#251 = FACE_OUTER_BOUND ( 'NONE', #338, .T. ) ;
#252 =( CONVERSION_BASED_UNIT ( 'INCH', #84 ) LENGTH_UNIT ( ) NAMED_UNIT ( #178 ) );
#253 = ADVANCED_FACE ( 'NONE', ( #228 ), #221, .T. ) ;
#254 =( GEOMETRIC_REPRESENTATION_CONTEXT ( 3 ) GLOBAL_UNCERTAINTY_ASSIGNED_CONTEXT ( ( #156 ) ) GLOBAL_UNIT_ASSIGNED_CONTEXT ( ( #145, #118, #306 ) ) REPRESENTATION_CONTEXT ( 'NONE', 'WORKASPACE' ) );
#255 = EDGE_CURVE ( 'NONE', #323, #354, #10, .T. ) ;
#256 = LENGTH_MEASURE_WITH_UNIT ( LENGTH_MEASURE( 0.02539999999999999897 ), #288 );
#257 = SURFACE_SIDE_STYLE ('',( #69 ) ) ;
#258 = MANIFOLD_SOLID_BREP ( 'Revolve - Cutting Edge', #27 ) ;
#259 = AXIS2_PLACEMENT_3D ( 'NONE', #200, #225, #372 ) ;
#260 = MANIFOLD_SOLID_BREP ( 'Revolve - Tool Body (Straight Shanked)', #303 ) ;
#261 = DIRECTION ( 'NONE',  ( 0.000000000000000000, 0.000000000000000000, -1.000000000000000000 ) ) ;
#262 = ADVANCED_FACE ( 'NONE', ( #6 ), #177, .T. ) ;
#263 = CARTESIAN_POINT ( 'NONE',  ( 0.000000000000000000, 0.3125000000000000000, 0.000000000000000000 ) ) ;
#264 =( CONVERSION_BASED_UNIT ( 'INCH', #181 ) LENGTH_UNIT ( ) NAMED_UNIT ( #44 ) );
#265 = STYLED_ITEM ( 'NONE', ( #274 ), #179 ) ;
#266 = PRESENTATION_STYLE_ASSIGNMENT (( #65 ) ) ;
#267 = CARTESIAN_POINT ( 'NONE',  ( 0.000000000000000000, 0.09375000000000004163, 0.000000000000000000 ) ) ;
#268 = PRESENTATION_STYLE_ASSIGNMENT (( #74 ) ) ;
#269 =( NAMED_UNIT ( * ) PLANE_ANGLE_UNIT ( ) SI_UNIT ( $, .RADIAN. ) );
#270 = ORIENTED_EDGE ( 'NONE', *, *, #366, .F. ) ;
#271 = CIRCLE ( 'NONE', #203, 0.09374999999999969469 ) ;
#272 =( NAMED_UNIT ( * ) PLANE_ANGLE_UNIT ( ) SI_UNIT ( $, .RADIAN. ) );
#273 = VECTOR ( 'NONE', #105, 39.37007874015748143 ) ;
#274 = PRESENTATION_STYLE_ASSIGNMENT (( #78 ) ) ;
#275 = SURFACE_STYLE_USAGE ( .BOTH. , #75 ) ;
#276 = DIRECTION ( 'NONE',  ( 0.000000000000000000, 0.000000000000000000, -1.000000000000000000 ) ) ;
#277 = ORIENTED_EDGE ( 'NONE', *, *, #312, .T. ) ;
#278 = AXIS2_PLACEMENT_3D ( 'NONE', #263, #64, #97 ) ;
#279 = CIRCLE ( 'NONE', #120, 0.09374999999999990286 ) ;
#280 = LENGTH_MEASURE_WITH_UNIT ( LENGTH_MEASURE( 0.02539999999999999897 ), #305 );
#281 = ORIENTED_EDGE ( 'NONE', *, *, #285, .F. ) ;
#282 = SURFACE_STYLE_FILL_AREA ( #142 ) ;
#283 = DIRECTION ( 'NONE',  ( 0.000000000000000000, 0.000000000000000000, 1.000000000000000000 ) ) ;
#284 = UNCERTAINTY_MEASURE_WITH_UNIT (LENGTH_MEASURE( 1.000000000000000082E-05 ), #3, 'distance_accuracy_value', 'NONE');
#285 = EDGE_CURVE ( 'NONE', #51, #323, #150, .T. ) ;
#286 = CIRCLE ( 'NONE', #324, 0.09374999999999998612 ) ;
#287 = AXIS2_PLACEMENT_3D ( 'NONE', #45, #187, #276 ) ;
#288 =( LENGTH_UNIT ( ) NAMED_UNIT ( * ) SI_UNIT ( $, .METRE. ) );
#289 = VERTEX_POINT ( 'NONE', #292 ) ;
#290 = PRODUCT_DEFINITION_FORMATION_WITH_SPECIFIED_SOURCE ( 'ANY', '', #95, .NOT_KNOWN. ) ;
#291 = CARTESIAN_POINT ( 'NONE',  ( 6.123233995736766036E-17, 2.000000000000000000, 0.000000000000000000 ) ) ;
#292 = CARTESIAN_POINT ( 'NONE',  ( 0.09374999999999998612, 0.09375000000000004163, 0.000000000000000000 ) ) ;
#293 = DIRECTION ( 'NONE',  ( -1.222884531086113345E-16, 1.000000000000000000, -0.000000000000000000 ) ) ;
#294 = EDGE_CURVE ( 'NONE', #46, #373, #279, .T. ) ;
#295 = CARTESIAN_POINT ( 'NONE',  ( -1.148106374200644017E-17, 0.09375000000000002776, 0.000000000000000000 ) ) ;
#296 = CIRCLE ( 'NONE', #138, 0.09374999999999998612 ) ;
#297 = PRESENTATION_LAYER_ASSIGNMENT (  '', '', ( #216 ) ) ;
#298 = DIMENSIONAL_EXPONENTS ( 1.000000000000000000, 0.000000000000000000, 0.000000000000000000, 0.000000000000000000, 0.000000000000000000, 0.000000000000000000, 0.000000000000000000 ) ;
#299 = CARTESIAN_POINT ( 'NONE',  ( -0.09374999999999943101, 0.3125000000000000000, 0.000000000000000000 ) ) ;
#300 = PRODUCT_RELATED_PRODUCT_CATEGORY ( 'part', '', ( #95 ) ) ;
#301 = FACE_OUTER_BOUND ( 'NONE', #246, .T. ) ;
#302 = CARTESIAN_POINT ( 'NONE',  ( 0.000000000000000000, 0.000000000000000000, -0.09374999999999998612 ) ) ;
#303 = CLOSED_SHELL ( 'NONE', ( #262, #184, #320, #99 ) ) ;
#304 = EDGE_LOOP ( 'NONE', ( #281, #81, #23, #357, #60 ) ) ;
#305 =( LENGTH_UNIT ( ) NAMED_UNIT ( * ) SI_UNIT ( $, .METRE. ) );
#306 =( NAMED_UNIT ( * ) SI_UNIT ( $, .STERADIAN. ) SOLID_ANGLE_UNIT ( ) );
#307 = SURFACE_SIDE_STYLE ('',( #146 ) ) ;
#308 = ADVANCED_FACE ( 'NONE', ( #315 ), #153, .T. ) ;
#309 = DIRECTION ( 'NONE',  ( -1.222884531086113345E-16, 1.000000000000000000, -0.000000000000000000 ) ) ;
#310 = STYLED_ITEM ( 'NONE', ( #26 ), #258 ) ;
#311 = DIRECTION ( 'NONE',  ( 0.000000000000000000, 0.000000000000000000, 1.000000000000000000 ) ) ;
#312 = EDGE_CURVE ( 'NONE', #289, #55, #131, .T. ) ;
#313 = CARTESIAN_POINT ( 'NONE',  ( 1.148106374200643401E-17, 0.000000000000000000, 0.09374999999999998612 ) ) ;
#314 = CARTESIAN_POINT ( 'NONE',  ( -5.740531871003220085E-18, 0.000000000000000000, 0.000000000000000000 ) ) ;
#315 = FACE_OUTER_BOUND ( 'NONE', #304, .T. ) ;
#316 = AXIS2_PLACEMENT_3D ( 'NONE', #358, #104, #108 ) ;
#317 = COLOUR_RGB ( '',1.000000000000000000, 0.000000000000000000, 0.000000000000000000 ) ;
#318 = DIMENSIONAL_EXPONENTS ( 1.000000000000000000, 0.000000000000000000, 0.000000000000000000, 0.000000000000000000, 0.000000000000000000, 0.000000000000000000, 0.000000000000000000 ) ;
#319 = SURFACE_SIDE_STYLE ('',( #282 ) ) ;
#320 = ADVANCED_FACE ( 'NONE', ( #355 ), #52, .T. ) ;
#321 = ORIENTED_EDGE ( 'NONE', *, *, #13, .T. ) ;
#322 = CYLINDRICAL_SURFACE ( 'NONE', #287, 0.09374999999999998612 ) ;
#323 = VERTEX_POINT ( 'NONE', #210 ) ;
#324 = AXIS2_PLACEMENT_3D ( 'NONE', #267, #237, #347 ) ;
#325 = PRESENTATION_LAYER_ASSIGNMENT (  '', '', ( #310 ) ) ;
#326 =( LENGTH_UNIT ( ) NAMED_UNIT ( * ) SI_UNIT ( $, .METRE. ) );
#327 = ORIENTED_EDGE ( 'NONE', *, *, #245, .F. ) ;
#328 = CARTESIAN_POINT ( 'NONE',  ( 0.000000000000000000, 0.3125000000000000000, 0.000000000000000000 ) ) ;
#329 = CARTESIAN_POINT ( 'NONE',  ( 2.675941045781492611E-16, 0.3125000000000000000, 0.000000000000000000 ) ) ;
#330 = ORIENTED_EDGE ( 'NONE', *, *, #122, .F. ) ;
#331 =( GEOMETRIC_REPRESENTATION_CONTEXT ( 3 ) GLOBAL_UNCERTAINTY_ASSIGNED_CONTEXT ( ( #11 ) ) GLOBAL_UNIT_ASSIGNED_CONTEXT ( ( #252, #220, #196 ) ) REPRESENTATION_CONTEXT ( 'NONE', 'WORKASPACE' ) );
#332 = DIRECTION ( 'NONE',  ( -1.222884531086113345E-16, 1.000000000000000000, -0.000000000000000000 ) ) ;
#333 = FILL_AREA_STYLE ('',( #32 ) ) ;
#334 = DIRECTION ( 'NONE',  ( -1.222884531086113345E-16, 1.000000000000000000, -0.000000000000000000 ) ) ;
#335 = DIRECTION ( 'NONE',  ( -1.000000000000000000, 0.000000000000000000, 0.000000000000000000 ) ) ;
#336 = CIRCLE ( 'NONE', #229, 0.09374999999999997224 ) ;
#337 = AXIS2_PLACEMENT_3D ( 'NONE', #291, #100, #8 ) ;
#338 = EDGE_LOOP ( 'NONE', ( #115, #109 ) ) ;
#339 = APPLICATION_CONTEXT ( 'automotive_design' ) ;
#340 = EDGE_CURVE ( 'NONE', #212, #46, #350, .T. ) ;
#341 = ADVANCED_BREP_SHAPE_REPRESENTATION ( '56077', ( #258, #260, #34 ), #331 ) ;
#342 = CARTESIAN_POINT ( 'NONE',  ( -1.148106374200644017E-17, 0.09375000000000002776, 0.000000000000000000 ) ) ;
#343 =( NAMED_UNIT ( * ) PLANE_ANGLE_UNIT ( ) SI_UNIT ( $, .RADIAN. ) );
#344 = ADVANCED_FACE ( 'NONE', ( #301 ), #133, .T. ) ;
#345 = AXIS2_PLACEMENT_3D ( 'NONE', #367, #88, #54 ) ;
#346 = SURFACE_STYLE_USAGE ( .BOTH. , #236 ) ;
#347 = DIRECTION ( 'NONE',  ( 0.000000000000000000, 0.000000000000000000, -1.000000000000000000 ) ) ;
#348 =( NAMED_UNIT ( * ) PLANE_ANGLE_UNIT ( ) SI_UNIT ( $, .RADIAN. ) );
#349 = UNCERTAINTY_MEASURE_WITH_UNIT (LENGTH_MEASURE( 1.000000000000000082E-05 ), #20, 'distance_accuracy_value', 'NONE');
#350 = LINE ( 'NONE', #129, #273 ) ;
#351 = CARTESIAN_POINT ( 'NONE',  ( 0.000000000000000000, 0.09375000000000004163, 0.000000000000000000 ) ) ;
#352 = AXIS2_PLACEMENT_3D ( 'NONE', #128, #283, #14 ) ;
#353 = APPLICATION_PROTOCOL_DEFINITION ( 'draft international standard', 'automotive_design', 1998, #36 ) ;
#354 = VERTEX_POINT ( 'NONE', #244 ) ;
#355 = FACE_OUTER_BOUND ( 'NONE', #15, .T. ) ;
#356 = LENGTH_MEASURE_WITH_UNIT ( LENGTH_MEASURE( 0.02539999999999999897 ), #326 );
#357 = ORIENTED_EDGE ( 'NONE', *, *, #163, .F. ) ;
#358 = CARTESIAN_POINT ( 'NONE',  ( 0.000000000000000000, 0.09375000000000004163, 0.000000000000000000 ) ) ;
#359 = ORIENTED_EDGE ( 'NONE', *, *, #340, .F. ) ;
#360 = AXIS2_PLACEMENT_3D ( 'NONE', #208, #67, #182 ) ;
#361 = UNCERTAINTY_MEASURE_WITH_UNIT (LENGTH_MEASURE( 1.000000000000000082E-05 ), #141, 'distance_accuracy_value', 'NONE');
#362 = CIRCLE ( 'NONE', #278, 0.09374999999999997224 ) ;
#363 = MECHANICAL_DESIGN_GEOMETRIC_PRESENTATION_REPRESENTATION (  '', ( #58 ), #140 ) ;
#364 = CIRCLE ( 'NONE', #170, 0.09374999999999969469 ) ;
#365 =( NAMED_UNIT ( * ) SI_UNIT ( $, .STERADIAN. ) SOLID_ANGLE_UNIT ( ) );
#366 = EDGE_CURVE ( 'NONE', #212, #16, #364, .T. ) ;
#367 = CARTESIAN_POINT ( 'NONE',  ( -1.148106374200644017E-17, 0.09375000000000002776, 0.000000000000000000 ) ) ;
#368 =( LENGTH_UNIT ( ) NAMED_UNIT ( * ) SI_UNIT ( $, .METRE. ) );
#369 = COLOUR_RGB ( '',1.000000000000000000, 0.000000000000000000, 0.000000000000000000 ) ;
#370 = SURFACE_SIDE_STYLE ('',( #61 ) ) ;
#371 = PRODUCT_DEFINITION_CONTEXT ( 'detailed design', #339, 'design' ) ;
#372 = DIRECTION ( 'NONE',  ( 0.000000000000000000, 0.000000000000000000, -1.000000000000000000 ) ) ;
#373 = VERTEX_POINT ( 'NONE', #102 ) ;
ENDSEC;
END-ISO-10303-21;
