ISO-10303-21;
HEADER;
FILE_DESCRIPTION (( 'STEP AP214' ),
    '1' );
FILE_NAME ('Micro_GEM-001-4.STEP',
    '2021-09-01T18:44:05',
    ( '' ),
    ( '' ),
    'SwSTEP 2.0',
    'SolidWorks 2020',
    '' );
FILE_SCHEMA (( 'AUTOMOTIVE_DESIGN' ));
ENDSEC;

DATA;
#1 = DIRECTION ( 'NONE',  ( 0.7071067811865443531, 8.659560562354894648E-17, -0.7071067811865507924 ) ) ;
#2 = LENGTH_MEASURE_WITH_UNIT ( LENGTH_MEASURE( 0.02539999999999999897 ), #144 );
#3 = ORIENTED_EDGE ( 'NONE', *, *, #116, .T. ) ;
#4 = DIRECTION ( 'NONE',  ( -1.000000000000000000, 0.0000000000000000000, 0.0000000000000000000 ) ) ;
#5 = PRODUCT_DEFINITION ( 'UNKNOWN', '', #251, #120 ) ;
#6 = EDGE_LOOP ( 'NONE', ( #264, #109, #176, #205 ) ) ;
#7 = CARTESIAN_POINT ( 'NONE',  ( 1.836970198721030181E-16, 0.0000000000000000000, 1.500000000000000222 ) ) ;
#8 = CIRCLE ( 'NONE', #40, 0.4994999999999999996 ) ;
#9 = ORIENTED_EDGE ( 'NONE', *, *, #138, .T. ) ;
#10 = APPLICATION_PROTOCOL_DEFINITION ( 'draft international standard', 'automotive_design', 1998, #256 ) ;
#11 = EDGE_CURVE ( 'NONE', #24, #165, #233, .T. ) ;
#12 = AXIS2_PLACEMENT_3D ( 'NONE', #186, #72, #20 ) ;
#13 = STYLED_ITEM ( 'NONE', ( #152 ), #294 ) ;
#14 = FACE_OUTER_BOUND ( 'NONE', #260, .T. ) ;
#15 = EDGE_LOOP ( 'NONE', ( #29, #88, #66, #240 ) ) ;
#16 = CIRCLE ( 'NONE', #192, 0.5000000000000000000 ) ;
#17 = PRODUCT ( 'Micro_GEM-001-4', 'Micro_GEM-001-4', '', ( #172 ) ) ;
#18 = DIRECTION ( 'NONE',  ( 0.0000000000000000000, 0.0000000000000000000, 1.000000000000000000 ) ) ;
#19 = ORIENTED_EDGE ( 'NONE', *, *, #11, .F. ) ;
#20 = DIRECTION ( 'NONE',  ( 1.000000000000000000, 0.0000000000000000000, 0.0000000000000000000 ) ) ;
#21 = VERTEX_POINT ( 'NONE', #101 ) ;
#22 = LINE ( 'NONE', #70, #178 ) ;
#23 = DIRECTION ( 'NONE',  ( 1.000000000000000000, 0.0000000000000000000, 0.0000000000000000000 ) ) ;
#24 = VERTEX_POINT ( 'NONE', #148 ) ;
#25 = DIRECTION ( 'NONE',  ( -1.224646799147353207E-16, -0.0000000000000000000, -1.000000000000000000 ) ) ;
#26 = VECTOR ( 'NONE', #1, 39.37007874015748143 ) ;
#27 = CYLINDRICAL_SURFACE ( 'NONE', #239, 0.4994999999999999996 ) ;
#28 = EDGE_CURVE ( 'NONE', #249, #52, #274, .T. ) ;
#29 = ORIENTED_EDGE ( 'NONE', *, *, #235, .T. ) ;
#30 = DIRECTION ( 'NONE',  ( -1.224646799147353207E-16, -0.0000000000000000000, -1.000000000000000000 ) ) ;
#31 = ORIENTED_EDGE ( 'NONE', *, *, #221, .F. ) ;
#32 = CARTESIAN_POINT ( 'NONE',  ( 0.0000000000000000000, 0.0000000000000000000, 0.0000000000000000000 ) ) ;
#33 = CIRCLE ( 'NONE', #95, 0.4994999999999999996 ) ;
#34 = VERTEX_POINT ( 'NONE', #284 ) ;
#35 = CLOSED_SHELL ( 'NONE', ( #111, #156, #190, #171, #62, #201, #151, #87, #59, #216 ) ) ;
#36 = SHAPE_DEFINITION_REPRESENTATION ( #146, #294 ) ;
#37 = EDGE_CURVE ( 'NONE', #52, #90, #257, .T. ) ;
#38 = ORIENTED_EDGE ( 'NONE', *, *, #270, .F. ) ;
#39 = PRODUCT_RELATED_PRODUCT_CATEGORY ( 'part', '', ( #17 ) ) ;
#40 = AXIS2_PLACEMENT_3D ( 'NONE', #182, #75, #275 ) ;
#41 = ORIENTED_EDGE ( 'NONE', *, *, #100, .F. ) ;
#42 = DIRECTION ( 'NONE',  ( -1.224646799147353207E-16, -0.0000000000000000000, -1.000000000000000000 ) ) ;
#43 = SURFACE_SIDE_STYLE ('',( #121 ) ) ;
#44 = ORIENTED_EDGE ( 'NONE', *, *, #290, .F. ) ;
#45 = DIRECTION ( 'NONE',  ( -1.000000000000000000, 0.0000000000000000000, 0.0000000000000000000 ) ) ;
#46 = PRESENTATION_LAYER_ASSIGNMENT (  '', '', ( #174 ) ) ;
#47 = FACE_OUTER_BOUND ( 'NONE', #108, .T. ) ;
#48 = DIRECTION ( 'NONE',  ( 1.000000000000000000, 0.0000000000000000000, -0.0000000000000000000 ) ) ;
#49 = DIRECTION ( 'NONE',  ( 1.000000000000000000, 0.0000000000000000000, 0.0000000000000000000 ) ) ;
#50 = DIRECTION ( 'NONE',  ( -0.0000000000000000000, -0.0000000000000000000, -1.000000000000000000 ) ) ;
#51 = CARTESIAN_POINT ( 'NONE',  ( 0.0000000000000000000, 0.0000000000000000000, 3.985000000000000764 ) ) ;
#52 = VERTEX_POINT ( 'NONE', #217 ) ;
#53 = AXIS2_PLACEMENT_3D ( 'NONE', #147, #136, #188 ) ;
#54 =( CONVERSION_BASED_UNIT ( 'INCH', #238 ) LENGTH_UNIT ( ) NAMED_UNIT ( #126 ) );
#55 = CARTESIAN_POINT ( 'NONE',  ( 0.5000000000000000000, 6.123233995736766036E-17, 4.000000000000000000 ) ) ;
#56 = CARTESIAN_POINT ( 'NONE',  ( 0.0000000000000000000, 0.0000000000000000000, 4.000000000000000000 ) ) ;
#57 = UNCERTAINTY_MEASURE_WITH_UNIT (LENGTH_MEASURE( 1.000000000000000082E-05 ), #122, 'distance_accuracy_value', 'NONE');
#58 = ORIENTED_EDGE ( 'NONE', *, *, #235, .F. ) ;
#59 = ADVANCED_FACE ( 'NONE', ( #139 ), #288, .T. ) ;
#60 = VECTOR ( 'NONE', #50, 39.37007874015748143 ) ;
#61 = DIMENSIONAL_EXPONENTS ( 1.000000000000000000, 0.0000000000000000000, 0.0000000000000000000, 0.0000000000000000000, 0.0000000000000000000, 0.0000000000000000000, 0.0000000000000000000 ) ;
#62 = ADVANCED_FACE ( 'NONE', ( #71 ), #196, .T. ) ;
#63 = AXIS2_PLACEMENT_3D ( 'NONE', #56, #279, #45 ) ;
#64 = CARTESIAN_POINT ( 'NONE',  ( 1.836970198721030181E-16, 0.0000000000000000000, 1.500000000000000222 ) ) ;
#65 = DIRECTION ( 'NONE',  ( 0.0000000000000000000, 0.0000000000000000000, -1.000000000000000000 ) ) ;
#66 = ORIENTED_EDGE ( 'NONE', *, *, #138, .F. ) ;
#67 = DIRECTION ( 'NONE',  ( 0.0000000000000000000, 0.0000000000000000000, -1.000000000000000000 ) ) ;
#68 = FACE_OUTER_BOUND ( 'NONE', #15, .T. ) ;
#69 = ORIENTED_EDGE ( 'NONE', *, *, #270, .T. ) ;
#70 = CARTESIAN_POINT ( 'NONE',  ( 0.4994999999999999996, 6.117110761741029900E-17, -6.117110761741029900E-17 ) ) ;
#71 = FACE_OUTER_BOUND ( 'NONE', #6, .T. ) ;
#72 = DIRECTION ( 'NONE',  ( 0.0000000000000000000, 0.0000000000000000000, 1.000000000000000000 ) ) ;
#73 = CARTESIAN_POINT ( 'NONE',  ( 0.4995000000000002216, 0.0000000000000000000, 1.500000000000000222 ) ) ;
#74 = EDGE_CURVE ( 'NONE', #52, #252, #220, .T. ) ;
#75 = DIRECTION ( 'NONE',  ( -1.224646799147353207E-16, -0.0000000000000000000, -1.000000000000000000 ) ) ;
#76 = ORIENTED_EDGE ( 'NONE', *, *, #28, .F. ) ;
#77 = CARTESIAN_POINT ( 'NONE',  ( 0.0000000000000000000, 0.0000000000000000000, 0.0000000000000000000 ) ) ;
#78 = DIRECTION ( 'NONE',  ( 0.0000000000000000000, 0.0000000000000000000, 1.000000000000000000 ) ) ;
#79 =( NAMED_UNIT ( * ) SI_UNIT ( $, .STERADIAN. ) SOLID_ANGLE_UNIT ( ) );
#80 = MANIFOLD_SOLID_BREP ( 'Cut-Revolve1', #35 ) ;
#81 =( LENGTH_UNIT ( ) NAMED_UNIT ( * ) SI_UNIT ( $, .METRE. ) );
#82 = CONICAL_SURFACE ( 'NONE', #199, 0.4994999999999999996, 0.1745329251994338915 ) ;
#83 =( NAMED_UNIT ( * ) PLANE_ANGLE_UNIT ( ) SI_UNIT ( $, .RADIAN. ) );
#84 = EDGE_CURVE ( 'NONE', #90, #165, #292, .T. ) ;
#85 = AXIS2_PLACEMENT_3D ( 'NONE', #137, #189, #208 ) ;
#86 = DIRECTION ( 'NONE',  ( 0.1736481776669313859, 0.0000000000000000000, 0.9848077530122077983 ) ) ;
#87 = ADVANCED_FACE ( 'NONE', ( #47 ), #255, .T. ) ;
#88 = ORIENTED_EDGE ( 'NONE', *, *, #175, .T. ) ;
#89 = CIRCLE ( 'NONE', #287, 0.4994999999999999996 ) ;
#90 = VERTEX_POINT ( 'NONE', #142 ) ;
#91 = VERTEX_POINT ( 'NONE', #167 ) ;
#92 =( LENGTH_UNIT ( ) NAMED_UNIT ( * ) SI_UNIT ( $, .METRE. ) );
#93 = VERTEX_POINT ( 'NONE', #73 ) ;
#94 = PLANE ( 'NONE',  #299 ) ;
#95 = AXIS2_PLACEMENT_3D ( 'NONE', #130, #42, #132 ) ;
#96 = CARTESIAN_POINT ( 'NONE',  ( 0.0000000000000000000, 0.0000000000000000000, 4.000000000000000000 ) ) ;
#97 = DIRECTION ( 'NONE',  ( -0.0000000000000000000, -0.0000000000000000000, -1.000000000000000000 ) ) ;
#98 =( NAMED_UNIT ( * ) PLANE_ANGLE_UNIT ( ) SI_UNIT ( $, .RADIAN. ) );
#99 = ORIENTED_EDGE ( 'NONE', *, *, #159, .T. ) ;
#100 = EDGE_CURVE ( 'NONE', #249, #91, #289, .T. ) ;
#101 = CARTESIAN_POINT ( 'NONE',  ( -0.4994999999999999996, 0.0000000000000000000, 1.223422152348205980E-16 ) ) ;
#102 = LINE ( 'NONE', #115, #298 ) ;
#103 = DIRECTION ( 'NONE',  ( -0.1736481776669311916, 2.126576849575783316E-17, 0.9848077530122080203 ) ) ;
#104 =( NAMED_UNIT ( * ) SI_UNIT ( $, .STERADIAN. ) SOLID_ANGLE_UNIT ( ) );
#105 = EDGE_CURVE ( 'NONE', #165, #90, #271, .T. ) ;
#106 = DIRECTION ( 'NONE',  ( -1.000000000000000000, 0.0000000000000000000, 1.224646799147353454E-16 ) ) ;
#107 = APPLICATION_PROTOCOL_DEFINITION ( 'draft international standard', 'automotive_design', 1998, #211 ) ;
#108 = EDGE_LOOP ( 'NONE', ( #19, #281, #3, #135 ) ) ;
#109 = ORIENTED_EDGE ( 'NONE', *, *, #74, .T. ) ;
#110 = LINE ( 'NONE', #202, #184 ) ;
#111 = ADVANCED_FACE ( 'NONE', ( #68 ), #27, .T. ) ;
#112 =( GEOMETRIC_REPRESENTATION_CONTEXT ( 3 ) GLOBAL_UNCERTAINTY_ASSIGNED_CONTEXT ( ( #286 ) ) GLOBAL_UNIT_ASSIGNED_CONTEXT ( ( #54, #98, #278 ) ) REPRESENTATION_CONTEXT ( 'NONE', 'WORKASPACE' ) );
#113 =( GEOMETRIC_REPRESENTATION_CONTEXT ( 3 ) GLOBAL_UNCERTAINTY_ASSIGNED_CONTEXT ( ( #213 ) ) GLOBAL_UNIT_ASSIGNED_CONTEXT ( ( #195, #83, #104 ) ) REPRESENTATION_CONTEXT ( 'NONE', 'WORKASPACE' ) );
#114 = CARTESIAN_POINT ( 'NONE',  ( 0.0000000000000000000, 0.0000000000000000000, 0.0000000000000000000 ) ) ;
#115 = CARTESIAN_POINT ( 'NONE',  ( -0.4850000000000009859, 0.0000000000000000000, 4.000000000000000000 ) ) ;
#116 = EDGE_CURVE ( 'NONE', #93, #90, #110, .T. ) ;
#117 = DIRECTION ( 'NONE',  ( -1.000000000000000000, 0.0000000000000000000, 1.224646799147353454E-16 ) ) ;
#118 = DIRECTION ( 'NONE',  ( -1.000000000000000000, 0.0000000000000000000, 0.0000000000000000000 ) ) ;
#119 = COLOUR_RGB ( '',0.7921568627450980005, 0.8196078431372548767, 0.9333333333333333481 ) ;
#120 = PRODUCT_DEFINITION_CONTEXT ( 'detailed design', #211, 'design' ) ;
#121 = SURFACE_STYLE_FILL_AREA ( #164 ) ;
#122 =( CONVERSION_BASED_UNIT ( 'INCH', #2 ) LENGTH_UNIT ( ) NAMED_UNIT ( #223 ) );
#123 = ORIENTED_EDGE ( 'NONE', *, *, #100, .T. ) ;
#124 = FACE_OUTER_BOUND ( 'NONE', #200, .T. ) ;
#125 = MECHANICAL_DESIGN_GEOMETRIC_PRESENTATION_REPRESENTATION (  '', ( #13 ), #113 ) ;
#126 = DIMENSIONAL_EXPONENTS ( 1.000000000000000000, 0.0000000000000000000, 0.0000000000000000000, 0.0000000000000000000, 0.0000000000000000000, 0.0000000000000000000, 0.0000000000000000000 ) ;
#127 = DIRECTION ( 'NONE',  ( -0.0000000000000000000, -0.0000000000000000000, -1.000000000000000000 ) ) ;
#128 = VECTOR ( 'NONE', #97, 39.37007874015748143 ) ;
#129 = LENGTH_MEASURE_WITH_UNIT ( LENGTH_MEASURE( 0.02539999999999999897 ), #81 );
#130 = CARTESIAN_POINT ( 'NONE',  ( 7.491300114395979244E-33, 0.0000000000000000000, 6.117110761741029900E-17 ) ) ;
#131 = CONICAL_SURFACE ( 'NONE', #53, 0.4850000000000009859, 0.7853981633974437271 ) ;
#132 = DIRECTION ( 'NONE',  ( -1.000000000000000000, 0.0000000000000000000, 1.224646799147353454E-16 ) ) ;
#133 = ORIENTED_EDGE ( 'NONE', *, *, #290, .T. ) ;
#134 = DIRECTION ( 'NONE',  ( 1.000000000000000000, 0.0000000000000000000, 0.0000000000000000000 ) ) ;
#135 = ORIENTED_EDGE ( 'NONE', *, *, #84, .T. ) ;
#136 = DIRECTION ( 'NONE',  ( 0.0000000000000000000, 0.0000000000000000000, -1.000000000000000000 ) ) ;
#137 = CARTESIAN_POINT ( 'NONE',  ( 1.836970198721030181E-16, 0.0000000000000000000, 1.500000000000000222 ) ) ;
#138 = EDGE_CURVE ( 'NONE', #21, #34, #33, .T. ) ;
#139 = FACE_OUTER_BOUND ( 'NONE', #214, .T. ) ;
#140 = CARTESIAN_POINT ( 'NONE',  ( 7.491300114395979244E-33, 0.0000000000000000000, 6.117110761741029900E-17 ) ) ;
#141 = FILL_AREA_STYLE_COLOUR ( '', #119 ) ;
#142 = CARTESIAN_POINT ( 'NONE',  ( 0.5000000000000002220, 6.123233995736768501E-17, 1.502835640909808923 ) ) ;
#143 = VECTOR ( 'NONE', #194, 39.37007874015748143 ) ;
#144 =( LENGTH_UNIT ( ) NAMED_UNIT ( * ) SI_UNIT ( $, .METRE. ) );
#145 = AXIS2_PLACEMENT_3D ( 'NONE', #32, #78, #268 ) ;
#146 = PRODUCT_DEFINITION_SHAPE ( 'NONE', 'NONE',  #5 ) ;
#147 = CARTESIAN_POINT ( 'NONE',  ( 0.0000000000000000000, 0.0000000000000000000, 4.000000000000000000 ) ) ;
#148 = CARTESIAN_POINT ( 'NONE',  ( -0.4994999999999998330, 6.120172378738898584E-17, 1.500000000000000222 ) ) ;
#149 = ORIENTED_EDGE ( 'NONE', *, *, #105, .T. ) ;
#150 = AXIS2_PLACEMENT_3D ( 'NONE', #237, #261, #48 ) ;
#151 = ADVANCED_FACE ( 'NONE', ( #227 ), #246, .T. ) ;
#152 = PRESENTATION_STYLE_ASSIGNMENT (( #197 ) ) ;
#153 = CIRCLE ( 'NONE', #173, 0.4994999999999999996 ) ;
#154 = ORIENTED_EDGE ( 'NONE', *, *, #169, .T. ) ;
#155 = AXIS2_PLACEMENT_3D ( 'NONE', #283, #273, #280 ) ;
#156 = ADVANCED_FACE ( 'NONE', ( #14 ), #82, .T. ) ;
#157 = DIRECTION ( 'NONE',  ( 1.224646799147353207E-16, 0.0000000000000000000, 1.000000000000000000 ) ) ;
#158 = DIRECTION ( 'NONE',  ( -1.224646799147353207E-16, -0.0000000000000000000, -1.000000000000000000 ) ) ;
#159 = EDGE_CURVE ( 'NONE', #24, #21, #215, .T. ) ;
#160 = DIRECTION ( 'NONE',  ( -1.224646799147353207E-16, -0.0000000000000000000, -1.000000000000000000 ) ) ;
#161 =( GEOMETRIC_REPRESENTATION_CONTEXT ( 3 ) GLOBAL_UNCERTAINTY_ASSIGNED_CONTEXT ( ( #57 ) ) GLOBAL_UNIT_ASSIGNED_CONTEXT ( ( #122, #282, #79 ) ) REPRESENTATION_CONTEXT ( 'NONE', 'WORKASPACE' ) );
#162 = EDGE_LOOP ( 'NONE', ( #133, #248, #181, #236 ) ) ;
#163 = FACE_OUTER_BOUND ( 'NONE', #231, .T. ) ;
#164 = FILL_AREA_STYLE ('',( #141 ) ) ;
#165 = VERTEX_POINT ( 'NONE', #258 ) ;
#166 = FACE_OUTER_BOUND ( 'NONE', #162, .T. ) ;
#167 = CARTESIAN_POINT ( 'NONE',  ( -0.4850000000000009859, 0.0000000000000000000, 4.000000000000000000 ) ) ;
#168 = DIRECTION ( 'NONE',  ( 1.000000000000000000, 0.0000000000000000000, -0.0000000000000000000 ) ) ;
#169 = EDGE_CURVE ( 'NONE', #93, #24, #8, .T. ) ;
#170 = SURFACE_STYLE_FILL_AREA ( #218 ) ;
#171 = ADVANCED_FACE ( 'NONE', ( #166 ), #191, .T. ) ;
#172 = PRODUCT_CONTEXT ( 'NONE', #256, 'mechanical' ) ;
#173 = AXIS2_PLACEMENT_3D ( 'NONE', #7, #25, #118 ) ;
#174 = STYLED_ITEM ( 'NONE', ( #262 ), #80 ) ;
#175 = EDGE_CURVE ( 'NONE', #93, #34, #22, .T. ) ;
#176 = ORIENTED_EDGE ( 'NONE', *, *, #291, .T. ) ;
#177 = DIRECTION ( 'NONE',  ( 0.0000000000000000000, 0.0000000000000000000, -1.000000000000000000 ) ) ;
#178 = VECTOR ( 'NONE', #30, 39.37007874015748143 ) ;
#179 = ORIENTED_EDGE ( 'NONE', *, *, #221, .T. ) ;
#180 = ORIENTED_EDGE ( 'NONE', *, *, #116, .F. ) ;
#181 = ORIENTED_EDGE ( 'NONE', *, *, #105, .F. ) ;
#182 = CARTESIAN_POINT ( 'NONE',  ( 1.836970198721030181E-16, 0.0000000000000000000, 1.500000000000000222 ) ) ;
#183 = SURFACE_STYLE_USAGE ( .BOTH. , #43 ) ;
#184 = VECTOR ( 'NONE', #86, 39.37007874015748143 ) ;
#185 = CARTESIAN_POINT ( 'NONE',  ( -0.4994999999999998330, 6.117110761741029900E-17, 1.500000000000000222 ) ) ;
#186 = CARTESIAN_POINT ( 'NONE',  ( 0.0000000000000000000, 0.0000000000000000000, 4.000000000000000000 ) ) ;
#187 = DIRECTION ( 'NONE',  ( 1.000000000000000000, 0.0000000000000000000, 0.0000000000000000000 ) ) ;
#188 = DIRECTION ( 'NONE',  ( -1.000000000000000000, 0.0000000000000000000, 0.0000000000000000000 ) ) ;
#189 = DIRECTION ( 'NONE',  ( 1.224646799147353207E-16, 0.0000000000000000000, 1.000000000000000000 ) ) ;
#190 = ADVANCED_FACE ( 'NONE', ( #265 ), #131, .T. ) ;
#191 = CYLINDRICAL_SURFACE ( 'NONE', #63, 0.5000000000000000000 ) ;
#192 = AXIS2_PLACEMENT_3D ( 'NONE', #206, #67, #207 ) ;
#193 = CARTESIAN_POINT ( 'NONE',  ( 0.4850000000000009859, 5.939536975864675788E-17, 4.000000000000000000 ) ) ;
#194 = DIRECTION ( 'NONE',  ( -1.224646799147353207E-16, -0.0000000000000000000, -1.000000000000000000 ) ) ;
#195 =( CONVERSION_BASED_UNIT ( 'INCH', #129 ) LENGTH_UNIT ( ) NAMED_UNIT ( #61 ) );
#196 = CYLINDRICAL_SURFACE ( 'NONE', #203, 0.5000000000000000000 ) ;
#197 = SURFACE_STYLE_USAGE ( .BOTH. , #266 ) ;
#198 = CARTESIAN_POINT ( 'NONE',  ( 0.0000000000000000000, 0.0000000000000000000, 4.000000000000000000 ) ) ;
#199 = AXIS2_PLACEMENT_3D ( 'NONE', #64, #157, #134 ) ;
#200 = EDGE_LOOP ( 'NONE', ( #9, #179 ) ) ;
#201 = ADVANCED_FACE ( 'NONE', ( #163 ), #94, .T. ) ;
#202 = CARTESIAN_POINT ( 'NONE',  ( 0.4995000000000002216, 0.0000000000000000000, 1.500000000000000222 ) ) ;
#203 = AXIS2_PLACEMENT_3D ( 'NONE', #198, #127, #4 ) ;
#204 = EDGE_LOOP ( 'NONE', ( #76, #38, #242, #212 ) ) ;
#205 = ORIENTED_EDGE ( 'NONE', *, *, #84, .F. ) ;
#206 = CARTESIAN_POINT ( 'NONE',  ( 0.0000000000000000000, 0.0000000000000000000, 3.985000000000000764 ) ) ;
#207 = DIRECTION ( 'NONE',  ( 1.000000000000000000, 0.0000000000000000000, 0.0000000000000000000 ) ) ;
#208 = DIRECTION ( 'NONE',  ( 1.000000000000000000, 0.0000000000000000000, 0.0000000000000000000 ) ) ;
#209 = COLOUR_RGB ( '',0.7921568627450980005, 0.8196078431372548767, 0.9333333333333333481 ) ;
#210 = DIRECTION ( 'NONE',  ( -0.7071067811865443531, 0.0000000000000000000, -0.7071067811865507924 ) ) ;
#211 = APPLICATION_CONTEXT ( 'automotive_design' ) ;
#212 = ORIENTED_EDGE ( 'NONE', *, *, #74, .F. ) ;
#213 = UNCERTAINTY_MEASURE_WITH_UNIT (LENGTH_MEASURE( 1.000000000000000082E-05 ), #195, 'distance_accuracy_value', 'NONE');
#214 = EDGE_LOOP ( 'NONE', ( #272, #154, #99, #31 ) ) ;
#215 = LINE ( 'NONE', #297, #143 ) ;
#216 = ADVANCED_FACE ( 'NONE', ( #124 ), #285, .F. ) ;
#217 = CARTESIAN_POINT ( 'NONE',  ( 0.5000000000000000000, 6.123233995736766036E-17, 3.985000000000000764 ) ) ;
#218 = FILL_AREA_STYLE ('',( #222 ) ) ;
#219 = ORIENTED_EDGE ( 'NONE', *, *, #276, .F. ) ;
#220 = CIRCLE ( 'NONE', #269, 0.5000000000000000000 ) ;
#221 = EDGE_CURVE ( 'NONE', #34, #21, #89, .T. ) ;
#222 = FILL_AREA_STYLE_COLOUR ( '', #209 ) ;
#223 = DIMENSIONAL_EXPONENTS ( 1.000000000000000000, 0.0000000000000000000, 0.0000000000000000000, 0.0000000000000000000, 0.0000000000000000000, 0.0000000000000000000, 0.0000000000000000000 ) ;
#224 = EDGE_LOOP ( 'NONE', ( #41, #253, #44, #219 ) ) ;
#225 = CARTESIAN_POINT ( 'NONE',  ( 0.0000000000000000000, 0.0000000000000000000, 4.000000000000000000 ) ) ;
#226 = AXIS2_PLACEMENT_3D ( 'NONE', #96, #18, #187 ) ;
#227 = FACE_OUTER_BOUND ( 'NONE', #204, .T. ) ;
#228 = DIRECTION ( 'NONE',  ( -1.000000000000000000, 0.0000000000000000000, 0.0000000000000000000 ) ) ;
#229 = MECHANICAL_DESIGN_GEOMETRIC_PRESENTATION_REPRESENTATION (  '', ( #174 ), #112 ) ;
#230 = CARTESIAN_POINT ( 'NONE',  ( 1.840442857284758427E-16, 0.0000000000000000000, 1.502835640909808923 ) ) ;
#231 = EDGE_LOOP ( 'NONE', ( #69, #123 ) ) ;
#232 = DIRECTION ( 'NONE',  ( -1.000000000000000000, 0.0000000000000000000, 1.224646799147353454E-16 ) ) ;
#233 = LINE ( 'NONE', #185, #277 ) ;
#234 = CARTESIAN_POINT ( 'NONE',  ( 0.0000000000000000000, 0.0000000000000000000, 4.000000000000000000 ) ) ;
#235 = EDGE_CURVE ( 'NONE', #24, #93, #153, .T. ) ;
#236 = ORIENTED_EDGE ( 'NONE', *, *, #291, .F. ) ;
#237 = CARTESIAN_POINT ( 'NONE',  ( 0.0000000000000000000, 0.0000000000000000000, 0.0000000000000000000 ) ) ;
#238 = LENGTH_MEASURE_WITH_UNIT ( LENGTH_MEASURE( 0.02539999999999999897 ), #92 );
#239 = AXIS2_PLACEMENT_3D ( 'NONE', #114, #160, #106 ) ;
#240 = ORIENTED_EDGE ( 'NONE', *, *, #159, .F. ) ;
#241 = CARTESIAN_POINT ( 'NONE',  ( -0.5000000000000000000, 0.0000000000000000000, 3.985000000000000764 ) ) ;
#242 = ORIENTED_EDGE ( 'NONE', *, *, #276, .T. ) ;
#243 = DIRECTION ( 'NONE',  ( 0.0000000000000000000, 0.0000000000000000000, 1.000000000000000000 ) ) ;
#244 = DIRECTION ( 'NONE',  ( -1.224646799147353207E-16, -0.0000000000000000000, -1.000000000000000000 ) ) ;
#245 = AXIS2_PLACEMENT_3D ( 'NONE', #77, #244, #117 ) ;
#246 = CONICAL_SURFACE ( 'NONE', #267, 0.4850000000000009859, 0.7853981633974437271 ) ;
#247 = PRESENTATION_LAYER_ASSIGNMENT (  '', '', ( #13 ) ) ;
#248 = ORIENTED_EDGE ( 'NONE', *, *, #37, .T. ) ;
#249 = VERTEX_POINT ( 'NONE', #296 ) ;
#250 = AXIS2_PLACEMENT_3D ( 'NONE', #230, #295, #23 ) ;
#251 = PRODUCT_DEFINITION_FORMATION_WITH_SPECIFIED_SOURCE ( 'ANY', '', #17, .NOT_KNOWN. ) ;
#252 = VERTEX_POINT ( 'NONE', #241 ) ;
#253 = ORIENTED_EDGE ( 'NONE', *, *, #28, .T. ) ;
#254 = LINE ( 'NONE', #259, #60 ) ;
#255 = CONICAL_SURFACE ( 'NONE', #85, 0.4994999999999999996, 0.1745329251994338915 ) ;
#256 = APPLICATION_CONTEXT ( 'automotive_design' ) ;
#257 = LINE ( 'NONE', #55, #128 ) ;
#258 = CARTESIAN_POINT ( 'NONE',  ( -0.4999999999999997780, 0.0000000000000000000, 1.502835640909808923 ) ) ;
#259 = CARTESIAN_POINT ( 'NONE',  ( -0.5000000000000000000, 0.0000000000000000000, 4.000000000000000000 ) ) ;
#260 = EDGE_LOOP ( 'NONE', ( #58, #293, #149, #180 ) ) ;
#261 = DIRECTION ( 'NONE',  ( 0.0000000000000000000, 0.0000000000000000000, 1.000000000000000000 ) ) ;
#262 = PRESENTATION_STYLE_ASSIGNMENT (( #183 ) ) ;
#263 = CIRCLE ( 'NONE', #12, 0.4850000000000009859 ) ;
#264 = ORIENTED_EDGE ( 'NONE', *, *, #37, .F. ) ;
#265 = FACE_OUTER_BOUND ( 'NONE', #224, .T. ) ;
#266 = SURFACE_SIDE_STYLE ('',( #170 ) ) ;
#267 = AXIS2_PLACEMENT_3D ( 'NONE', #225, #177, #228 ) ;
#268 = DIRECTION ( 'NONE',  ( 1.000000000000000000, 0.0000000000000000000, 0.0000000000000000000 ) ) ;
#269 = AXIS2_PLACEMENT_3D ( 'NONE', #51, #65, #49 ) ;
#270 = EDGE_CURVE ( 'NONE', #91, #249, #263, .T. ) ;
#271 = CIRCLE ( 'NONE', #155, 0.5000000000000000000 ) ;
#272 = ORIENTED_EDGE ( 'NONE', *, *, #175, .F. ) ;
#273 = DIRECTION ( 'NONE',  ( -1.224646799147353207E-16, -0.0000000000000000000, -1.000000000000000000 ) ) ;
#274 = LINE ( 'NONE', #193, #26 ) ;
#275 = DIRECTION ( 'NONE',  ( -1.000000000000000000, 0.0000000000000000000, 0.0000000000000000000 ) ) ;
#276 = EDGE_CURVE ( 'NONE', #91, #252, #102, .T. ) ;
#277 = VECTOR ( 'NONE', #103, 39.37007874015747433 ) ;
#278 =( NAMED_UNIT ( * ) SI_UNIT ( $, .STERADIAN. ) SOLID_ANGLE_UNIT ( ) );
#279 = DIRECTION ( 'NONE',  ( -0.0000000000000000000, -0.0000000000000000000, -1.000000000000000000 ) ) ;
#280 = DIRECTION ( 'NONE',  ( 1.000000000000000000, 0.0000000000000000000, 0.0000000000000000000 ) ) ;
#281 = ORIENTED_EDGE ( 'NONE', *, *, #169, .F. ) ;
#282 =( NAMED_UNIT ( * ) PLANE_ANGLE_UNIT ( ) SI_UNIT ( $, .RADIAN. ) );
#283 = CARTESIAN_POINT ( 'NONE',  ( 1.840442857284758427E-16, 0.0000000000000000000, 1.502835640909808923 ) ) ;
#284 = CARTESIAN_POINT ( 'NONE',  ( 0.4994999999999999996, 6.117110761741029900E-17, 0.0000000000000000000 ) ) ;
#285 = PLANE ( 'NONE',  #150 ) ;
#286 = UNCERTAINTY_MEASURE_WITH_UNIT (LENGTH_MEASURE( 1.000000000000000082E-05 ), #54, 'distance_accuracy_value', 'NONE');
#287 = AXIS2_PLACEMENT_3D ( 'NONE', #140, #158, #232 ) ;
#288 = CYLINDRICAL_SURFACE ( 'NONE', #245, 0.4994999999999999996 ) ;
#289 = CIRCLE ( 'NONE', #226, 0.4850000000000009859 ) ;
#290 = EDGE_CURVE ( 'NONE', #252, #52, #16, .T. ) ;
#291 = EDGE_CURVE ( 'NONE', #252, #165, #254, .T. ) ;
#292 = CIRCLE ( 'NONE', #250, 0.5000000000000000000 ) ;
#293 = ORIENTED_EDGE ( 'NONE', *, *, #11, .T. ) ;
#294 = ADVANCED_BREP_SHAPE_REPRESENTATION ( 'Micro_GEM-001-4', ( #80, #145 ), #161 ) ;
#295 = DIRECTION ( 'NONE',  ( -1.224646799147353207E-16, -0.0000000000000000000, -1.000000000000000000 ) ) ;
#296 = CARTESIAN_POINT ( 'NONE',  ( 0.4850000000000009859, 6.031385485800721528E-17, 4.000000000000000000 ) ) ;
#297 = CARTESIAN_POINT ( 'NONE',  ( -0.4994999999999999996, 0.0000000000000000000, 6.117110761741029900E-17 ) ) ;
#298 = VECTOR ( 'NONE', #210, 39.37007874015748143 ) ;
#299 = AXIS2_PLACEMENT_3D ( 'NONE', #234, #243, #168 ) ;
ENDSEC;
END-ISO-10303-21;
