ISO-10303-21;
HEADER;
FILE_DESCRIPTION (( 'STEP AP214' ),
    '1' );
FILE_NAME ('Micro_BMS-010-2X.STEP',
    '2021-09-03T14:42:47',
    ( '' ),
    ( '' ),
    'SwSTEP 2.0',
    'SolidWorks 2020',
    '' );
FILE_SCHEMA (( 'AUTOMOTIVE_DESIGN' ));
ENDSEC;

DATA;
#1 = AXIS2_PLACEMENT_3D ( 'NONE', #196, #107, #138 ) ;
#2 = COLOUR_RGB ( '',0.7921568627450980005, 0.8196078431372548767, 0.9333333333333333481 ) ;
#3 = DIRECTION ( 'NONE',  ( 1.000000000000000000, 0.0000000000000000000, 0.0000000000000000000 ) ) ;
#4 = PRODUCT_DEFINITION_CONTEXT ( 'detailed design', #276, 'design' ) ;
#5 = ORIENTED_EDGE ( 'NONE', *, *, #72, .F. ) ;
#6 = FACE_OUTER_BOUND ( 'NONE', #286, .T. ) ;
#7 = PRODUCT_DEFINITION_FORMATION_WITH_SPECIFIED_SOURCE ( 'ANY', '', #247, .NOT_KNOWN. ) ;
#8 = VERTEX_POINT ( 'NONE', #217 ) ;
#9 = CYLINDRICAL_SURFACE ( 'NONE', #265, 0.004994999999999999440 ) ;
#10 = AXIS2_PLACEMENT_3D ( 'NONE', #87, #291, #264 ) ;
#11 = ORIENTED_EDGE ( 'NONE', *, *, #162, .F. ) ;
#12 = LINE ( 'NONE', #104, #235 ) ;
#13 = SURFACE_STYLE_FILL_AREA ( #143 ) ;
#14 = LINE ( 'NONE', #198, #80 ) ;
#15 = AXIS2_PLACEMENT_3D ( 'NONE', #124, #179, #281 ) ;
#16 = DIRECTION ( 'NONE',  ( 1.000000000000000000, 0.0000000000000000000, 0.0000000000000000000 ) ) ;
#17 = APPLICATION_PROTOCOL_DEFINITION ( 'draft international standard', 'automotive_design', 1998, #98 ) ;
#18 = PRODUCT_DEFINITION_SHAPE ( 'NONE', 'NONE',  #75 ) ;
#19 =( LENGTH_UNIT ( ) NAMED_UNIT ( * ) SI_UNIT ( $, .METRE. ) );
#20 = PRESENTATION_STYLE_ASSIGNMENT (( #174 ) ) ;
#21 = AXIS2_PLACEMENT_3D ( 'NONE', #122, #323, #70 ) ;
#22 = FACE_OUTER_BOUND ( 'NONE', #163, .T. ) ;
#23 = FACE_OUTER_BOUND ( 'NONE', #215, .T. ) ;
#24 = DIRECTION ( 'NONE',  ( 1.000000000000000000, 0.0000000000000000000, 0.0000000000000000000 ) ) ;
#25 = CIRCLE ( 'NONE', #287, 0.004994999999999999440 ) ;
#26 = FACE_OUTER_BOUND ( 'NONE', #149, .T. ) ;
#27 = VERTEX_POINT ( 'NONE', #268 ) ;
#28 = ORIENTED_EDGE ( 'NONE', *, *, #151, .T. ) ;
#29 = ORIENTED_EDGE ( 'NONE', *, *, #116, .T. ) ;
#30 = ORIENTED_EDGE ( 'NONE', *, *, #317, .F. ) ;
#31 = ADVANCED_FACE ( 'NONE', ( #6 ), #115, .T. ) ;
#32 = VERTEX_POINT ( 'NONE', #313 ) ;
#33 = CARTESIAN_POINT ( 'NONE',  ( 4.177601634016462012E-17, 0.0000000000000000000, 0.3411270610371145429 ) ) ;
#34 = VECTOR ( 'NONE', #39, 39.37007874015748143 ) ;
#35 = VECTOR ( 'NONE', #180, 39.37007874015748143 ) ;
#36 = ORIENTED_EDGE ( 'NONE', *, *, #254, .T. ) ;
#37 = DIRECTION ( 'NONE',  ( -1.000000000000000000, 1.224646799147353207E-16, 0.0000000000000000000 ) ) ;
#38 =( NAMED_UNIT ( * ) SI_UNIT ( $, .STERADIAN. ) SOLID_ANGLE_UNIT ( ) );
#39 = DIRECTION ( 'NONE',  ( 0.1736481776669313859, 0.0000000000000000000, 0.9848077530122077983 ) ) ;
#40 =( LENGTH_UNIT ( ) NAMED_UNIT ( * ) SI_UNIT ( $, .METRE. ) );
#41 = CARTESIAN_POINT ( 'NONE',  ( 0.004995000000000000308, 0.0000000000000000000, 0.01499999999999997689 ) ) ;
#42 =( NAMED_UNIT ( * ) SI_UNIT ( $, .STERADIAN. ) SOLID_ANGLE_UNIT ( ) );
#43 = EDGE_CURVE ( 'NONE', #158, #242, #221, .T. ) ;
#44 = CARTESIAN_POINT ( 'NONE',  ( -0.06249999999999995837, 0.0000000000000000000, 0.3411270610371145429 ) ) ;
#45 = AXIS2_PLACEMENT_3D ( 'NONE', #304, #279, #24 ) ;
#46 = DIRECTION ( 'NONE',  ( -1.000000000000000000, 0.0000000000000000000, 0.0000000000000000000 ) ) ;
#47 = EDGE_CURVE ( 'NONE', #32, #158, #52, .T. ) ;
#48 = SURFACE_SIDE_STYLE ('',( #280 ) ) ;
#49 = ORIENTED_EDGE ( 'NONE', *, *, #102, .F. ) ;
#50 = DIRECTION ( 'NONE',  ( 0.0000000000000000000, 0.0000000000000000000, 1.000000000000000000 ) ) ;
#51 = FACE_OUTER_BOUND ( 'NONE', #191, .T. ) ;
#52 = CIRCLE ( 'NONE', #214, 0.004995000000000000308 ) ;
#53 = EDGE_CURVE ( 'NONE', #73, #8, #90, .T. ) ;
#54 = ORIENTED_EDGE ( 'NONE', *, *, #298, .T. ) ;
#55 = EDGE_LOOP ( 'NONE', ( #189, #266, #184, #155 ) ) ;
#56 = ORIENTED_EDGE ( 'NONE', *, *, #53, .F. ) ;
#57 = ORIENTED_EDGE ( 'NONE', *, *, #185, .F. ) ;
#58 = DIRECTION ( 'NONE',  ( -1.000000000000000000, 0.0000000000000000000, 2.136392637687893759E-16 ) ) ;
#59 =( GEOMETRIC_REPRESENTATION_CONTEXT ( 3 ) GLOBAL_UNCERTAINTY_ASSIGNED_CONTEXT ( ( #123 ) ) GLOBAL_UNIT_ASSIGNED_CONTEXT ( ( #172, #92, #42 ) ) REPRESENTATION_CONTEXT ( 'NONE', 'WORKASPACE' ) );
#60 = EDGE_CURVE ( 'NONE', #99, #194, #197, .T. ) ;
#61 = DIRECTION ( 'NONE',  ( 1.000000000000000000, 0.0000000000000000000, 0.0000000000000000000 ) ) ;
#62 =( CONVERSION_BASED_UNIT ( 'INCH', #205 ) LENGTH_UNIT ( ) NAMED_UNIT ( #256 ) );
#63 = CARTESIAN_POINT ( 'NONE',  ( 6.117110761741030670E-19, 0.0000000000000000000, 0.004995000000000000308 ) ) ;
#64 =( CONVERSION_BASED_UNIT ( 'INCH', #269 ) LENGTH_UNIT ( ) NAMED_UNIT ( #225 ) );
#65 = PRODUCT_CONTEXT ( 'NONE', #98, 'mechanical' ) ;
#66 = DIRECTION ( 'NONE',  ( 1.224646799147353454E-16, 0.0000000000000000000, 1.000000000000000000 ) ) ;
#67 = FACE_OUTER_BOUND ( 'NONE', #312, .T. ) ;
#68 = DIRECTION ( 'NONE',  ( -0.7071067811865456854, 0.0000000000000000000, -0.7071067811865493491 ) ) ;
#69 = DIRECTION ( 'NONE',  ( 0.0000000000000000000, -1.000000000000000000, 0.0000000000000000000 ) ) ;
#70 = DIRECTION ( 'NONE',  ( -1.000000000000000000, 0.0000000000000000000, 0.0000000000000000000 ) ) ;
#71 = SURFACE_STYLE_USAGE ( .BOTH. , #48 ) ;
#72 = EDGE_CURVE ( 'NONE', #153, #213, #112, .T. ) ;
#73 = VERTEX_POINT ( 'NONE', #216 ) ;
#74 = AXIS2_PLACEMENT_3D ( 'NONE', #169, #170, #111 ) ;
#75 = PRODUCT_DEFINITION ( 'UNKNOWN', '', #7, #4 ) ;
#76 = ORIENTED_EDGE ( 'NONE', *, *, #298, .F. ) ;
#77 = ORIENTED_EDGE ( 'NONE', *, *, #203, .T. ) ;
#78 = ORIENTED_EDGE ( 'NONE', *, *, #60, .F. ) ;
#79 = ADVANCED_FACE ( 'NONE', ( #316 ), #132, .T. ) ;
#80 = VECTOR ( 'NONE', #311, 39.37007874015748143 ) ;
#81 = CIRCLE ( 'NONE', #322, 0.04750000000000064587 ) ;
#82 = ORIENTED_EDGE ( 'NONE', *, *, #168, .F. ) ;
#83 = DIRECTION ( 'NONE',  ( 1.224646799147353454E-16, 0.0000000000000000000, 1.000000000000000000 ) ) ;
#84 = CLOSED_SHELL ( 'NONE', ( #101, #144, #136, #274, #156, #272, #278, #258, #260, #79, #31 ) ) ;
#85 = ORIENTED_EDGE ( 'NONE', *, *, #102, .T. ) ;
#86 = DIRECTION ( 'NONE',  ( -1.000000000000000000, 0.0000000000000000000, 2.136392637687893759E-16 ) ) ;
#87 = CARTESIAN_POINT ( 'NONE',  ( 6.117110761741030670E-19, 0.0000000000000000000, 0.004995000000000000308 ) ) ;
#88 = DIRECTION ( 'NONE',  ( 1.000000000000000000, 0.0000000000000000000, 0.0000000000000000000 ) ) ;
#89 = DIRECTION ( 'NONE',  ( -1.000000000000000000, 0.0000000000000000000, 1.224646799147353454E-16 ) ) ;
#90 = CIRCLE ( 'NONE', #1, 0.004994999999999997706 ) ;
#91 = STYLED_ITEM ( 'NONE', ( #20 ), #159 ) ;
#92 =( NAMED_UNIT ( * ) PLANE_ANGLE_UNIT ( ) SI_UNIT ( $, .RADIAN. ) );
#93 = DIRECTION ( 'NONE',  ( 0.0000000000000000000, 0.0000000000000000000, 1.000000000000000000 ) ) ;
#94 = EDGE_CURVE ( 'NONE', #242, #158, #25, .T. ) ;
#95 = FILL_AREA_STYLE_COLOUR ( '', #301 ) ;
#96 = CARTESIAN_POINT ( 'NONE',  ( 0.0000000000000000000, 0.0000000000000000000, 1.500000000000000222 ) ) ;
#97 = ORIENTED_EDGE ( 'NONE', *, *, #168, .T. ) ;
#98 = APPLICATION_CONTEXT ( 'automotive_design' ) ;
#99 = VERTEX_POINT ( 'NONE', #273 ) ;
#100 = VECTOR ( 'NONE', #68, 39.37007874015748143 ) ;
#101 = ADVANCED_FACE ( 'NONE', ( #165 ), #270, .T. ) ;
#102 = EDGE_CURVE ( 'NONE', #73, #213, #167, .T. ) ;
#103 = EDGE_LOOP ( 'NONE', ( #30, #54, #131, #262 ) ) ;
#104 = CARTESIAN_POINT ( 'NONE',  ( -0.004994999999999999440, 0.0000000000000000000, 6.117110761741029707E-19 ) ) ;
#105 = VECTOR ( 'NONE', #222, 39.37007874015747433 ) ;
#106 = ORIENTED_EDGE ( 'NONE', *, *, #47, .F. ) ;
#107 = DIRECTION ( 'NONE',  ( -1.224646799147353454E-16, -0.0000000000000000000, -1.000000000000000000 ) ) ;
#108 = EDGE_CURVE ( 'NONE', #73, #158, #12, .T. ) ;
#109 = DIRECTION ( 'NONE',  ( 0.0000000000000000000, 0.0000000000000000000, -1.000000000000000000 ) ) ;
#110 = CARTESIAN_POINT ( 'NONE',  ( 0.004994999999999999440, 6.117110761741028744E-19, -6.117110761741029707E-19 ) ) ;
#111 = DIRECTION ( 'NONE',  ( -1.000000000000000000, 0.0000000000000000000, 1.224646799147353454E-16 ) ) ;
#112 = CIRCLE ( 'NONE', #285, 0.06250000000000000000 ) ;
#113 = CONICAL_SURFACE ( 'NONE', #21, 0.04750000000000064587, 0.7853981633974457255 ) ;
#114 = LINE ( 'NONE', #110, #208 ) ;
#115 = SPHERICAL_SURFACE ( 'NONE', #10, 0.004995000000000000308 ) ;
#116 = EDGE_CURVE ( 'NONE', #8, #153, #241, .T. ) ;
#117 = APPLICATION_PROTOCOL_DEFINITION ( 'draft international standard', 'automotive_design', 1998, #276 ) ;
#118 = CARTESIAN_POINT ( 'NONE',  ( 6.117110761741030670E-19, 0.0000000000000000000, 0.004995000000000000308 ) ) ;
#119 =( NAMED_UNIT ( * ) PLANE_ANGLE_UNIT ( ) SI_UNIT ( $, .RADIAN. ) );
#120 = AXIS2_PLACEMENT_3D ( 'NONE', #200, #154, #3 ) ;
#121 = PRESENTATION_LAYER_ASSIGNMENT (  '', '', ( #255 ) ) ;
#122 = CARTESIAN_POINT ( 'NONE',  ( 0.0000000000000000000, 0.0000000000000000000, 1.500000000000000222 ) ) ;
#123 = UNCERTAINTY_MEASURE_WITH_UNIT (LENGTH_MEASURE( 1.000000000000000082E-05 ), #172, 'distance_accuracy_value', 'NONE');
#124 = CARTESIAN_POINT ( 'NONE',  ( 0.0000000000000000000, 0.0000000000000000000, 1.500000000000000222 ) ) ;
#125 = CARTESIAN_POINT ( 'NONE',  ( -0.04750000000000064587, 0.0000000000000000000, 1.500000000000000222 ) ) ;
#126 = CARTESIAN_POINT ( 'NONE',  ( -0.06250000000000000000, 0.0000000000000000000, 1.485000000000000764 ) ) ;
#127 = AXIS2_PLACEMENT_3D ( 'NONE', #293, #195, #58 ) ;
#128 = CONICAL_SURFACE ( 'NONE', #183, 0.04750000000000064587, 0.7853981633974457255 ) ;
#129 = ORIENTED_EDGE ( 'NONE', *, *, #72, .T. ) ;
#130 = EDGE_CURVE ( 'NONE', #213, #153, #182, .T. ) ;
#131 = ORIENTED_EDGE ( 'NONE', *, *, #108, .T. ) ;
#132 = CYLINDRICAL_SURFACE ( 'NONE', #74, 0.004994999999999999440 ) ;
#133 = AXIS2_PLACEMENT_3D ( 'NONE', #137, #243, #16 ) ;
#134 = CIRCLE ( 'NONE', #190, 0.04750000000000064587 ) ;
#135 = ORIENTED_EDGE ( 'NONE', *, *, #151, .F. ) ;
#136 = ADVANCED_FACE ( 'NONE', ( #140 ), #226, .T. ) ;
#137 = CARTESIAN_POINT ( 'NONE',  ( 6.117110761741030670E-19, 0.0000000000000000000, 0.004995000000000000308 ) ) ;
#138 = DIRECTION ( 'NONE',  ( -1.000000000000000000, 0.0000000000000000000, 0.0000000000000000000 ) ) ;
#139 = PRESENTATION_STYLE_ASSIGNMENT (( #71 ) ) ;
#140 = FACE_OUTER_BOUND ( 'NONE', #290, .T. ) ;
#141 = AXIS2_PLACEMENT_3D ( 'NONE', #206, #147, #209 ) ;
#142 = EDGE_CURVE ( 'NONE', #27, #99, #14, .T. ) ;
#143 = FILL_AREA_STYLE ('',( #166 ) ) ;
#144 = ADVANCED_FACE ( 'NONE', ( #192 ), #9, .T. ) ;
#145 = LINE ( 'NONE', #233, #240 ) ;
#146 =( GEOMETRIC_REPRESENTATION_CONTEXT ( 3 ) GLOBAL_UNCERTAINTY_ASSIGNED_CONTEXT ( ( #324 ) ) GLOBAL_UNIT_ASSIGNED_CONTEXT ( ( #64, #224, #38 ) ) REPRESENTATION_CONTEXT ( 'NONE', 'WORKASPACE' ) );
#147 = DIRECTION ( 'NONE',  ( -1.224646799147353454E-16, -0.0000000000000000000, -1.000000000000000000 ) ) ;
#148 = DIRECTION ( 'NONE',  ( -1.000000000000000000, 0.0000000000000000000, 0.0000000000000000000 ) ) ;
#149 = EDGE_LOOP ( 'NONE', ( #237, #234, #257, #5 ) ) ;
#150 = DIRECTION ( 'NONE',  ( 0.0000000000000000000, 0.0000000000000000000, -1.000000000000000000 ) ) ;
#151 = EDGE_CURVE ( 'NONE', #194, #99, #204, .T. ) ;
#152 = PRESENTATION_LAYER_ASSIGNMENT (  '', '', ( #91 ) ) ;
#153 = VERTEX_POINT ( 'NONE', #212 ) ;
#154 = DIRECTION ( 'NONE',  ( 0.0000000000000000000, 0.0000000000000000000, -1.000000000000000000 ) ) ;
#155 = ORIENTED_EDGE ( 'NONE', *, *, #108, .F. ) ;
#156 = ADVANCED_FACE ( 'NONE', ( #51 ), #187, .T. ) ;
#157 = CARTESIAN_POINT ( 'NONE',  ( 0.0000000000000000000, 0.0000000000000000000, 1.500000000000000222 ) ) ;
#158 = VERTEX_POINT ( 'NONE', #173 ) ;
#159 = ADVANCED_BREP_SHAPE_REPRESENTATION ( 'Micro_BMS-010-2X', ( #310, #177 ), #59 ) ;
#160 = EDGE_LOOP ( 'NONE', ( #11, #239, #259 ) ) ;
#161 = DIRECTION ( 'NONE',  ( 1.000000000000000000, 0.0000000000000000000, 0.0000000000000000000 ) ) ;
#162 = EDGE_CURVE ( 'NONE', #32, #242, #236, .T. ) ;
#163 = EDGE_LOOP ( 'NONE', ( #284, #211, #135, #188 ) ) ;
#164 = SHAPE_DEFINITION_REPRESENTATION ( #18, #159 ) ;
#165 = FACE_OUTER_BOUND ( 'NONE', #160, .T. ) ;
#166 = FILL_AREA_STYLE_COLOUR ( '', #2 ) ;
#167 = LINE ( 'NONE', #223, #105 ) ;
#168 = EDGE_CURVE ( 'NONE', #261, #27, #81, .T. ) ;
#169 = CARTESIAN_POINT ( 'NONE',  ( 0.0000000000000000000, 0.0000000000000000000, 0.0000000000000000000 ) ) ;
#170 = DIRECTION ( 'NONE',  ( -1.224646799147353454E-16, -0.0000000000000000000, -1.000000000000000000 ) ) ;
#171 =( GEOMETRIC_REPRESENTATION_CONTEXT ( 3 ) GLOBAL_UNCERTAINTY_ASSIGNED_CONTEXT ( ( #283 ) ) GLOBAL_UNIT_ASSIGNED_CONTEXT ( ( #62, #119, #199 ) ) REPRESENTATION_CONTEXT ( 'NONE', 'WORKASPACE' ) );
#172 =( CONVERSION_BASED_UNIT ( 'INCH', #201 ) LENGTH_UNIT ( ) NAMED_UNIT ( #232 ) );
#173 = CARTESIAN_POINT ( 'NONE',  ( -0.004994999999999997706, 0.0000000000000000000, 0.004995000000000001175 ) ) ;
#174 = SURFACE_STYLE_USAGE ( .BOTH. , #248 ) ;
#175 = DIRECTION ( 'NONE',  ( -0.0000000000000000000, -0.0000000000000000000, -1.000000000000000000 ) ) ;
#176 = DIRECTION ( 'NONE',  ( 1.000000000000000000, 0.0000000000000000000, 0.0000000000000000000 ) ) ;
#177 = AXIS2_PLACEMENT_3D ( 'NONE', #218, #244, #202 ) ;
#178 = FILL_AREA_STYLE ('',( #95 ) ) ;
#179 = DIRECTION ( 'NONE',  ( -0.0000000000000000000, -0.0000000000000000000, -1.000000000000000000 ) ) ;
#180 = DIRECTION ( 'NONE',  ( -0.0000000000000000000, -0.0000000000000000000, -1.000000000000000000 ) ) ;
#181 = EDGE_LOOP ( 'NONE', ( #49, #76, #29, #129 ) ) ;
#182 = CIRCLE ( 'NONE', #315, 0.06250000000000000000 ) ;
#183 = AXIS2_PLACEMENT_3D ( 'NONE', #249, #150, #148 ) ;
#184 = ORIENTED_EDGE ( 'NONE', *, *, #94, .T. ) ;
#185 = EDGE_CURVE ( 'NONE', #194, #213, #145, .T. ) ;
#186 = ORIENTED_EDGE ( 'NONE', *, *, #130, .T. ) ;
#187 = CYLINDRICAL_SURFACE ( 'NONE', #15, 0.06250000000000000000 ) ;
#188 = ORIENTED_EDGE ( 'NONE', *, *, #203, .F. ) ;
#189 = ORIENTED_EDGE ( 'NONE', *, *, #53, .T. ) ;
#190 = AXIS2_PLACEMENT_3D ( 'NONE', #251, #50, #176 ) ;
#191 = EDGE_LOOP ( 'NONE', ( #28, #292, #289, #57 ) ) ;
#192 = FACE_OUTER_BOUND ( 'NONE', #55, .T. ) ;
#193 = EDGE_CURVE ( 'NONE', #99, #153, #302, .T. ) ;
#194 = VERTEX_POINT ( 'NONE', #126 ) ;
#195 = DIRECTION ( 'NONE',  ( 1.224646799147353454E-16, 0.0000000000000000000, 1.000000000000000000 ) ) ;
#196 = CARTESIAN_POINT ( 'NONE',  ( 1.836970198721027284E-18, 0.0000000000000000000, 0.01499999999999997689 ) ) ;
#197 = CIRCLE ( 'NONE', #308, 0.06250000000000000000 ) ;
#198 = CARTESIAN_POINT ( 'NONE',  ( 0.04750000000000064587, 5.817072295950006528E-18, 1.500000000000000222 ) ) ;
#199 =( NAMED_UNIT ( * ) SI_UNIT ( $, .STERADIAN. ) SOLID_ANGLE_UNIT ( ) );
#200 = CARTESIAN_POINT ( 'NONE',  ( 0.0000000000000000000, 0.0000000000000000000, 1.485000000000000764 ) ) ;
#201 = LENGTH_MEASURE_WITH_UNIT ( LENGTH_MEASURE( 0.02539999999999999897 ), #319 );
#202 = DIRECTION ( 'NONE',  ( 1.000000000000000000, 0.0000000000000000000, 0.0000000000000000000 ) ) ;
#203 = EDGE_CURVE ( 'NONE', #261, #194, #306, .T. ) ;
#204 = CIRCLE ( 'NONE', #120, 0.06250000000000000000 ) ;
#205 = LENGTH_MEASURE_WITH_UNIT ( LENGTH_MEASURE( 0.02539999999999999897 ), #19 );
#206 = CARTESIAN_POINT ( 'NONE',  ( 1.836970198721027284E-18, 0.0000000000000000000, 0.01499999999999997689 ) ) ;
#207 = CARTESIAN_POINT ( 'NONE',  ( 0.004995000000000000308, 6.117110761741028744E-19, 0.004994999999999999440 ) ) ;
#208 = VECTOR ( 'NONE', #296, 39.37007874015748143 ) ;
#209 = DIRECTION ( 'NONE',  ( -1.000000000000000000, 0.0000000000000000000, 0.0000000000000000000 ) ) ;
#210 = AXIS2_PLACEMENT_3D ( 'NONE', #118, #69, #305 ) ;
#211 = ORIENTED_EDGE ( 'NONE', *, *, #142, .T. ) ;
#212 = CARTESIAN_POINT ( 'NONE',  ( 0.06250000000000004163, 7.654042494670960626E-18, 0.3411270610371145429 ) ) ;
#213 = VERTEX_POINT ( 'NONE', #44 ) ;
#214 = AXIS2_PLACEMENT_3D ( 'NONE', #63, #299, #37 ) ;
#215 = EDGE_LOOP ( 'NONE', ( #97, #36 ) ) ;
#216 = CARTESIAN_POINT ( 'NONE',  ( -0.004994999999999995971, 4.132876785422530113E-18, 0.01499999999999997689 ) ) ;
#217 = CARTESIAN_POINT ( 'NONE',  ( 0.004995000000000000308, 0.0000000000000000000, 0.01499999999999997689 ) ) ;
#218 = CARTESIAN_POINT ( 'NONE',  ( 0.0000000000000000000, 0.0000000000000000000, 0.0000000000000000000 ) ) ;
#219 = DIRECTION ( 'NONE',  ( -1.224646799147353454E-16, -0.0000000000000000000, -1.000000000000000000 ) ) ;
#220 = DIRECTION ( 'NONE',  ( -1.224646799147353454E-16, -0.0000000000000000000, -1.000000000000000000 ) ) ;
#221 = CIRCLE ( 'NONE', #127, 0.004994999999999999440 ) ;
#222 = DIRECTION ( 'NONE',  ( -0.1736481776669311916, 2.126576849575783316E-17, 0.9848077530122080203 ) ) ;
#223 = CARTESIAN_POINT ( 'NONE',  ( -0.004994999999999995971, 6.117110761741026818E-19, 0.01499999999999997689 ) ) ;
#224 =( NAMED_UNIT ( * ) PLANE_ANGLE_UNIT ( ) SI_UNIT ( $, .RADIAN. ) );
#225 = DIMENSIONAL_EXPONENTS ( 1.000000000000000000, 0.0000000000000000000, 0.0000000000000000000, 0.0000000000000000000, 0.0000000000000000000, 0.0000000000000000000, 0.0000000000000000000 ) ;
#226 = CONICAL_SURFACE ( 'NONE', #300, 0.004994999999999997706, 0.1745329251994338915 ) ;
#227 = CONICAL_SURFACE ( 'NONE', #45, 0.004994999999999997706, 0.1745329251994338915 ) ;
#228 = DIRECTION ( 'NONE',  ( 0.0000000000000000000, 0.0000000000000000000, 1.000000000000000000 ) ) ;
#229 = CARTESIAN_POINT ( 'NONE',  ( 0.0000000000000000000, 0.0000000000000000000, 1.500000000000000222 ) ) ;
#230 = CYLINDRICAL_SURFACE ( 'NONE', #288, 0.06250000000000000000 ) ;
#231 = ORIENTED_EDGE ( 'NONE', *, *, #116, .F. ) ;
#232 = DIMENSIONAL_EXPONENTS ( 1.000000000000000000, 0.0000000000000000000, 0.0000000000000000000, 0.0000000000000000000, 0.0000000000000000000, 0.0000000000000000000, 0.0000000000000000000 ) ;
#233 = CARTESIAN_POINT ( 'NONE',  ( -0.06250000000000000000, 0.0000000000000000000, 1.500000000000000222 ) ) ;
#234 = ORIENTED_EDGE ( 'NONE', *, *, #60, .T. ) ;
#235 = VECTOR ( 'NONE', #238, 39.37007874015748143 ) ;
#236 = CIRCLE ( 'NONE', #210, 0.004995000000000000308 ) ;
#237 = ORIENTED_EDGE ( 'NONE', *, *, #193, .F. ) ;
#238 = DIRECTION ( 'NONE',  ( -1.224646799147353454E-16, -0.0000000000000000000, -1.000000000000000000 ) ) ;
#239 = ORIENTED_EDGE ( 'NONE', *, *, #47, .T. ) ;
#240 = VECTOR ( 'NONE', #282, 39.37007874015748143 ) ;
#241 = LINE ( 'NONE', #41, #34 ) ;
#242 = VERTEX_POINT ( 'NONE', #207 ) ;
#243 = DIRECTION ( 'NONE',  ( 0.0000000000000000000, 1.000000000000000000, 0.0000000000000000000 ) ) ;
#244 = DIRECTION ( 'NONE',  ( 0.0000000000000000000, 0.0000000000000000000, 1.000000000000000000 ) ) ;
#245 = CARTESIAN_POINT ( 'NONE',  ( 4.177601634016462012E-17, 0.0000000000000000000, 0.3411270610371145429 ) ) ;
#246 = CARTESIAN_POINT ( 'NONE',  ( 1.836970198721027284E-18, 0.0000000000000000000, 0.01499999999999997689 ) ) ;
#247 = PRODUCT ( 'Micro_BMS-010-2X', 'Micro_BMS-010-2X', '', ( #65 ) ) ;
#248 = SURFACE_SIDE_STYLE ('',( #13 ) ) ;
#249 = CARTESIAN_POINT ( 'NONE',  ( 0.0000000000000000000, 0.0000000000000000000, 1.500000000000000222 ) ) ;
#250 = PRODUCT_RELATED_PRODUCT_CATEGORY ( 'part', '', ( #247 ) ) ;
#251 = CARTESIAN_POINT ( 'NONE',  ( 0.0000000000000000000, 0.0000000000000000000, 1.500000000000000222 ) ) ;
#252 = CARTESIAN_POINT ( 'NONE',  ( 0.06250000000000000000, 7.654042494670956004E-18, 1.500000000000000222 ) ) ;
#253 = FACE_OUTER_BOUND ( 'NONE', #181, .T. ) ;
#254 = EDGE_CURVE ( 'NONE', #27, #261, #134, .T. ) ;
#255 = STYLED_ITEM ( 'NONE', ( #139 ), #310 ) ;
#256 = DIMENSIONAL_EXPONENTS ( 1.000000000000000000, 0.0000000000000000000, 0.0000000000000000000, 0.0000000000000000000, 0.0000000000000000000, 0.0000000000000000000, 0.0000000000000000000 ) ;
#257 = ORIENTED_EDGE ( 'NONE', *, *, #185, .T. ) ;
#258 = ADVANCED_FACE ( 'NONE', ( #67 ), #128, .T. ) ;
#259 = ORIENTED_EDGE ( 'NONE', *, *, #94, .F. ) ;
#260 = ADVANCED_FACE ( 'NONE', ( #253 ), #227, .T. ) ;
#261 = VERTEX_POINT ( 'NONE', #275 ) ;
#262 = ORIENTED_EDGE ( 'NONE', *, *, #43, .T. ) ;
#263 = ORIENTED_EDGE ( 'NONE', *, *, #43, .F. ) ;
#264 = DIRECTION ( 'NONE',  ( 1.000000000000000000, 0.0000000000000000000, 0.0000000000000000000 ) ) ;
#265 = AXIS2_PLACEMENT_3D ( 'NONE', #297, #219, #89 ) ;
#266 = ORIENTED_EDGE ( 'NONE', *, *, #317, .T. ) ;
#267 = AXIS2_PLACEMENT_3D ( 'NONE', #96, #93, #321 ) ;
#268 = CARTESIAN_POINT ( 'NONE',  ( 0.04750000000000064587, 6.735557395310482421E-18, 1.500000000000000222 ) ) ;
#269 = LENGTH_MEASURE_WITH_UNIT ( LENGTH_MEASURE( 0.02539999999999999897 ), #40 );
#270 = SPHERICAL_SURFACE ( 'NONE', #133, 0.004995000000000000308 ) ;
#271 = CARTESIAN_POINT ( 'NONE',  ( 6.117110761741030670E-19, 0.0000000000000000000, 0.004995000000000000308 ) ) ;
#272 = ADVANCED_FACE ( 'NONE', ( #26 ), #230, .T. ) ;
#273 = CARTESIAN_POINT ( 'NONE',  ( 0.06250000000000000000, 7.654042494670956004E-18, 1.485000000000000764 ) ) ;
#274 = ADVANCED_FACE ( 'NONE', ( #22 ), #113, .T. ) ;
#275 = CARTESIAN_POINT ( 'NONE',  ( -0.04750000000000064587, 0.0000000000000000000, 1.500000000000000222 ) ) ;
#276 = APPLICATION_CONTEXT ( 'automotive_design' ) ;
#277 = MECHANICAL_DESIGN_GEOMETRIC_PRESENTATION_REPRESENTATION (  '', ( #91 ), #171 ) ;
#278 = ADVANCED_FACE ( 'NONE', ( #23 ), #320, .T. ) ;
#279 = DIRECTION ( 'NONE',  ( 1.224646799147353454E-16, 0.0000000000000000000, 1.000000000000000000 ) ) ;
#280 = SURFACE_STYLE_FILL_AREA ( #178 ) ;
#281 = DIRECTION ( 'NONE',  ( -1.000000000000000000, 0.0000000000000000000, 0.0000000000000000000 ) ) ;
#282 = DIRECTION ( 'NONE',  ( -0.0000000000000000000, -0.0000000000000000000, -1.000000000000000000 ) ) ;
#283 = UNCERTAINTY_MEASURE_WITH_UNIT (LENGTH_MEASURE( 1.000000000000000082E-05 ), #62, 'distance_accuracy_value', 'NONE');
#284 = ORIENTED_EDGE ( 'NONE', *, *, #254, .F. ) ;
#285 = AXIS2_PLACEMENT_3D ( 'NONE', #33, #295, #61 ) ;
#286 = EDGE_LOOP ( 'NONE', ( #106, #309, #263 ) ) ;
#287 = AXIS2_PLACEMENT_3D ( 'NONE', #271, #66, #86 ) ;
#288 = AXIS2_PLACEMENT_3D ( 'NONE', #229, #175, #46 ) ;
#289 = ORIENTED_EDGE ( 'NONE', *, *, #130, .F. ) ;
#290 = EDGE_LOOP ( 'NONE', ( #56, #85, #186, #231 ) ) ;
#291 = DIRECTION ( 'NONE',  ( 0.0000000000000000000, 1.000000000000000000, 0.0000000000000000000 ) ) ;
#292 = ORIENTED_EDGE ( 'NONE', *, *, #193, .T. ) ;
#293 = CARTESIAN_POINT ( 'NONE',  ( 6.117110761741030670E-19, 0.0000000000000000000, 0.004995000000000000308 ) ) ;
#294 = CIRCLE ( 'NONE', #141, 0.004994999999999997706 ) ;
#295 = DIRECTION ( 'NONE',  ( -1.224646799147353454E-16, -0.0000000000000000000, -1.000000000000000000 ) ) ;
#296 = DIRECTION ( 'NONE',  ( -1.224646799147353454E-16, -0.0000000000000000000, -1.000000000000000000 ) ) ;
#297 = CARTESIAN_POINT ( 'NONE',  ( 0.0000000000000000000, 0.0000000000000000000, 0.0000000000000000000 ) ) ;
#298 = EDGE_CURVE ( 'NONE', #8, #73, #294, .T. ) ;
#299 = DIRECTION ( 'NONE',  ( 1.224646799147353207E-16, 1.000000000000000000, -0.0000000000000000000 ) ) ;
#300 = AXIS2_PLACEMENT_3D ( 'NONE', #246, #83, #318 ) ;
#301 = COLOUR_RGB ( '',0.7921568627450980005, 0.8196078431372548767, 0.9333333333333333481 ) ;
#302 = LINE ( 'NONE', #252, #35 ) ;
#303 = DIRECTION ( 'NONE',  ( 1.000000000000000000, 0.0000000000000000000, 0.0000000000000000000 ) ) ;
#304 = CARTESIAN_POINT ( 'NONE',  ( 1.836970198721027284E-18, 0.0000000000000000000, 0.01499999999999997689 ) ) ;
#305 = DIRECTION ( 'NONE',  ( 0.0000000000000000000, 0.0000000000000000000, -1.000000000000000000 ) ) ;
#306 = LINE ( 'NONE', #125, #100 ) ;
#307 = MECHANICAL_DESIGN_GEOMETRIC_PRESENTATION_REPRESENTATION (  '', ( #255 ), #146 ) ;
#308 = AXIS2_PLACEMENT_3D ( 'NONE', #314, #109, #161 ) ;
#309 = ORIENTED_EDGE ( 'NONE', *, *, #162, .T. ) ;
#310 = MANIFOLD_SOLID_BREP ( 'Fillet1', #84 ) ;
#311 = DIRECTION ( 'NONE',  ( 0.7071067811865456854, 8.659560562354911904E-17, -0.7071067811865493491 ) ) ;
#312 = EDGE_LOOP ( 'NONE', ( #325, #82, #77, #78 ) ) ;
#313 = CARTESIAN_POINT ( 'NONE',  ( 9.175666142611546005E-19, 0.0000000000000000000, 0.0000000000000000000 ) ) ;
#314 = CARTESIAN_POINT ( 'NONE',  ( 0.0000000000000000000, 0.0000000000000000000, 1.485000000000000764 ) ) ;
#315 = AXIS2_PLACEMENT_3D ( 'NONE', #245, #220, #88 ) ;
#316 = FACE_OUTER_BOUND ( 'NONE', #103, .T. ) ;
#317 = EDGE_CURVE ( 'NONE', #8, #242, #114, .T. ) ;
#318 = DIRECTION ( 'NONE',  ( 1.000000000000000000, 0.0000000000000000000, 0.0000000000000000000 ) ) ;
#319 =( LENGTH_UNIT ( ) NAMED_UNIT ( * ) SI_UNIT ( $, .METRE. ) );
#320 = PLANE ( 'NONE',  #267 ) ;
#321 = DIRECTION ( 'NONE',  ( 1.000000000000000000, 0.0000000000000000000, -0.0000000000000000000 ) ) ;
#322 = AXIS2_PLACEMENT_3D ( 'NONE', #157, #228, #303 ) ;
#323 = DIRECTION ( 'NONE',  ( 0.0000000000000000000, 0.0000000000000000000, -1.000000000000000000 ) ) ;
#324 = UNCERTAINTY_MEASURE_WITH_UNIT (LENGTH_MEASURE( 1.000000000000000082E-05 ), #64, 'distance_accuracy_value', 'NONE');
#325 = ORIENTED_EDGE ( 'NONE', *, *, #142, .F. ) ;
ENDSEC;
END-ISO-10303-21;
