ISO-10303-21;
HEADER;
FILE_DESCRIPTION (( 'STEP AP214' ),
    '1' );
FILE_NAME ('Micro_AECM-1005-4.STEP',
    '2021-09-03T16:58:22',
    ( '' ),
    ( '' ),
    'SwSTEP 2.0',
    'SolidWorks 2020',
    '' );
FILE_SCHEMA (( 'AUTOMOTIVE_DESIGN' ));
ENDSEC;

DATA;
#1 = CARTESIAN_POINT ( 'NONE',  ( 0.1818505000000002481, 2.318874837419510283E-17, 2.834646000000000665 ) ) ;
#2 = DIRECTION ( 'NONE',  ( -1.000000000000000000, 1.224646799147353454E-16, 0.0000000000000000000 ) ) ;
#3 = DIRECTION ( 'NONE',  ( -0.0000000000000000000, -0.0000000000000000000, -1.000000000000000000 ) ) ;
#4 = ORIENTED_EDGE ( 'NONE', *, *, #289, .F. ) ;
#5 = DIRECTION ( 'NONE',  ( -1.000000000000000000, 0.0000000000000000000, 0.0000000000000000000 ) ) ;
#6 = VERTEX_POINT ( 'NONE', #64 ) ;
#7 = DIRECTION ( 'NONE',  ( 1.000000000000000000, 0.0000000000000000000, 0.0000000000000000000 ) ) ;
#8 = UNCERTAINTY_MEASURE_WITH_UNIT (LENGTH_MEASURE( 1.000000000000000082E-05 ), #72, 'distance_accuracy_value', 'NONE');
#9 = CARTESIAN_POINT ( 'NONE',  ( 0.0000000000000000000, 0.0000000000000000000, 0.0000000000000000000 ) ) ;
#10 = CARTESIAN_POINT ( 'NONE',  ( -0.1968504999999999838, 0.0000000000000000000, 2.819646000000000097 ) ) ;
#11 = LINE ( 'NONE', #134, #237 ) ;
#12 = SURFACE_STYLE_USAGE ( .BOTH. , #104 ) ;
#13 = DIRECTION ( 'NONE',  ( -1.224646799147353207E-16, -0.0000000000000000000, -1.000000000000000000 ) ) ;
#14 = CIRCLE ( 'NONE', #229, 0.1769686495000000470 ) ;
#15 = DIRECTION ( 'NONE',  ( -1.000000000000000000, 0.0000000000000000000, 0.0000000000000000000 ) ) ;
#16 = DIRECTION ( 'NONE',  ( -1.224646799147353207E-16, -0.0000000000000000000, -1.000000000000000000 ) ) ;
#17 = EDGE_CURVE ( 'NONE', #273, #98, #141, .T. ) ;
#18 = CARTESIAN_POINT ( 'NONE',  ( 2.410717224121564627E-18, 0.0000000000000000000, 0.0000000000000000000 ) ) ;
#19 = AXIS2_PLACEMENT_3D ( 'NONE', #312, #198, #196 ) ;
#20 = VECTOR ( 'NONE', #13, 39.37007874015748143 ) ;
#21 =( NAMED_UNIT ( * ) PLANE_ANGLE_UNIT ( ) SI_UNIT ( $, .RADIAN. ) );
#22 = APPLICATION_CONTEXT ( 'automotive_design' ) ;
#23 = FACE_OUTER_BOUND ( 'NONE', #277, .T. ) ;
#24 = AXIS2_PLACEMENT_3D ( 'NONE', #225, #348, #344 ) ;
#25 = AXIS2_PLACEMENT_3D ( 'NONE', #188, #332, #219 ) ;
#26 = EDGE_LOOP ( 'NONE', ( #96, #209, #231, #179 ) ) ;
#27 = DIRECTION ( 'NONE',  ( 1.000000000000000000, 0.0000000000000000000, 0.0000000000000000000 ) ) ;
#28 = ORIENTED_EDGE ( 'NONE', *, *, #266, .F. ) ;
#29 = FACE_OUTER_BOUND ( 'NONE', #207, .T. ) ;
#30 = AXIS2_PLACEMENT_3D ( 'NONE', #154, #233, #2 ) ;
#31 = ORIENTED_EDGE ( 'NONE', *, *, #127, .F. ) ;
#32 =( CONVERSION_BASED_UNIT ( 'INCH', #216 ) LENGTH_UNIT ( ) NAMED_UNIT ( #197 ) );
#33 = VERTEX_POINT ( 'NONE', #126 ) ;
#34 =( NAMED_UNIT ( * ) SI_UNIT ( $, .STERADIAN. ) SOLID_ANGLE_UNIT ( ) );
#35 = ORIENTED_EDGE ( 'NONE', *, *, #81, .T. ) ;
#36 = AXIS2_PLACEMENT_3D ( 'NONE', #306, #62, #112 ) ;
#37 = ORIENTED_EDGE ( 'NONE', *, *, #86, .T. ) ;
#38 = ADVANCED_FACE ( 'NONE', ( #325 ), #87, .T. ) ;
#39 = LENGTH_MEASURE_WITH_UNIT ( LENGTH_MEASURE( 0.02539999999999999897 ), #102 );
#40 = LINE ( 'NONE', #129, #201 ) ;
#41 = DIRECTION ( 'NONE',  ( -0.0000000000000000000, -0.0000000000000000000, -1.000000000000000000 ) ) ;
#42 = DIRECTION ( 'NONE',  ( 1.000000000000000000, 0.0000000000000000000, 0.0000000000000000000 ) ) ;
#43 = DIRECTION ( 'NONE',  ( -1.000000000000000000, 0.0000000000000000000, 0.0000000000000000000 ) ) ;
#44 = DIRECTION ( 'NONE',  ( 1.000000000000000000, 0.0000000000000000000, 0.0000000000000000000 ) ) ;
#45 = APPLICATION_PROTOCOL_DEFINITION ( 'draft international standard', 'automotive_design', 1998, #173 ) ;
#46 = AXIS2_PLACEMENT_3D ( 'NONE', #174, #115, #117 ) ;
#47 = EDGE_CURVE ( 'NONE', #322, #310, #294, .T. ) ;
#48 = ORIENTED_EDGE ( 'NONE', *, *, #73, .F. ) ;
#49 = EDGE_CURVE ( 'NONE', #322, #84, #251, .T. ) ;
#50 = CIRCLE ( 'NONE', #142, 0.1966536495000000273 ) ;
#51 = CARTESIAN_POINT ( 'NONE',  ( -0.1966536494999999163, 2.408312624008205478E-17, 0.9842519999999999047 ) ) ;
#52 = EDGE_CURVE ( 'NONE', #84, #322, #92, .T. ) ;
#53 = ORIENTED_EDGE ( 'NONE', *, *, #47, .T. ) ;
#54 = VECTOR ( 'NONE', #291, 39.37007874015748143 ) ;
#55 = ORIENTED_EDGE ( 'NONE', *, *, #178, .T. ) ;
#56 = ORIENTED_EDGE ( 'NONE', *, *, #49, .T. ) ;
#57 = FACE_OUTER_BOUND ( 'NONE', #205, .T. ) ;
#58 = PRODUCT_DEFINITION_SHAPE ( 'NONE', 'NONE',  #281 ) ;
#59 = ORIENTED_EDGE ( 'NONE', *, *, #89, .F. ) ;
#60 = ADVANCED_FACE ( 'NONE', ( #163 ), #191, .T. ) ;
#61 = FACE_OUTER_BOUND ( 'NONE', #324, .T. ) ;
#62 = DIRECTION ( 'NONE',  ( 0.0000000000000000000, 0.0000000000000000000, -1.000000000000000000 ) ) ;
#63 = APPLICATION_PROTOCOL_DEFINITION ( 'draft international standard', 'automotive_design', 1998, #22 ) ;
#64 = CARTESIAN_POINT ( 'NONE',  ( 0.1769686495000000470, 0.0000000000000000000, 0.0000000000000000000 ) ) ;
#65 = CARTESIAN_POINT ( 'NONE',  ( 0.1968505000000001226, 2.410723347355561878E-17, 0.9853683946618323475 ) ) ;
#66 = EDGE_LOOP ( 'NONE', ( #256, #284, #184, #28 ) ) ;
#67 = DIRECTION ( 'NONE',  ( 0.0000000000000000000, 0.0000000000000000000, 1.000000000000000000 ) ) ;
#68 =( GEOMETRIC_REPRESENTATION_CONTEXT ( 3 ) GLOBAL_UNCERTAINTY_ASSIGNED_CONTEXT ( ( #316 ) ) GLOBAL_UNIT_ASSIGNED_CONTEXT ( ( #32, #234, #168 ) ) REPRESENTATION_CONTEXT ( 'NONE', 'WORKASPACE' ) );
#69 = PRESENTATION_LAYER_ASSIGNMENT (  '', '', ( #208 ) ) ;
#70 = AXIS2_PLACEMENT_3D ( 'NONE', #254, #82, #345 ) ;
#71 = CARTESIAN_POINT ( 'NONE',  ( 0.1966536495000000273, 2.408312624008205478E-17, -2.408312624008205478E-17 ) ) ;
#72 =( CONVERSION_BASED_UNIT ( 'INCH', #186 ) LENGTH_UNIT ( ) NAMED_UNIT ( #224 ) );
#73 = EDGE_CURVE ( 'NONE', #328, #157, #244, .T. ) ;
#74 = CARTESIAN_POINT ( 'NONE',  ( -0.1968504999999999838, 0.0000000000000000000, 2.834646000000000665 ) ) ;
#75 = DIRECTION ( 'NONE',  ( -1.000000000000000000, 0.0000000000000000000, 0.0000000000000000000 ) ) ;
#76 = ADVANCED_FACE ( 'NONE', ( #338 ), #195, .T. ) ;
#77 = AXIS2_PLACEMENT_3D ( 'NONE', #99, #331, #132 ) ;
#78 = CARTESIAN_POINT ( 'NONE',  ( 0.0000000000000000000, 0.0000000000000000000, 2.834646000000000665 ) ) ;
#79 = COLOUR_RGB ( '',0.7921568627450980005, 0.8196078431372548767, 0.9333333333333333481 ) ;
#80 = CARTESIAN_POINT ( 'NONE',  ( 0.0000000000000000000, 0.0000000000000000000, 2.834646000000000665 ) ) ;
#81 = EDGE_CURVE ( 'NONE', #6, #301, #106, .T. ) ;
#82 = DIRECTION ( 'NONE',  ( 1.224646799147353207E-16, 0.0000000000000000000, 1.000000000000000000 ) ) ;
#83 = EDGE_CURVE ( 'NONE', #128, #328, #11, .T. ) ;
#84 = VERTEX_POINT ( 'NONE', #165 ) ;
#85 = DIRECTION ( 'NONE',  ( -0.1736481776669310528, 2.126576849575781776E-17, 0.9848077530122080203 ) ) ;
#86 = EDGE_CURVE ( 'NONE', #6, #273, #275, .T. ) ;
#87 = CONICAL_SURFACE ( 'NONE', #36, 0.1818505000000002481, 0.7853981633974312926 ) ;
#88 = CARTESIAN_POINT ( 'NONE',  ( -0.1769686495000000470, 2.287776762802127170E-17, 0.0000000000000000000 ) ) ;
#89 = EDGE_CURVE ( 'NONE', #157, #310, #130, .T. ) ;
#90 = ORIENTED_EDGE ( 'NONE', *, *, #89, .T. ) ;
#91 = STYLED_ITEM ( 'NONE', ( #213 ), #162 ) ;
#92 = CIRCLE ( 'NONE', #327, 0.1966536495000000273 ) ;
#93 = EDGE_LOOP ( 'NONE', ( #37, #55 ) ) ;
#94 = FACE_OUTER_BOUND ( 'NONE', #223, .T. ) ;
#95 = ORIENTED_EDGE ( 'NONE', *, *, #226, .F. ) ;
#96 = ORIENTED_EDGE ( 'NONE', *, *, #320, .F. ) ;
#97 = CIRCLE ( 'NONE', #227, 0.1966536495000000273 ) ;
#98 = VERTEX_POINT ( 'NONE', #110 ) ;
#99 = CARTESIAN_POINT ( 'NONE',  ( 0.0000000000000000000, 0.0000000000000000000, 0.0000000000000000000 ) ) ;
#100 = ORIENTED_EDGE ( 'NONE', *, *, #178, .F. ) ;
#101 = DIRECTION ( 'NONE',  ( 0.0000000000000000000, 0.0000000000000000000, 1.000000000000000000 ) ) ;
#102 =( LENGTH_UNIT ( ) NAMED_UNIT ( * ) SI_UNIT ( $, .METRE. ) );
#103 = EDGE_CURVE ( 'NONE', #33, #310, #166, .T. ) ;
#104 = SURFACE_SIDE_STYLE ('',( #155 ) ) ;
#105 = MECHANICAL_DESIGN_GEOMETRIC_PRESENTATION_REPRESENTATION (  '', ( #91 ), #68 ) ;
#106 = CIRCLE ( 'NONE', #25, 0.01968500000000000111 ) ;
#107 = CONICAL_SURFACE ( 'NONE', #245, 0.1966536495000000273, 0.1745329251994337805 ) ;
#108 = CARTESIAN_POINT ( 'NONE',  ( 2.410717224121564627E-18, 0.0000000000000000000, 0.0000000000000000000 ) ) ;
#109 = PLANE ( 'NONE',  #270 ) ;
#110 = CARTESIAN_POINT ( 'NONE',  ( -0.1966536495000000828, 0.0000000000000000000, 0.01968500000000000458 ) ) ;
#111 = UNCERTAINTY_MEASURE_WITH_UNIT (LENGTH_MEASURE( 1.000000000000000082E-05 ), #161, 'distance_accuracy_value', 'NONE');
#112 = DIRECTION ( 'NONE',  ( -1.000000000000000000, 0.0000000000000000000, 0.0000000000000000000 ) ) ;
#113 = ADVANCED_FACE ( 'NONE', ( #268 ), #109, .F. ) ;
#114 = SHAPE_DEFINITION_REPRESENTATION ( #58, #162 ) ;
#115 = DIRECTION ( 'NONE',  ( -1.224646799147353207E-16, -0.0000000000000000000, -1.000000000000000000 ) ) ;
#116 = PRODUCT_RELATED_PRODUCT_CATEGORY ( 'part', '', ( #120 ) ) ;
#117 = DIRECTION ( 'NONE',  ( 1.000000000000000000, 0.0000000000000000000, 0.0000000000000000000 ) ) ;
#118 = CIRCLE ( 'NONE', #151, 0.1968504999999999838 ) ;
#119 = ORIENTED_EDGE ( 'NONE', *, *, #320, .T. ) ;
#120 = PRODUCT ( 'Micro_AECM-1005-4', 'Micro_AECM-1005-4', '', ( #164 ) ) ;
#121 = ORIENTED_EDGE ( 'NONE', *, *, #339, .F. ) ;
#122 =( GEOMETRIC_REPRESENTATION_CONTEXT ( 3 ) GLOBAL_UNCERTAINTY_ASSIGNED_CONTEXT ( ( #8 ) ) GLOBAL_UNIT_ASSIGNED_CONTEXT ( ( #72, #333, #34 ) ) REPRESENTATION_CONTEXT ( 'NONE', 'WORKASPACE' ) );
#123 = CARTESIAN_POINT ( 'NONE',  ( 2.410717224121564627E-18, 0.0000000000000000000, 0.01968500000000000111 ) ) ;
#124 = ORIENTED_EDGE ( 'NONE', *, *, #52, .F. ) ;
#125 = LINE ( 'NONE', #51, #265 ) ;
#126 = CARTESIAN_POINT ( 'NONE',  ( 0.1968504999999999838, 2.410723347355560646E-17, 2.819646000000000097 ) ) ;
#127 = EDGE_CURVE ( 'NONE', #322, #301, #217, .T. ) ;
#128 = VERTEX_POINT ( 'NONE', #243 ) ;
#129 = CARTESIAN_POINT ( 'NONE',  ( -0.1966536495000000273, 0.0000000000000000000, 2.408312624008205478E-17 ) ) ;
#130 = CIRCLE ( 'NONE', #314, 0.1968504999999999838 ) ;
#131 = ORIENTED_EDGE ( 'NONE', *, *, #52, .T. ) ;
#132 = DIRECTION ( 'NONE',  ( -1.000000000000000000, 0.0000000000000000000, 1.224646799147353207E-16 ) ) ;
#133 = MANIFOLD_SOLID_BREP ( 'Fillet1', #149 ) ;
#134 = CARTESIAN_POINT ( 'NONE',  ( -0.1818505000000002481, 0.0000000000000000000, 2.834646000000000665 ) ) ;
#135 = CARTESIAN_POINT ( 'NONE',  ( 2.410717224121565012E-18, 0.0000000000000000000, 0.01968500000000000458 ) ) ;
#136 = CIRCLE ( 'NONE', #180, 0.1818505000000002481 ) ;
#137 = PRESENTATION_STYLE_ASSIGNMENT (( #315 ) ) ;
#138 = DIRECTION ( 'NONE',  ( -0.7071067811865354713, 0.0000000000000000000, -0.7071067811865594521 ) ) ;
#139 = EDGE_CURVE ( 'NONE', #228, #128, #136, .T. ) ;
#140 = SURFACE_STYLE_FILL_AREA ( #264 ) ;
#141 = CIRCLE ( 'NONE', #30, 0.01968500000000000458 ) ;
#142 = AXIS2_PLACEMENT_3D ( 'NONE', #246, #317, #302 ) ;
#143 = DIRECTION ( 'NONE',  ( 1.000000000000000000, 0.0000000000000000000, 0.0000000000000000000 ) ) ;
#144 = AXIS2_PLACEMENT_3D ( 'NONE', #78, #336, #43 ) ;
#145 = CARTESIAN_POINT ( 'NONE',  ( 2.410717224121564627E-18, 0.0000000000000000000, 0.01968500000000000111 ) ) ;
#146 = DIMENSIONAL_EXPONENTS ( 1.000000000000000000, 0.0000000000000000000, 0.0000000000000000000, 0.0000000000000000000, 0.0000000000000000000, 0.0000000000000000000, 0.0000000000000000000 ) ;
#147 = CARTESIAN_POINT ( 'NONE',  ( -0.1968504999999998450, 0.0000000000000000000, 0.9853683946618323475 ) ) ;
#148 = AXIS2_PLACEMENT_3D ( 'NONE', #304, #296, #298 ) ;
#149 = CLOSED_SHELL ( 'NONE', ( #300, #347, #220, #76, #309, #60, #334, #38, #287, #283, #113, #189 ) ) ;
#150 = ORIENTED_EDGE ( 'NONE', *, *, #86, .F. ) ;
#151 = AXIS2_PLACEMENT_3D ( 'NONE', #269, #272, #276 ) ;
#152 = CIRCLE ( 'NONE', #148, 0.1968504999999999838 ) ;
#153 = DIRECTION ( 'NONE',  ( 0.0000000000000000000, 0.0000000000000000000, 1.000000000000000000 ) ) ;
#154 = CARTESIAN_POINT ( 'NONE',  ( -0.1769686495000000470, 2.167240901596048861E-17, 0.01968500000000000111 ) ) ;
#155 = SURFACE_STYLE_FILL_AREA ( #260 ) ;
#156 = ORIENTED_EDGE ( 'NONE', *, *, #266, .T. ) ;
#157 = VERTEX_POINT ( 'NONE', #147 ) ;
#158 = PLANE ( 'NONE',  #337 ) ;
#159 = ORIENTED_EDGE ( 'NONE', *, *, #139, .F. ) ;
#160 = DIRECTION ( 'NONE',  ( -1.224646799147353207E-16, -0.0000000000000000000, -1.000000000000000000 ) ) ;
#161 =( CONVERSION_BASED_UNIT ( 'INCH', #39 ) LENGTH_UNIT ( ) NAMED_UNIT ( #146 ) );
#162 = ADVANCED_BREP_SHAPE_REPRESENTATION ( 'Micro_AECM-1005-4', ( #133, #194 ), #122 ) ;
#163 = FACE_OUTER_BOUND ( 'NONE', #66, .T. ) ;
#164 = PRODUCT_CONTEXT ( 'NONE', #22, 'mechanical' ) ;
#165 = CARTESIAN_POINT ( 'NONE',  ( -0.1966536494999999163, 2.409517985681882908E-17, 0.9842519999999999047 ) ) ;
#166 = LINE ( 'NONE', #193, #54 ) ;
#167 = DIRECTION ( 'NONE',  ( 0.0000000000000000000, 0.0000000000000000000, 1.000000000000000000 ) ) ;
#168 =( NAMED_UNIT ( * ) SI_UNIT ( $, .STERADIAN. ) SOLID_ANGLE_UNIT ( ) );
#169 = CIRCLE ( 'NONE', #46, 0.1968504999999999838 ) ;
#170 = DIRECTION ( 'NONE',  ( 1.000000000000000000, 0.0000000000000000000, 0.0000000000000000000 ) ) ;
#171 =( GEOMETRIC_REPRESENTATION_CONTEXT ( 3 ) GLOBAL_UNCERTAINTY_ASSIGNED_CONTEXT ( ( #111 ) ) GLOBAL_UNIT_ASSIGNED_CONTEXT ( ( #161, #21, #247 ) ) REPRESENTATION_CONTEXT ( 'NONE', 'WORKASPACE' ) );
#172 = AXIS2_PLACEMENT_3D ( 'NONE', #145, #222, #170 ) ;
#173 = APPLICATION_CONTEXT ( 'automotive_design' ) ;
#174 = CARTESIAN_POINT ( 'NONE',  ( 1.206728250503578783E-16, 0.0000000000000000000, 0.9853683946618323475 ) ) ;
#175 = DIRECTION ( 'NONE',  ( 1.224646799147353207E-16, 0.0000000000000000000, 1.000000000000000000 ) ) ;
#176 = EDGE_LOOP ( 'NONE', ( #31, #56, #308, #279 ) ) ;
#177 = EDGE_LOOP ( 'NONE', ( #159, #119, #4, #285 ) ) ;
#178 = EDGE_CURVE ( 'NONE', #273, #6, #14, .T. ) ;
#179 = ORIENTED_EDGE ( 'NONE', *, *, #295, .F. ) ;
#180 = AXIS2_PLACEMENT_3D ( 'NONE', #80, #153, #143 ) ;
#181 = CARTESIAN_POINT ( 'NONE',  ( 0.0000000000000000000, 0.0000000000000000000, 2.834646000000000665 ) ) ;
#182 = ORIENTED_EDGE ( 'NONE', *, *, #47, .F. ) ;
#183 = ORIENTED_EDGE ( 'NONE', *, *, #289, .T. ) ;
#184 = ORIENTED_EDGE ( 'NONE', *, *, #73, .T. ) ;
#185 = PRODUCT_DEFINITION_FORMATION_WITH_SPECIFIED_SOURCE ( 'ANY', '', #120, .NOT_KNOWN. ) ;
#186 = LENGTH_MEASURE_WITH_UNIT ( LENGTH_MEASURE( 0.02539999999999999897 ), #210 );
#187 = AXIS2_PLACEMENT_3D ( 'NONE', #108, #41, #215 ) ;
#188 = CARTESIAN_POINT ( 'NONE',  ( 0.1769686495000000470, 0.0000000000000000000, 0.01968500000000000111 ) ) ;
#189 = ADVANCED_FACE ( 'NONE', ( #61 ), #350, .T. ) ;
#190 =( LENGTH_UNIT ( ) NAMED_UNIT ( * ) SI_UNIT ( $, .METRE. ) );
#191 = CYLINDRICAL_SURFACE ( 'NONE', #259, 0.1968504999999999838 ) ;
#192 = DIRECTION ( 'NONE',  ( 0.0000000000000000000, 0.0000000000000000000, 1.000000000000000000 ) ) ;
#193 = CARTESIAN_POINT ( 'NONE',  ( 0.1968504999999999838, 2.410723347355560646E-17, 2.834646000000000665 ) ) ;
#194 = AXIS2_PLACEMENT_3D ( 'NONE', #293, #192, #42 ) ;
#195 = CONICAL_SURFACE ( 'NONE', #144, 0.1818505000000002481, 0.7853981633974312926 ) ;
#196 = DIRECTION ( 'NONE',  ( -1.000000000000000000, 0.0000000000000000000, 0.0000000000000000000 ) ) ;
#197 = DIMENSIONAL_EXPONENTS ( 1.000000000000000000, 0.0000000000000000000, 0.0000000000000000000, 0.0000000000000000000, 0.0000000000000000000, 0.0000000000000000000, 0.0000000000000000000 ) ;
#198 = DIRECTION ( 'NONE',  ( -1.224646799147353207E-16, -0.0000000000000000000, -1.000000000000000000 ) ) ;
#199 = CYLINDRICAL_SURFACE ( 'NONE', #335, 0.1966536495000000273 ) ;
#200 = CARTESIAN_POINT ( 'NONE',  ( 0.0000000000000000000, 0.0000000000000000000, 0.0000000000000000000 ) ) ;
#201 = VECTOR ( 'NONE', #160, 39.37007874015748143 ) ;
#202 = DIRECTION ( 'NONE',  ( -1.224646799147353207E-16, -0.0000000000000000000, -1.000000000000000000 ) ) ;
#203 = EDGE_LOOP ( 'NONE', ( #131, #280, #261, #330 ) ) ;
#204 = CYLINDRICAL_SURFACE ( 'NONE', #248, 0.1968504999999999838 ) ;
#205 = EDGE_LOOP ( 'NONE', ( #221, #258, #53, #156 ) ) ;
#206 = CARTESIAN_POINT ( 'NONE',  ( 1.205361061354380629E-16, 0.0000000000000000000, 0.9842519999999999047 ) ) ;
#207 = EDGE_LOOP ( 'NONE', ( #124, #239, #90, #182 ) ) ;
#208 = STYLED_ITEM ( 'NONE', ( #137 ), #133 ) ;
#209 = ORIENTED_EDGE ( 'NONE', *, *, #274, .F. ) ;
#210 =( LENGTH_UNIT ( ) NAMED_UNIT ( * ) SI_UNIT ( $, .METRE. ) );
#211 = ORIENTED_EDGE ( 'NONE', *, *, #139, .T. ) ;
#212 = DIRECTION ( 'NONE',  ( 1.000000000000000000, 0.0000000000000000000, -0.0000000000000000000 ) ) ;
#213 = PRESENTATION_STYLE_ASSIGNMENT (( #12 ) ) ;
#214 = CONICAL_SURFACE ( 'NONE', #70, 0.1966536495000000273, 0.1745329251994337805 ) ;
#215 = DIRECTION ( 'NONE',  ( 1.000000000000000000, 0.0000000000000000000, 0.0000000000000000000 ) ) ;
#216 = LENGTH_MEASURE_WITH_UNIT ( LENGTH_MEASURE( 0.02539999999999999897 ), #190 );
#217 = LINE ( 'NONE', #71, #20 ) ;
#218 = CARTESIAN_POINT ( 'NONE',  ( 0.1966536495000001661, 0.0000000000000000000, 0.9842519999999999047 ) ) ;
#219 = DIRECTION ( 'NONE',  ( 0.0000000000000000000, 0.0000000000000000000, -1.000000000000000000 ) ) ;
#220 = ADVANCED_FACE ( 'NONE', ( #29 ), #214, .T. ) ;
#221 = ORIENTED_EDGE ( 'NONE', *, *, #282, .F. ) ;
#222 = DIRECTION ( 'NONE',  ( 0.0000000000000000000, 0.0000000000000000000, 1.000000000000000000 ) ) ;
#223 = EDGE_LOOP ( 'NONE', ( #183, #351, #59, #48 ) ) ;
#224 = DIMENSIONAL_EXPONENTS ( 1.000000000000000000, 0.0000000000000000000, 0.0000000000000000000, 0.0000000000000000000, 0.0000000000000000000, 0.0000000000000000000, 0.0000000000000000000 ) ;
#225 = CARTESIAN_POINT ( 'NONE',  ( 0.0000000000000000000, 0.0000000000000000000, 2.834646000000000665 ) ) ;
#226 = EDGE_CURVE ( 'NONE', #301, #98, #50, .T. ) ;
#227 = AXIS2_PLACEMENT_3D ( 'NONE', #135, #101, #7 ) ;
#228 = VERTEX_POINT ( 'NONE', #1 ) ;
#229 = AXIS2_PLACEMENT_3D ( 'NONE', #18, #342, #27 ) ;
#230 = DIRECTION ( 'NONE',  ( 0.0000000000000000000, 0.0000000000000000000, 1.000000000000000000 ) ) ;
#231 = ORIENTED_EDGE ( 'NONE', *, *, #83, .T. ) ;
#232 = DIRECTION ( 'NONE',  ( -1.000000000000000000, 0.0000000000000000000, 1.224646799147353207E-16 ) ) ;
#233 = DIRECTION ( 'NONE',  ( 1.224646799147353207E-16, 1.000000000000000000, -0.0000000000000000000 ) ) ;
#234 =( NAMED_UNIT ( * ) PLANE_ANGLE_UNIT ( ) SI_UNIT ( $, .RADIAN. ) );
#235 = EDGE_LOOP ( 'NONE', ( #255, #211 ) ) ;
#236 = VECTOR ( 'NONE', #257, 39.37007874015748854 ) ;
#237 = VECTOR ( 'NONE', #138, 39.37007874015748854 ) ;
#238 = CARTESIAN_POINT ( 'NONE',  ( 0.1818505000000002481, 2.227026327483460228E-17, 2.834646000000000665 ) ) ;
#239 = ORIENTED_EDGE ( 'NONE', *, *, #282, .T. ) ;
#240 = CARTESIAN_POINT ( 'NONE',  ( 0.1966536495000001661, 0.0000000000000000000, 0.9842519999999999047 ) ) ;
#241 = CARTESIAN_POINT ( 'NONE',  ( 1.205361061354380629E-16, 0.0000000000000000000, 0.9842519999999999047 ) ) ;
#242 = DIRECTION ( 'NONE',  ( 1.000000000000000000, 0.0000000000000000000, -0.0000000000000000000 ) ) ;
#243 = CARTESIAN_POINT ( 'NONE',  ( -0.1818505000000002481, 0.0000000000000000000, 2.834646000000000665 ) ) ;
#244 = LINE ( 'NONE', #74, #349 ) ;
#245 = AXIS2_PLACEMENT_3D ( 'NONE', #206, #175, #299 ) ;
#246 = CARTESIAN_POINT ( 'NONE',  ( 2.410717224121565012E-18, 0.0000000000000000000, 0.01968500000000000458 ) ) ;
#247 =( NAMED_UNIT ( * ) SI_UNIT ( $, .STERADIAN. ) SOLID_ANGLE_UNIT ( ) );
#248 = AXIS2_PLACEMENT_3D ( 'NONE', #307, #3, #5 ) ;
#249 = CARTESIAN_POINT ( 'NONE',  ( 0.1966536495000000273, 2.408312624008205478E-17, 0.01968500000000000458 ) ) ;
#250 = COLOUR_RGB ( '',0.7921568627450980005, 0.8196078431372548767, 0.9333333333333333481 ) ;
#251 = CIRCLE ( 'NONE', #19, 0.1966536495000000273 ) ;
#252 = ORIENTED_EDGE ( 'NONE', *, *, #17, .F. ) ;
#253 = CIRCLE ( 'NONE', #24, 0.1818505000000002481 ) ;
#254 = CARTESIAN_POINT ( 'NONE',  ( 1.205361061354380629E-16, 0.0000000000000000000, 0.9842519999999999047 ) ) ;
#255 = ORIENTED_EDGE ( 'NONE', *, *, #274, .T. ) ;
#256 = ORIENTED_EDGE ( 'NONE', *, *, #103, .F. ) ;
#257 = DIRECTION ( 'NONE',  ( 0.7071067811865354713, 8.659560562354783714E-17, -0.7071067811865594521 ) ) ;
#258 = ORIENTED_EDGE ( 'NONE', *, *, #49, .F. ) ;
#259 = AXIS2_PLACEMENT_3D ( 'NONE', #290, #313, #75 ) ;
#260 = FILL_AREA_STYLE ('',( #263 ) ) ;
#261 = ORIENTED_EDGE ( 'NONE', *, *, #226, .T. ) ;
#262 = CARTESIAN_POINT ( 'NONE',  ( 1.206728250503578783E-16, 0.0000000000000000000, 0.9853683946618323475 ) ) ;
#263 = FILL_AREA_STYLE_COLOUR ( '', #250 ) ;
#264 = FILL_AREA_STYLE ('',( #288 ) ) ;
#265 = VECTOR ( 'NONE', #85, 39.37007874015748854 ) ;
#266 = EDGE_CURVE ( 'NONE', #310, #157, #169, .T. ) ;
#267 = DIRECTION ( 'NONE',  ( -1.224646799147353207E-16, -0.0000000000000000000, -1.000000000000000000 ) ) ;
#268 = FACE_OUTER_BOUND ( 'NONE', #93, .T. ) ;
#269 = CARTESIAN_POINT ( 'NONE',  ( 0.0000000000000000000, 0.0000000000000000000, 2.819646000000000097 ) ) ;
#270 = AXIS2_PLACEMENT_3D ( 'NONE', #9, #167, #242 ) ;
#271 = PRODUCT_DEFINITION_CONTEXT ( 'detailed design', #173, 'design' ) ;
#272 = DIRECTION ( 'NONE',  ( 0.0000000000000000000, 0.0000000000000000000, -1.000000000000000000 ) ) ;
#273 = VERTEX_POINT ( 'NONE', #88 ) ;
#274 = EDGE_CURVE ( 'NONE', #128, #228, #253, .T. ) ;
#275 = CIRCLE ( 'NONE', #187, 0.1769686495000000470 ) ;
#276 = DIRECTION ( 'NONE',  ( 1.000000000000000000, 0.0000000000000000000, 0.0000000000000000000 ) ) ;
#277 = EDGE_LOOP ( 'NONE', ( #100, #318, #95, #303 ) ) ;
#278 = MECHANICAL_DESIGN_GEOMETRIC_PRESENTATION_REPRESENTATION (  '', ( #208 ), #171 ) ;
#279 = ORIENTED_EDGE ( 'NONE', *, *, #339, .T. ) ;
#280 = ORIENTED_EDGE ( 'NONE', *, *, #127, .T. ) ;
#281 = PRODUCT_DEFINITION ( 'UNKNOWN', '', #185, #271 ) ;
#282 = EDGE_CURVE ( 'NONE', #84, #157, #125, .T. ) ;
#283 = ADVANCED_FACE ( 'NONE', ( #319 ), #199, .T. ) ;
#284 = ORIENTED_EDGE ( 'NONE', *, *, #295, .T. ) ;
#285 = ORIENTED_EDGE ( 'NONE', *, *, #83, .F. ) ;
#286 = LINE ( 'NONE', #238, #236 ) ;
#287 = ADVANCED_FACE ( 'NONE', ( #57 ), #107, .T. ) ;
#288 = FILL_AREA_STYLE_COLOUR ( '', #79 ) ;
#289 = EDGE_CURVE ( 'NONE', #328, #33, #152, .T. ) ;
#290 = CARTESIAN_POINT ( 'NONE',  ( 0.0000000000000000000, 0.0000000000000000000, 2.834646000000000665 ) ) ;
#291 = DIRECTION ( 'NONE',  ( -0.0000000000000000000, -0.0000000000000000000, -1.000000000000000000 ) ) ;
#292 = DIRECTION ( 'NONE',  ( 0.1736481776669312749, 0.0000000000000000000, 0.9848077530122077983 ) ) ;
#293 = CARTESIAN_POINT ( 'NONE',  ( 0.0000000000000000000, 0.0000000000000000000, 0.0000000000000000000 ) ) ;
#294 = LINE ( 'NONE', #218, #346 ) ;
#295 = EDGE_CURVE ( 'NONE', #33, #328, #118, .T. ) ;
#296 = DIRECTION ( 'NONE',  ( 0.0000000000000000000, 0.0000000000000000000, -1.000000000000000000 ) ) ;
#297 = AXIS2_PLACEMENT_3D ( 'NONE', #123, #230, #323 ) ;
#298 = DIRECTION ( 'NONE',  ( 1.000000000000000000, 0.0000000000000000000, 0.0000000000000000000 ) ) ;
#299 = DIRECTION ( 'NONE',  ( 1.000000000000000000, 0.0000000000000000000, 0.0000000000000000000 ) ) ;
#300 = ADVANCED_FACE ( 'NONE', ( #23 ), #305, .T. ) ;
#301 = VERTEX_POINT ( 'NONE', #249 ) ;
#302 = DIRECTION ( 'NONE',  ( 1.000000000000000000, 0.0000000000000000000, 0.0000000000000000000 ) ) ;
#303 = ORIENTED_EDGE ( 'NONE', *, *, #81, .F. ) ;
#304 = CARTESIAN_POINT ( 'NONE',  ( 0.0000000000000000000, 0.0000000000000000000, 2.819646000000000097 ) ) ;
#305 = TOROIDAL_SURFACE ( 'NONE', #297, 0.1769686495000000470, 0.01968500000000000111 ) ;
#306 = CARTESIAN_POINT ( 'NONE',  ( 0.0000000000000000000, 0.0000000000000000000, 2.834646000000000665 ) ) ;
#307 = CARTESIAN_POINT ( 'NONE',  ( 0.0000000000000000000, 0.0000000000000000000, 2.834646000000000665 ) ) ;
#308 = ORIENTED_EDGE ( 'NONE', *, *, #343, .T. ) ;
#309 = ADVANCED_FACE ( 'NONE', ( #94 ), #204, .T. ) ;
#310 = VERTEX_POINT ( 'NONE', #65 ) ;
#311 = CYLINDRICAL_SURFACE ( 'NONE', #77, 0.1966536495000000273 ) ;
#312 = CARTESIAN_POINT ( 'NONE',  ( 1.205361061354380629E-16, 0.0000000000000000000, 0.9842519999999999047 ) ) ;
#313 = DIRECTION ( 'NONE',  ( -0.0000000000000000000, -0.0000000000000000000, -1.000000000000000000 ) ) ;
#314 = AXIS2_PLACEMENT_3D ( 'NONE', #262, #16, #44 ) ;
#315 = SURFACE_STYLE_USAGE ( .BOTH. , #341 ) ;
#316 = UNCERTAINTY_MEASURE_WITH_UNIT (LENGTH_MEASURE( 1.000000000000000082E-05 ), #32, 'distance_accuracy_value', 'NONE');
#317 = DIRECTION ( 'NONE',  ( 0.0000000000000000000, 0.0000000000000000000, 1.000000000000000000 ) ) ;
#318 = ORIENTED_EDGE ( 'NONE', *, *, #17, .T. ) ;
#319 = FACE_OUTER_BOUND ( 'NONE', #176, .T. ) ;
#320 = EDGE_CURVE ( 'NONE', #228, #33, #286, .T. ) ;
#321 = PRESENTATION_LAYER_ASSIGNMENT (  '', '', ( #91 ) ) ;
#322 = VERTEX_POINT ( 'NONE', #240 ) ;
#323 = DIRECTION ( 'NONE',  ( 1.000000000000000000, 0.0000000000000000000, 0.0000000000000000000 ) ) ;
#324 = EDGE_LOOP ( 'NONE', ( #252, #150, #35, #121 ) ) ;
#325 = FACE_OUTER_BOUND ( 'NONE', #26, .T. ) ;
#326 = FACE_OUTER_BOUND ( 'NONE', #235, .T. ) ;
#327 = AXIS2_PLACEMENT_3D ( 'NONE', #241, #267, #15 ) ;
#328 = VERTEX_POINT ( 'NONE', #10 ) ;
#329 = FACE_OUTER_BOUND ( 'NONE', #203, .T. ) ;
#330 = ORIENTED_EDGE ( 'NONE', *, *, #343, .F. ) ;
#331 = DIRECTION ( 'NONE',  ( -1.224646799147353207E-16, -0.0000000000000000000, -1.000000000000000000 ) ) ;
#332 = DIRECTION ( 'NONE',  ( 0.0000000000000000000, -1.000000000000000000, 0.0000000000000000000 ) ) ;
#333 =( NAMED_UNIT ( * ) PLANE_ANGLE_UNIT ( ) SI_UNIT ( $, .RADIAN. ) );
#334 = ADVANCED_FACE ( 'NONE', ( #326 ), #158, .T. ) ;
#335 = AXIS2_PLACEMENT_3D ( 'NONE', #200, #202, #232 ) ;
#336 = DIRECTION ( 'NONE',  ( 0.0000000000000000000, 0.0000000000000000000, -1.000000000000000000 ) ) ;
#337 = AXIS2_PLACEMENT_3D ( 'NONE', #181, #67, #212 ) ;
#338 = FACE_OUTER_BOUND ( 'NONE', #177, .T. ) ;
#339 = EDGE_CURVE ( 'NONE', #98, #301, #97, .T. ) ;
#340 = DIRECTION ( 'NONE',  ( -0.0000000000000000000, -0.0000000000000000000, -1.000000000000000000 ) ) ;
#341 = SURFACE_SIDE_STYLE ('',( #140 ) ) ;
#342 = DIRECTION ( 'NONE',  ( -0.0000000000000000000, -0.0000000000000000000, -1.000000000000000000 ) ) ;
#343 = EDGE_CURVE ( 'NONE', #84, #98, #40, .T. ) ;
#344 = DIRECTION ( 'NONE',  ( 1.000000000000000000, 0.0000000000000000000, 0.0000000000000000000 ) ) ;
#345 = DIRECTION ( 'NONE',  ( 1.000000000000000000, 0.0000000000000000000, 0.0000000000000000000 ) ) ;
#346 = VECTOR ( 'NONE', #292, 39.37007874015748143 ) ;
#347 = ADVANCED_FACE ( 'NONE', ( #329 ), #311, .T. ) ;
#348 = DIRECTION ( 'NONE',  ( 0.0000000000000000000, 0.0000000000000000000, 1.000000000000000000 ) ) ;
#349 = VECTOR ( 'NONE', #340, 39.37007874015748143 ) ;
#350 = TOROIDAL_SURFACE ( 'NONE', #172, 0.1769686495000000470, 0.01968500000000000111 ) ;
#351 = ORIENTED_EDGE ( 'NONE', *, *, #103, .T. ) ;
ENDSEC;
END-ISO-10303-21;
