ISO-10303-21;
HEADER;
FILE_DESCRIPTION (( 'STEP AP214' ),
    '1' );
FILE_NAME ('59455.STEP',
    '2023-06-30T22:21:18',
    ( '' ),
    ( '' ),
    'SwSTEP 2.0',
    'SolidWorks 2023',
    '' );
FILE_SCHEMA (( 'AUTOMOTIVE_DESIGN' ));
ENDSEC;

DATA;
#1 = CARTESIAN_POINT ( 'NONE',  ( 1.683889348827610999E-16, 1.625000000000000000, 0.000000000000000000 ) ) ;
#2 = SURFACE_STYLE_USAGE ( .BOTH. , #258 ) ;
#3 = CARTESIAN_POINT ( 'NONE',  ( 0.000000000000000000, 0.3750000000000001110, 0.000000000000000000 ) ) ;
#4 = STYLED_ITEM ( 'NONE', ( #72 ), #77 ) ;
#5 = ORIENTED_EDGE ( 'NONE', *, *, #103, .T. ) ;
#6 = DIRECTION ( 'NONE',  ( -0.000000000000000000, -1.000000000000000000, -0.000000000000000000 ) ) ;
#7 = LENGTH_MEASURE_WITH_UNIT ( LENGTH_MEASURE( 0.02539999999999999897 ), #315 );
#8 = PRESENTATION_LAYER_ASSIGNMENT (  '', '', ( #4 ) ) ;
#9 = PRESENTATION_LAYER_ASSIGNMENT (  '', '', ( #295 ) ) ;
#10 = VERTEX_POINT ( 'NONE', #240 ) ;
#11 = FACE_OUTER_BOUND ( 'NONE', #181, .T. ) ;
#12 = ORIENTED_EDGE ( 'NONE', *, *, #286, .T. ) ;
#13 = AXIS2_PLACEMENT_3D ( 'NONE', #213, #298, #36 ) ;
#14 = FILL_AREA_STYLE ('',( #160 ) ) ;
#15 = EDGE_LOOP ( 'NONE', ( #203, #239 ) ) ;
#16 = SURFACE_SIDE_STYLE ('',( #364 ) ) ;
#17 = DIRECTION ( 'NONE',  ( -1.224646799147353207E-16, 1.000000000000000000, -0.000000000000000000 ) ) ;
#18 = DIRECTION ( 'NONE',  ( -1.000000000000000000, 0.000000000000000000, 0.000000000000000000 ) ) ;
#19 = CIRCLE ( 'NONE', #13, 0.3749999999999999445 ) ;
#20 = CYLINDRICAL_SURFACE ( 'NONE', #195, 0.3749999999999998335 ) ;
#21 =( LENGTH_UNIT ( ) NAMED_UNIT ( * ) SI_UNIT ( $, .METRE. ) );
#22 = PRESENTATION_STYLE_ASSIGNMENT (( #282 ) ) ;
#23 = EDGE_CURVE ( 'NONE', #26, #297, #138, .T. ) ;
#24 = LENGTH_MEASURE_WITH_UNIT ( LENGTH_MEASURE( 0.02539999999999999897 ), #21 );
#25 = DIRECTION ( 'NONE',  ( -1.000000000000000000, 0.000000000000000000, 0.000000000000000000 ) ) ;
#26 = VERTEX_POINT ( 'NONE', #326 ) ;
#27 =( NAMED_UNIT ( * ) SI_UNIT ( $, .STERADIAN. ) SOLID_ANGLE_UNIT ( ) );
#28 = EDGE_CURVE ( 'NONE', #129, #266, #232, .T. ) ;
#29 = SURFACE_STYLE_USAGE ( .BOTH. , #204 ) ;
#30 = EDGE_LOOP ( 'NONE', ( #152, #245, #66, #330 ) ) ;
#31 = DIMENSIONAL_EXPONENTS ( 1.000000000000000000, 0.000000000000000000, 0.000000000000000000, 0.000000000000000000, 0.000000000000000000, 0.000000000000000000, 0.000000000000000000 ) ;
#32 = CARTESIAN_POINT ( 'NONE',  ( -0.3749999999999999445, 4.000000000000000000, 0.000000000000000000 ) ) ;
#33 = ORIENTED_EDGE ( 'NONE', *, *, #177, .F. ) ;
#34 = SURFACE_SIDE_STYLE ('',( #182 ) ) ;
#35 = UNCERTAINTY_MEASURE_WITH_UNIT (LENGTH_MEASURE( 1.000000000000000082E-05 ), #86, 'distance_accuracy_value', 'NONE');
#36 = DIRECTION ( 'NONE',  ( -1.000000000000000000, 0.000000000000000000, 0.000000000000000000 ) ) ;
#37 = EDGE_CURVE ( 'NONE', #132, #288, #296, .T. ) ;
#38 = AXIS2_PLACEMENT_3D ( 'NONE', #279, #49, #116 ) ;
#39 = DIRECTION ( 'NONE',  ( 0.000000000000000000, 1.000000000000000000, 0.000000000000000000 ) ) ;
#40 = AXIS2_PLACEMENT_3D ( 'NONE', #254, #314, #226 ) ;
#41 = VERTEX_POINT ( 'NONE', #275 ) ;
#42 = PRESENTATION_STYLE_ASSIGNMENT (( #303 ) ) ;
#43 = DIMENSIONAL_EXPONENTS ( 1.000000000000000000, 0.000000000000000000, 0.000000000000000000, 0.000000000000000000, 0.000000000000000000, 0.000000000000000000, 0.000000000000000000 ) ;
#44 =( NAMED_UNIT ( * ) SI_UNIT ( $, .STERADIAN. ) SOLID_ANGLE_UNIT ( ) );
#45 =( LENGTH_UNIT ( ) NAMED_UNIT ( * ) SI_UNIT ( $, .METRE. ) );
#46 =( GEOMETRIC_REPRESENTATION_CONTEXT ( 3 ) GLOBAL_UNCERTAINTY_ASSIGNED_CONTEXT ( ( #244 ) ) GLOBAL_UNIT_ASSIGNED_CONTEXT ( ( #253, #217, #246 ) ) REPRESENTATION_CONTEXT ( 'NONE', 'WORKASPACE' ) );
#47 = COLOUR_RGB ( '',1.000000000000000000, 0.000000000000000000, 0.000000000000000000 ) ;
#48 = SURFACE_STYLE_USAGE ( .BOTH. , #250 ) ;
#49 = DIRECTION ( 'NONE',  ( 0.000000000000000000, 0.000000000000000000, 1.000000000000000000 ) ) ;
#50 =( NAMED_UNIT ( * ) PLANE_ANGLE_UNIT ( ) SI_UNIT ( $, .RADIAN. ) );
#51 = ADVANCED_FACE ( 'NONE', ( #11 ), #333, .F. ) ;
#52 = CIRCLE ( 'NONE', #114, 0.3749999999999996669 ) ;
#53 = PRODUCT_CONTEXT ( 'NONE', #70, 'mechanical' ) ;
#54 =( CONVERSION_BASED_UNIT ( 'INCH', #7 ) LENGTH_UNIT ( ) NAMED_UNIT ( #267 ) );
#55 = LENGTH_MEASURE_WITH_UNIT ( LENGTH_MEASURE( 0.02539999999999999897 ), #149 );
#56 = ORIENTED_EDGE ( 'NONE', *, *, #343, .T. ) ;
#57 = MECHANICAL_DESIGN_GEOMETRIC_PRESENTATION_REPRESENTATION (  '', ( #83 ), #46 ) ;
#58 = CIRCLE ( 'NONE', #101, 0.3749999999999999445 ) ;
#59 = ORIENTED_EDGE ( 'NONE', *, *, #37, .F. ) ;
#60 = SURFACE_STYLE_FILL_AREA ( #14 ) ;
#61 = DIRECTION ( 'NONE',  ( 1.224646799147353207E-16, -0.000000000000000000, 1.000000000000000000 ) ) ;
#62 = MECHANICAL_DESIGN_GEOMETRIC_PRESENTATION_REPRESENTATION (  '', ( #4 ), #186 ) ;
#63 = AXIS2_PLACEMENT_3D ( 'NONE', #241, #39, #278 ) ;
#64 = FILL_AREA_STYLE_COLOUR ( '', #224 ) ;
#65 = UNCERTAINTY_MEASURE_WITH_UNIT (LENGTH_MEASURE( 1.000000000000000082E-05 ), #168, 'distance_accuracy_value', 'NONE');
#66 = ORIENTED_EDGE ( 'NONE', *, *, #37, .T. ) ;
#67 = LENGTH_MEASURE_WITH_UNIT ( LENGTH_MEASURE( 0.02539999999999999897 ), #362 );
#68 = EDGE_CURVE ( 'NONE', #289, #266, #19, .T. ) ;
#69 = ORIENTED_EDGE ( 'NONE', *, *, #357, .T. ) ;
#70 = APPLICATION_CONTEXT ( 'automotive_design' ) ;
#71 = UNCERTAINTY_MEASURE_WITH_UNIT (LENGTH_MEASURE( 1.000000000000000082E-05 ), #274, 'distance_accuracy_value', 'NONE');
#72 = PRESENTATION_STYLE_ASSIGNMENT (( #363 ) ) ;
#73 = ADVANCED_BREP_SHAPE_REPRESENTATION ( '59455', ( #317, #192, #84 ), #139 ) ;
#74 = VECTOR ( 'NONE', #304, 39.37007874015748143 ) ;
#75 = DIRECTION ( 'NONE',  ( -1.224646799147353207E-16, 1.000000000000000000, -0.000000000000000000 ) ) ;
#76 = FILL_AREA_STYLE_COLOUR ( '', #205 ) ;
#77 = ADVANCED_FACE ( 'NONE', ( #135 ), #141, .T. ) ;
#78 = PLANE ( 'NONE',  #63 ) ;
#79 = SPHERICAL_SURFACE ( 'NONE', #38, 0.3749999999999999445 ) ;
#80 = LENGTH_MEASURE_WITH_UNIT ( LENGTH_MEASURE( 0.02539999999999999897 ), #45 );
#81 = LINE ( 'NONE', #169, #74 ) ;
#82 = DIRECTION ( 'NONE',  ( -1.000000000000000000, 0.000000000000000000, 0.000000000000000000 ) ) ;
#83 = STYLED_ITEM ( 'NONE', ( #22 ), #124 ) ;
#84 = AXIS2_PLACEMENT_3D ( 'NONE', #350, #142, #92 ) ;
#85 = LENGTH_MEASURE_WITH_UNIT ( LENGTH_MEASURE( 0.02539999999999999897 ), #229 );
#86 =( CONVERSION_BASED_UNIT ( 'INCH', #108 ) LENGTH_UNIT ( ) NAMED_UNIT ( #236 ) );
#87 = DIRECTION ( 'NONE',  ( 0.000000000000000000, 0.000000000000000000, -1.000000000000000000 ) ) ;
#88 = CARTESIAN_POINT ( 'NONE',  ( 0.000000000000000000, 0.000000000000000000, 0.000000000000000000 ) ) ;
#89 = DIRECTION ( 'NONE',  ( 0.000000000000000000, 0.000000000000000000, -1.000000000000000000 ) ) ;
#90 = AXIS2_PLACEMENT_3D ( 'NONE', #104, #214, #209 ) ;
#91 = CIRCLE ( 'NONE', #219, 0.3749999999999999445 ) ;
#92 = DIRECTION ( 'NONE',  ( 1.000000000000000000, 0.000000000000000000, 0.000000000000000000 ) ) ;
#93 = ADVANCED_FACE ( 'NONE', ( #323 ), #221, .F. ) ;
#94 = STYLED_ITEM ( 'NONE', ( #154 ), #192 ) ;
#95 = ORIENTED_EDGE ( 'NONE', *, *, #23, .F. ) ;
#96 = VERTEX_POINT ( 'NONE', #341 ) ;
#97 = APPLICATION_PROTOCOL_DEFINITION ( 'draft international standard', 'automotive_design', 1998, #113 ) ;
#98 =( NAMED_UNIT ( * ) PLANE_ANGLE_UNIT ( ) SI_UNIT ( $, .RADIAN. ) );
#99 = DIRECTION ( 'NONE',  ( 1.000000000000000000, 1.224646799147353207E-16, 0.000000000000000000 ) ) ;
#100 = CLOSED_SHELL ( 'NONE', ( #124, #130, #228, #255, #77 ) ) ;
#101 = AXIS2_PLACEMENT_3D ( 'NONE', #164, #75, #18 ) ;
#102 = FILL_AREA_STYLE_COLOUR ( '', #47 ) ;
#103 = EDGE_CURVE ( 'NONE', #26, #96, #81, .T. ) ;
#104 = CARTESIAN_POINT ( 'NONE',  ( 0.000000000000000000, 1.625000000000000000, 0.000000000000000000 ) ) ;
#105 = ADVANCED_FACE ( 'NONE', ( #223 ), #20, .T. ) ;
#106 =( GEOMETRIC_REPRESENTATION_CONTEXT ( 3 ) GLOBAL_UNCERTAINTY_ASSIGNED_CONTEXT ( ( #252 ) ) GLOBAL_UNIT_ASSIGNED_CONTEXT ( ( #118, #98, #27 ) ) REPRESENTATION_CONTEXT ( 'NONE', 'WORKASPACE' ) );
#107 = FACE_OUTER_BOUND ( 'NONE', #30, .T. ) ;
#108 = LENGTH_MEASURE_WITH_UNIT ( LENGTH_MEASURE( 0.02539999999999999897 ), #147 );
#109 = CARTESIAN_POINT ( 'NONE',  ( -1.224646799147352714E-16, 4.000000000000000000, 0.000000000000000000 ) ) ;
#110 =( NAMED_UNIT ( * ) SI_UNIT ( $, .STERADIAN. ) SOLID_ANGLE_UNIT ( ) );
#111 = DIRECTION ( 'NONE',  ( -1.224646799147353207E-16, 1.000000000000000000, -0.000000000000000000 ) ) ;
#112 = COLOUR_RGB ( '',1.000000000000000000, 0.000000000000000000, 0.000000000000000000 ) ;
#113 = APPLICATION_CONTEXT ( 'automotive_design' ) ;
#114 = AXIS2_PLACEMENT_3D ( 'NONE', #1, #197, #372 ) ;
#115 = UNCERTAINTY_MEASURE_WITH_UNIT (LENGTH_MEASURE( 1.000000000000000082E-05 ), #276, 'distance_accuracy_value', 'NONE');
#116 = DIRECTION ( 'NONE',  ( 1.000000000000000000, 0.000000000000000000, 0.000000000000000000 ) ) ;
#117 = SURFACE_STYLE_FILL_AREA ( #251 ) ;
#118 =( CONVERSION_BASED_UNIT ( 'INCH', #55 ) LENGTH_UNIT ( ) NAMED_UNIT ( #318 ) );
#119 = EDGE_CURVE ( 'NONE', #297, #26, #218, .T. ) ;
#120 = FILL_AREA_STYLE ('',( #64 ) ) ;
#121 = ORIENTED_EDGE ( 'NONE', *, *, #187, .F. ) ;
#122 = PRODUCT ( '59455', '59455', '', ( #53 ) ) ;
#123 =( NAMED_UNIT ( * ) PLANE_ANGLE_UNIT ( ) SI_UNIT ( $, .RADIAN. ) );
#124 = ADVANCED_FACE ( 'NONE', ( #370 ), #79, .T. ) ;
#125 = CIRCLE ( 'NONE', #335, 0.3749999999999998890 ) ;
#126 = STYLED_ITEM ( 'NONE', ( #371 ), #317 ) ;
#127 = EDGE_LOOP ( 'NONE', ( #173, #5, #121, #322, #33 ) ) ;
#128 = UNCERTAINTY_MEASURE_WITH_UNIT (LENGTH_MEASURE( 1.000000000000000082E-05 ), #285, 'distance_accuracy_value', 'NONE');
#129 = VERTEX_POINT ( 'NONE', #337 ) ;
#130 = ADVANCED_FACE ( 'NONE', ( #151 ), #227, .T. ) ;
#131 =( NAMED_UNIT ( * ) SI_UNIT ( $, .STERADIAN. ) SOLID_ANGLE_UNIT ( ) );
#132 = VERTEX_POINT ( 'NONE', #352 ) ;
#133 = PRESENTATION_LAYER_ASSIGNMENT (  '', '', ( #320 ) ) ;
#134 = ORIENTED_EDGE ( 'NONE', *, *, #208, .T. ) ;
#135 = FACE_OUTER_BOUND ( 'NONE', #216, .T. ) ;
#136 = CARTESIAN_POINT ( 'NONE',  ( 0.000000000000000000, 0.000000000000000000, 0.000000000000000000 ) ) ;
#137 =( NAMED_UNIT ( * ) PLANE_ANGLE_UNIT ( ) SI_UNIT ( $, .RADIAN. ) );
#138 = CIRCLE ( 'NONE', #90, 0.3749999999999998335 ) ;
#139 =( GEOMETRIC_REPRESENTATION_CONTEXT ( 3 ) GLOBAL_UNCERTAINTY_ASSIGNED_CONTEXT ( ( #65 ) ) GLOBAL_UNIT_ASSIGNED_CONTEXT ( ( #168, #231, #146 ) ) REPRESENTATION_CONTEXT ( 'NONE', 'WORKASPACE' ) );
#140 = CARTESIAN_POINT ( 'NONE',  ( -0.3750000000000001110, 4.000000000000000000, 0.000000000000000000 ) ) ;
#141 = SPHERICAL_SURFACE ( 'NONE', #280, 0.3749999999999999445 ) ;
#142 = DIRECTION ( 'NONE',  ( 0.000000000000000000, 0.000000000000000000, 1.000000000000000000 ) ) ;
#143 = DIRECTION ( 'NONE',  ( -1.000000000000000000, 0.000000000000000000, 0.000000000000000000 ) ) ;
#144 = EDGE_CURVE ( 'NONE', #129, #171, #125, .T. ) ;
#145 = LINE ( 'NONE', #150, #313 ) ;
#146 =( NAMED_UNIT ( * ) SI_UNIT ( $, .STERADIAN. ) SOLID_ANGLE_UNIT ( ) );
#147 =( LENGTH_UNIT ( ) NAMED_UNIT ( * ) SI_UNIT ( $, .METRE. ) );
#148 = FILL_AREA_STYLE_COLOUR ( '', #264 ) ;
#149 =( LENGTH_UNIT ( ) NAMED_UNIT ( * ) SI_UNIT ( $, .METRE. ) );
#150 = CARTESIAN_POINT ( 'NONE',  ( 0.3749999999999996669, 4.000000000000000000, 4.592425496802572370E-17 ) ) ;
#151 = FACE_OUTER_BOUND ( 'NONE', #127, .T. ) ;
#152 = ORIENTED_EDGE ( 'NONE', *, *, #357, .F. ) ;
#153 = AXIS2_PLACEMENT_3D ( 'NONE', #88, #6, #200 ) ;
#154 = PRESENTATION_STYLE_ASSIGNMENT (( #29 ) ) ;
#155 = PRESENTATION_LAYER_ASSIGNMENT (  '', '', ( #126 ) ) ;
#156 = ORIENTED_EDGE ( 'NONE', *, *, #28, .F. ) ;
#157 = DIRECTION ( 'NONE',  ( -1.224646799147353207E-16, 1.000000000000000000, -0.000000000000000000 ) ) ;
#158 = ORIENTED_EDGE ( 'NONE', *, *, #119, .F. ) ;
#159 = SURFACE_STYLE_USAGE ( .BOTH. , #34 ) ;
#160 = FILL_AREA_STYLE_COLOUR ( '', #354 ) ;
#161 = PRESENTATION_STYLE_ASSIGNMENT (( #159 ) ) ;
#162 = CARTESIAN_POINT ( 'NONE',  ( -4.592425496802575451E-17, 0.3750000000000000555, 0.000000000000000000 ) ) ;
#163 = FILL_AREA_STYLE ('',( #189 ) ) ;
#164 = CARTESIAN_POINT ( 'NONE',  ( -1.224646799147352714E-16, 4.000000000000000000, 0.000000000000000000 ) ) ;
#165 = AXIS2_PLACEMENT_3D ( 'NONE', #307, #310, #191 ) ;
#166 = FACE_OUTER_BOUND ( 'NONE', #302, .T. ) ;
#167 =( NAMED_UNIT ( * ) SI_UNIT ( $, .STERADIAN. ) SOLID_ANGLE_UNIT ( ) );
#168 =( CONVERSION_BASED_UNIT ( 'INCH', #85 ) LENGTH_UNIT ( ) NAMED_UNIT ( #332 ) );
#169 = CARTESIAN_POINT ( 'NONE',  ( 4.592425496802572370E-17, 0.000000000000000000, 0.3749999999999998335 ) ) ;
#170 = DIRECTION ( 'NONE',  ( -0.000000000000000000, -1.000000000000000000, -0.000000000000000000 ) ) ;
#171 = VERTEX_POINT ( 'NONE', #172 ) ;
#172 = CARTESIAN_POINT ( 'NONE',  ( 0.000000000000000000, 0.3750000000000001110, -0.3749999999999998890 ) ) ;
#173 = ORIENTED_EDGE ( 'NONE', *, *, #119, .T. ) ;
#174 = CARTESIAN_POINT ( 'NONE',  ( 0.000000000000000000, 0.3750000000000001110, 0.000000000000000000 ) ) ;
#175 = PRODUCT_DEFINITION_FORMATION_WITH_SPECIFIED_SOURCE ( 'ANY', '', #122, .NOT_KNOWN. ) ;
#176 = ORIENTED_EDGE ( 'NONE', *, *, #28, .T. ) ;
#177 = EDGE_CURVE ( 'NONE', #297, #171, #210, .T. ) ;
#178 = AXIS2_PLACEMENT_3D ( 'NONE', #184, #359, #99 ) ;
#179 = DIRECTION ( 'NONE',  ( 1.000000000000000000, 0.000000000000000000, -1.224646799147353207E-16 ) ) ;
#180 = CARTESIAN_POINT ( 'NONE',  ( 0.000000000000000000, 0.000000000000000000, -0.3749999999999998335 ) ) ;
#181 = EDGE_LOOP ( 'NONE', ( #134, #12 ) ) ;
#182 = SURFACE_STYLE_FILL_AREA ( #163 ) ;
#183 = DIMENSIONAL_EXPONENTS ( 1.000000000000000000, 0.000000000000000000, 0.000000000000000000, 0.000000000000000000, 0.000000000000000000, 0.000000000000000000, 0.000000000000000000 ) ;
#184 = CARTESIAN_POINT ( 'NONE',  ( 0.3749999999999998335, 4.000000000000000000, 0.000000000000000000 ) ) ;
#185 = ORIENTED_EDGE ( 'NONE', *, *, #68, .T. ) ;
#186 =( GEOMETRIC_REPRESENTATION_CONTEXT ( 3 ) GLOBAL_UNCERTAINTY_ASSIGNED_CONTEXT ( ( #35 ) ) GLOBAL_UNIT_ASSIGNED_CONTEXT ( ( #86, #137, #110 ) ) REPRESENTATION_CONTEXT ( 'NONE', 'WORKASPACE' ) );
#187 = EDGE_CURVE ( 'NONE', #289, #96, #312, .T. ) ;
#188 = CIRCLE ( 'NONE', #196, 0.3749999999999996669 ) ;
#189 = FILL_AREA_STYLE_COLOUR ( '', #321 ) ;
#190 = LENGTH_MEASURE_WITH_UNIT ( LENGTH_MEASURE( 0.02539999999999999897 ), #256 );
#191 = DIRECTION ( 'NONE',  ( 0.000000000000000000, 0.000000000000000000, -1.000000000000000000 ) ) ;
#192 = MANIFOLD_SOLID_BREP ( 'Revolve - Tool Body (Straight Shanked)', #300 ) ;
#193 = PRODUCT_DEFINITION_CONTEXT ( 'detailed design', #113, 'design' ) ;
#194 = DIRECTION ( 'NONE',  ( 1.000000000000000000, 0.000000000000000000, 0.000000000000000000 ) ) ;
#195 = AXIS2_PLACEMENT_3D ( 'NONE', #369, #17, #143 ) ;
#196 = AXIS2_PLACEMENT_3D ( 'NONE', #316, #283, #82 ) ;
#197 = DIRECTION ( 'NONE',  ( -1.224646799147353207E-16, 1.000000000000000000, -0.000000000000000000 ) ) ;
#198 = DIRECTION ( 'NONE',  ( -1.000000000000000000, 0.000000000000000000, 0.000000000000000000 ) ) ;
#199 = CARTESIAN_POINT ( 'NONE',  ( 1.683889348827610752E-16, 1.625000000000000000, 0.000000000000000000 ) ) ;
#200 = DIRECTION ( 'NONE',  ( 0.000000000000000000, 0.000000000000000000, -1.000000000000000000 ) ) ;
#201 = APPLICATION_PROTOCOL_DEFINITION ( 'draft international standard', 'automotive_design', 1998, #70 ) ;
#202 = DIRECTION ( 'NONE',  ( 0.000000000000000000, 0.000000000000000000, -1.000000000000000000 ) ) ;
#203 = ORIENTED_EDGE ( 'NONE', *, *, #343, .F. ) ;
#204 = SURFACE_SIDE_STYLE ('',( #291 ) ) ;
#205 = COLOUR_RGB ( '',1.000000000000000000, 0.000000000000000000, 0.000000000000000000 ) ;
#206 = CIRCLE ( 'NONE', #355, 0.3749999999999998890 ) ;
#207 = EDGE_LOOP ( 'NONE', ( #56, #69, #273, #59 ) ) ;
#208 = EDGE_CURVE ( 'NONE', #288, #10, #91, .T. ) ;
#209 = DIRECTION ( 'NONE',  ( 0.000000000000000000, 0.000000000000000000, -1.000000000000000000 ) ) ;
#210 = LINE ( 'NONE', #180, #290 ) ;
#211 = PRESENTATION_LAYER_ASSIGNMENT (  '', '', ( #83 ) ) ;
#212 =( GEOMETRIC_REPRESENTATION_CONTEXT ( 3 ) GLOBAL_UNCERTAINTY_ASSIGNED_CONTEXT ( ( #71 ) ) GLOBAL_UNIT_ASSIGNED_CONTEXT ( ( #274, #306, #131 ) ) REPRESENTATION_CONTEXT ( 'NONE', 'WORKASPACE' ) );
#213 = CARTESIAN_POINT ( 'NONE',  ( -4.592425496802575451E-17, 0.3750000000000000555, 0.000000000000000000 ) ) ;
#214 = DIRECTION ( 'NONE',  ( -0.000000000000000000, -1.000000000000000000, -0.000000000000000000 ) ) ;
#215 = UNCERTAINTY_MEASURE_WITH_UNIT (LENGTH_MEASURE( 1.000000000000000082E-05 ), #54, 'distance_accuracy_value', 'NONE');
#216 = EDGE_LOOP ( 'NONE', ( #156, #259, #353, #185 ) ) ;
#217 =( NAMED_UNIT ( * ) PLANE_ANGLE_UNIT ( ) SI_UNIT ( $, .RADIAN. ) );
#218 = CIRCLE ( 'NONE', #165, 0.3749999999999998335 ) ;
#219 = AXIS2_PLACEMENT_3D ( 'NONE', #262, #234, #25 ) ;
#220 = CYLINDRICAL_SURFACE ( 'NONE', #308, 0.3749999999999998335 ) ;
#221 = PLANE ( 'NONE',  #327 ) ;
#222 = DIRECTION ( 'NONE',  ( -1.224646799147353207E-16, 1.000000000000000000, -0.000000000000000000 ) ) ;
#223 = FACE_OUTER_BOUND ( 'NONE', #207, .T. ) ;
#224 = COLOUR_RGB ( '',0.7921568627450980005, 0.8196078431372548767, 0.9333333333333333481 ) ;
#225 = AXIS2_PLACEMENT_3D ( 'NONE', #136, #299, #367 ) ;
#226 = DIRECTION ( 'NONE',  ( 0.000000000000000000, 0.000000000000000000, -1.000000000000000000 ) ) ;
#227 = CYLINDRICAL_SURFACE ( 'NONE', #153, 0.3749999999999998335 ) ;
#228 = ADVANCED_FACE ( 'NONE', ( #360 ), #78, .T. ) ;
#229 =( LENGTH_UNIT ( ) NAMED_UNIT ( * ) SI_UNIT ( $, .METRE. ) );
#230 = FILL_AREA_STYLE ('',( #351 ) ) ;
#231 =( NAMED_UNIT ( * ) PLANE_ANGLE_UNIT ( ) SI_UNIT ( $, .RADIAN. ) );
#232 = CIRCLE ( 'NONE', #247, 0.3749999999999999445 ) ;
#233 =( GEOMETRIC_REPRESENTATION_CONTEXT ( 3 ) GLOBAL_UNCERTAINTY_ASSIGNED_CONTEXT ( ( #215 ) ) GLOBAL_UNIT_ASSIGNED_CONTEXT ( ( #54, #123, #287 ) ) REPRESENTATION_CONTEXT ( 'NONE', 'WORKASPACE' ) );
#234 = DIRECTION ( 'NONE',  ( -1.224646799147353207E-16, 1.000000000000000000, -0.000000000000000000 ) ) ;
#235 = DIRECTION ( 'NONE',  ( -0.000000000000000000, -1.000000000000000000, -0.000000000000000000 ) ) ;
#236 = DIMENSIONAL_EXPONENTS ( 1.000000000000000000, 0.000000000000000000, 0.000000000000000000, 0.000000000000000000, 0.000000000000000000, 0.000000000000000000, 0.000000000000000000 ) ;
#237 = MECHANICAL_DESIGN_GEOMETRIC_PRESENTATION_REPRESENTATION (  '', ( #320 ), #106 ) ;
#238 = ORIENTED_EDGE ( 'NONE', *, *, #144, .F. ) ;
#239 = ORIENTED_EDGE ( 'NONE', *, *, #347, .F. ) ;
#240 = CARTESIAN_POINT ( 'NONE',  ( 0.3749999999999998335, 4.000000000000000000, 4.592425496802572986E-17 ) ) ;
#241 = CARTESIAN_POINT ( 'NONE',  ( 0.000000000000000000, 1.625000000000000000, 0.000000000000000000 ) ) ;
#242 = SURFACE_SIDE_STYLE ('',( #60 ) ) ;
#243 = CARTESIAN_POINT ( 'NONE',  ( -2.296212748401288342E-17, 6.829619984160658046E-17, 0.000000000000000000 ) ) ;
#244 = UNCERTAINTY_MEASURE_WITH_UNIT (LENGTH_MEASURE( 1.000000000000000082E-05 ), #253, 'distance_accuracy_value', 'NONE');
#245 = ORIENTED_EDGE ( 'NONE', *, *, #347, .T. ) ;
#246 =( NAMED_UNIT ( * ) SI_UNIT ( $, .STERADIAN. ) SOLID_ANGLE_UNIT ( ) );
#247 = AXIS2_PLACEMENT_3D ( 'NONE', #162, #61, #179 ) ;
#248 = CARTESIAN_POINT ( 'NONE',  ( 0.3749999999999998890, 0.3750000000000001110, 0.000000000000000000 ) ) ;
#249 = FILL_AREA_STYLE ('',( #76 ) ) ;
#250 = SURFACE_SIDE_STYLE ('',( #117 ) ) ;
#251 = FILL_AREA_STYLE ('',( #148 ) ) ;
#252 = UNCERTAINTY_MEASURE_WITH_UNIT (LENGTH_MEASURE( 1.000000000000000082E-05 ), #118, 'distance_accuracy_value', 'NONE');
#253 =( CONVERSION_BASED_UNIT ( 'INCH', #190 ) LENGTH_UNIT ( ) NAMED_UNIT ( #261 ) );
#254 = CARTESIAN_POINT ( 'NONE',  ( 0.000000000000000000, 0.3750000000000001110, 0.000000000000000000 ) ) ;
#255 = ADVANCED_FACE ( 'NONE', ( #166 ), #305, .T. ) ;
#256 =( LENGTH_UNIT ( ) NAMED_UNIT ( * ) SI_UNIT ( $, .METRE. ) );
#257 = CARTESIAN_POINT ( 'NONE',  ( 0.000000000000000000, 0.3750000000000001110, 0.000000000000000000 ) ) ;
#258 = SURFACE_SIDE_STYLE ('',( #268 ) ) ;
#259 = ORIENTED_EDGE ( 'NONE', *, *, #144, .T. ) ;
#260 = PRODUCT_DEFINITION ( 'UNKNOWN', '', #175, #193 ) ;
#261 = DIMENSIONAL_EXPONENTS ( 1.000000000000000000, 0.000000000000000000, 0.000000000000000000, 0.000000000000000000, 0.000000000000000000, 0.000000000000000000, 0.000000000000000000 ) ;
#262 = CARTESIAN_POINT ( 'NONE',  ( -1.224646799147352714E-16, 4.000000000000000000, 0.000000000000000000 ) ) ;
#263 = ORIENTED_EDGE ( 'NONE', *, *, #177, .T. ) ;
#264 = COLOUR_RGB ( '',0.7921568627450980005, 0.8196078431372548767, 0.9333333333333333481 ) ;
#265 = ORIENTED_EDGE ( 'NONE', *, *, #365, .F. ) ;
#266 = VERTEX_POINT ( 'NONE', #243 ) ;
#267 = DIMENSIONAL_EXPONENTS ( 1.000000000000000000, 0.000000000000000000, 0.000000000000000000, 0.000000000000000000, 0.000000000000000000, 0.000000000000000000, 0.000000000000000000 ) ;
#268 = SURFACE_STYLE_FILL_AREA ( #230 ) ;
#269 = ORIENTED_EDGE ( 'NONE', *, *, #68, .F. ) ;
#270 = PRODUCT_RELATED_PRODUCT_CATEGORY ( 'part', '', ( #122 ) ) ;
#271 = MECHANICAL_DESIGN_GEOMETRIC_PRESENTATION_REPRESENTATION (  '', ( #94 ), #233 ) ;
#272 = MECHANICAL_DESIGN_GEOMETRIC_PRESENTATION_REPRESENTATION (  '', ( #336 ), #212 ) ;
#273 = ORIENTED_EDGE ( 'NONE', *, *, #208, .F. ) ;
#274 =( CONVERSION_BASED_UNIT ( 'INCH', #80 ) LENGTH_UNIT ( ) NAMED_UNIT ( #43 ) );
#275 = CARTESIAN_POINT ( 'NONE',  ( 0.3749999999999998335, 1.625000000000000000, 4.592425496802572986E-17 ) ) ;
#276 =( CONVERSION_BASED_UNIT ( 'INCH', #67 ) LENGTH_UNIT ( ) NAMED_UNIT ( #31 ) );
#277 = DIRECTION ( 'NONE',  ( -1.224646799147353207E-16, 1.000000000000000000, 0.000000000000000000 ) ) ;
#278 = DIRECTION ( 'NONE',  ( 0.000000000000000000, -0.000000000000000000, 1.000000000000000000 ) ) ;
#279 = CARTESIAN_POINT ( 'NONE',  ( -4.592425496802575451E-17, 0.3750000000000000555, 0.000000000000000000 ) ) ;
#280 = AXIS2_PLACEMENT_3D ( 'NONE', #309, #373, #194 ) ;
#281 = MECHANICAL_DESIGN_GEOMETRIC_PRESENTATION_REPRESENTATION (  '', ( #295 ), #329 ) ;
#282 = SURFACE_STYLE_USAGE ( .BOTH. , #344 ) ;
#283 = DIRECTION ( 'NONE',  ( -1.224646799147353207E-16, 1.000000000000000000, -0.000000000000000000 ) ) ;
#284 = DIRECTION ( 'NONE',  ( -1.000000000000000000, -1.224646799147353207E-16, 0.000000000000000000 ) ) ;
#285 =( CONVERSION_BASED_UNIT ( 'INCH', #24 ) LENGTH_UNIT ( ) NAMED_UNIT ( #183 ) );
#286 = EDGE_CURVE ( 'NONE', #10, #288, #58, .T. ) ;
#287 =( NAMED_UNIT ( * ) SI_UNIT ( $, .STERADIAN. ) SOLID_ANGLE_UNIT ( ) );
#288 = VERTEX_POINT ( 'NONE', #140 ) ;
#289 = VERTEX_POINT ( 'NONE', #248 ) ;
#290 = VECTOR ( 'NONE', #170, 39.37007874015748143 ) ;
#291 = SURFACE_STYLE_FILL_AREA ( #120 ) ;
#292 = ADVANCED_FACE ( 'NONE', ( #107 ), #220, .T. ) ;
#293 = EDGE_LOOP ( 'NONE', ( #158, #95 ) ) ;
#294 = CIRCLE ( 'NONE', #40, 0.3749999999999998890 ) ;
#295 = STYLED_ITEM ( 'NONE', ( #161 ), #255 ) ;
#296 = LINE ( 'NONE', #32, #348 ) ;
#297 = VERTEX_POINT ( 'NONE', #311 ) ;
#298 = DIRECTION ( 'NONE',  ( 0.000000000000000000, 0.000000000000000000, -1.000000000000000000 ) ) ;
#299 = DIRECTION ( 'NONE',  ( -0.000000000000000000, -1.000000000000000000, -0.000000000000000000 ) ) ;
#300 = CLOSED_SHELL ( 'NONE', ( #105, #93, #292, #51 ) ) ;
#301 = MECHANICAL_DESIGN_GEOMETRIC_PRESENTATION_REPRESENTATION (  '', ( #126 ), #349 ) ;
#302 = EDGE_LOOP ( 'NONE', ( #356, #361, #263, #238, #265 ) ) ;
#303 = SURFACE_STYLE_USAGE ( .BOTH. , #16 ) ;
#304 = DIRECTION ( 'NONE',  ( -0.000000000000000000, -1.000000000000000000, -0.000000000000000000 ) ) ;
#305 = CYLINDRICAL_SURFACE ( 'NONE', #225, 0.3749999999999998335 ) ;
#306 =( NAMED_UNIT ( * ) PLANE_ANGLE_UNIT ( ) SI_UNIT ( $, .RADIAN. ) );
#307 = CARTESIAN_POINT ( 'NONE',  ( 0.000000000000000000, 1.625000000000000000, 0.000000000000000000 ) ) ;
#308 = AXIS2_PLACEMENT_3D ( 'NONE', #109, #222, #198 ) ;
#309 = CARTESIAN_POINT ( 'NONE',  ( -4.592425496802575451E-17, 0.3750000000000000555, 0.000000000000000000 ) ) ;
#310 = DIRECTION ( 'NONE',  ( -0.000000000000000000, -1.000000000000000000, -0.000000000000000000 ) ) ;
#311 = CARTESIAN_POINT ( 'NONE',  ( 0.000000000000000000, 1.625000000000000000, -0.3749999999999998335 ) ) ;
#312 = CIRCLE ( 'NONE', #345, 0.3749999999999998890 ) ;
#313 = VECTOR ( 'NONE', #111, 39.37007874015748143 ) ;
#314 = DIRECTION ( 'NONE',  ( -0.000000000000000000, -1.000000000000000000, -0.000000000000000000 ) ) ;
#315 =( LENGTH_UNIT ( ) NAMED_UNIT ( * ) SI_UNIT ( $, .METRE. ) );
#316 = CARTESIAN_POINT ( 'NONE',  ( 1.683889348827610999E-16, 1.625000000000000000, 0.000000000000000000 ) ) ;
#317 = MANIFOLD_SOLID_BREP ( 'Revolve - Cutting Edge', #100 ) ;
#318 = DIMENSIONAL_EXPONENTS ( 1.000000000000000000, 0.000000000000000000, 0.000000000000000000, 0.000000000000000000, 0.000000000000000000, 0.000000000000000000, 0.000000000000000000 ) ;
#319 = ORIENTED_EDGE ( 'NONE', *, *, #187, .T. ) ;
#320 = STYLED_ITEM ( 'NONE', ( #358 ), #130 ) ;
#321 = COLOUR_RGB ( '',1.000000000000000000, 0.000000000000000000, 0.000000000000000000 ) ;
#322 = ORIENTED_EDGE ( 'NONE', *, *, #338, .F. ) ;
#323 = FACE_OUTER_BOUND ( 'NONE', #15, .T. ) ;
#324 = PRODUCT_DEFINITION_SHAPE ( 'NONE', 'NONE',  #260 ) ;
#325 = SHAPE_DEFINITION_REPRESENTATION ( #324, #73 ) ;
#326 = CARTESIAN_POINT ( 'NONE',  ( 4.592425496802572370E-17, 1.625000000000000000, 0.3749999999999998335 ) ) ;
#327 = AXIS2_PLACEMENT_3D ( 'NONE', #199, #277, #284 ) ;
#328 = DIRECTION ( 'NONE',  ( -0.000000000000000000, -1.000000000000000000, -0.000000000000000000 ) ) ;
#329 =( GEOMETRIC_REPRESENTATION_CONTEXT ( 3 ) GLOBAL_UNCERTAINTY_ASSIGNED_CONTEXT ( ( #115 ) ) GLOBAL_UNIT_ASSIGNED_CONTEXT ( ( #276, #334, #44 ) ) REPRESENTATION_CONTEXT ( 'NONE', 'WORKASPACE' ) );
#330 = ORIENTED_EDGE ( 'NONE', *, *, #286, .F. ) ;
#331 = EDGE_LOOP ( 'NONE', ( #366, #176, #269, #319 ) ) ;
#332 = DIMENSIONAL_EXPONENTS ( 1.000000000000000000, 0.000000000000000000, 0.000000000000000000, 0.000000000000000000, 0.000000000000000000, 0.000000000000000000, 0.000000000000000000 ) ;
#333 = PLANE ( 'NONE',  #178 ) ;
#334 =( NAMED_UNIT ( * ) PLANE_ANGLE_UNIT ( ) SI_UNIT ( $, .RADIAN. ) );
#335 = AXIS2_PLACEMENT_3D ( 'NONE', #174, #235, #89 ) ;
#336 = STYLED_ITEM ( 'NONE', ( #42 ), #228 ) ;
#337 = CARTESIAN_POINT ( 'NONE',  ( -0.3749999999999999445, 0.3750000000000001110, 4.592425496802572986E-17 ) ) ;
#338 = EDGE_CURVE ( 'NONE', #171, #289, #206, .T. ) ;
#339 = FILL_AREA_STYLE ('',( #102 ) ) ;
#340 = SURFACE_STYLE_FILL_AREA ( #249 ) ;
#341 = CARTESIAN_POINT ( 'NONE',  ( 4.592425496802572986E-17, 0.3750000000000001110, 0.3749999999999998890 ) ) ;
#342 = DIRECTION ( 'NONE',  ( -0.000000000000000000, -1.000000000000000000, -0.000000000000000000 ) ) ;
#343 = EDGE_CURVE ( 'NONE', #132, #41, #188, .T. ) ;
#344 = SURFACE_SIDE_STYLE ('',( #340 ) ) ;
#345 = AXIS2_PLACEMENT_3D ( 'NONE', #3, #328, #202 ) ;
#346 = PRESENTATION_LAYER_ASSIGNMENT (  '', '', ( #336 ) ) ;
#347 = EDGE_CURVE ( 'NONE', #41, #132, #52, .T. ) ;
#348 = VECTOR ( 'NONE', #157, 39.37007874015748143 ) ;
#349 =( GEOMETRIC_REPRESENTATION_CONTEXT ( 3 ) GLOBAL_UNCERTAINTY_ASSIGNED_CONTEXT ( ( #128 ) ) GLOBAL_UNIT_ASSIGNED_CONTEXT ( ( #285, #50, #167 ) ) REPRESENTATION_CONTEXT ( 'NONE', 'WORKASPACE' ) );
#350 = CARTESIAN_POINT ( 'NONE',  ( 0.000000000000000000, 0.000000000000000000, 0.000000000000000000 ) ) ;
#351 = FILL_AREA_STYLE_COLOUR ( '', #112 ) ;
#352 = CARTESIAN_POINT ( 'NONE',  ( -0.3749999999999995559, 1.625000000000000000, 0.000000000000000000 ) ) ;
#353 = ORIENTED_EDGE ( 'NONE', *, *, #338, .T. ) ;
#354 = COLOUR_RGB ( '',1.000000000000000000, 0.000000000000000000, 0.000000000000000000 ) ;
#355 = AXIS2_PLACEMENT_3D ( 'NONE', #257, #342, #87 ) ;
#356 = ORIENTED_EDGE ( 'NONE', *, *, #103, .F. ) ;
#357 = EDGE_CURVE ( 'NONE', #41, #10, #145, .T. ) ;
#358 = PRESENTATION_STYLE_ASSIGNMENT (( #2 ) ) ;
#359 = DIRECTION ( 'NONE',  ( 1.224646799147353207E-16, -1.000000000000000000, 0.000000000000000000 ) ) ;
#360 = FACE_OUTER_BOUND ( 'NONE', #293, .T. ) ;
#361 = ORIENTED_EDGE ( 'NONE', *, *, #23, .T. ) ;
#362 =( LENGTH_UNIT ( ) NAMED_UNIT ( * ) SI_UNIT ( $, .METRE. ) );
#363 = SURFACE_STYLE_USAGE ( .BOTH. , #242 ) ;
#364 = SURFACE_STYLE_FILL_AREA ( #339 ) ;
#365 = EDGE_CURVE ( 'NONE', #96, #129, #294, .T. ) ;
#366 = ORIENTED_EDGE ( 'NONE', *, *, #365, .T. ) ;
#367 = DIRECTION ( 'NONE',  ( 0.000000000000000000, 0.000000000000000000, -1.000000000000000000 ) ) ;
#368 = PRESENTATION_LAYER_ASSIGNMENT (  '', '', ( #94 ) ) ;
#369 = CARTESIAN_POINT ( 'NONE',  ( -1.224646799147352714E-16, 4.000000000000000000, 0.000000000000000000 ) ) ;
#370 = FACE_OUTER_BOUND ( 'NONE', #331, .T. ) ;
#371 = PRESENTATION_STYLE_ASSIGNMENT (( #48 ) ) ;
#372 = DIRECTION ( 'NONE',  ( -1.000000000000000000, 0.000000000000000000, 0.000000000000000000 ) ) ;
#373 = DIRECTION ( 'NONE',  ( 0.000000000000000000, 0.000000000000000000, 1.000000000000000000 ) ) ;
ENDSEC;
END-ISO-10303-21;
