ISO-10303-21;
HEADER;
FILE_DESCRIPTION (( 'STEP AP214' ),
    '1' );
FILE_NAME ('Micro_MMBM-010-6.STEP',
    '2021-09-03T16:26:50',
    ( '' ),
    ( '' ),
    'SwSTEP 2.0',
    'SolidWorks 2020',
    '' );
FILE_SCHEMA (( 'AUTOMOTIVE_DESIGN' ));
ENDSEC;

DATA;
#1 = AXIS2_PLACEMENT_3D ( 'NONE', #6, #235, #207 ) ;
#2 = ADVANCED_FACE ( 'NONE', ( #215 ), #359, .F. ) ;
#3 = EDGE_LOOP ( 'NONE', ( #356, #234 ) ) ;
#4 = DIRECTION ( 'NONE',  ( -0.0000000000000000000, 0.0000000000000000000, -1.000000000000000000 ) ) ;
#5 = EDGE_LOOP ( 'NONE', ( #205, #203, #285, #212 ) ) ;
#6 = CARTESIAN_POINT ( 'NONE',  ( 0.0000000000000000000, 0.0000000000000000000, 0.03937000000000000222 ) ) ;
#7 = ORIENTED_EDGE ( 'NONE', *, *, #281, .F. ) ;
#8 = DIRECTION ( 'NONE',  ( -0.0000000000000000000, -0.0000000000000000000, -1.000000000000000000 ) ) ;
#9 = AXIS2_PLACEMENT_3D ( 'NONE', #362, #156, #98 ) ;
#10 = CARTESIAN_POINT ( 'NONE',  ( 0.0000000000000000000, 0.0000000000000000000, 0.2362199999999999300 ) ) ;
#11 = DIRECTION ( 'NONE',  ( -0.7071067811865358044, 0.0000000000000000000, -0.7071067811865590080 ) ) ;
#12 = CARTESIAN_POINT ( 'NONE',  ( 0.0000000000000000000, 0.0000000000000000000, 0.0000000000000000000 ) ) ;
#13 = DIRECTION ( 'NONE',  ( -1.000000000000000000, 0.0000000000000000000, 0.0000000000000000000 ) ) ;
#14 = CARTESIAN_POINT ( 'NONE',  ( 0.1031100000000002570, 1.354581824536888722E-17, 2.244094000000000033 ) ) ;
#15 = AXIS2_PLACEMENT_3D ( 'NONE', #327, #157, #45 ) ;
#16 = CARTESIAN_POINT ( 'NONE',  ( 0.0000000000000000000, 0.0000000000000000000, 0.2362200000000000688 ) ) ;
#17 = PRESENTATION_LAYER_ASSIGNMENT (  '', '', ( #175 ) ) ;
#18 =( CONVERSION_BASED_UNIT ( 'INCH', #161 ) LENGTH_UNIT ( ) NAMED_UNIT ( #344 ) );
#19 = ORIENTED_EDGE ( 'NONE', *, *, #34, .T. ) ;
#20 = PRODUCT_RELATED_PRODUCT_CATEGORY ( 'part', '', ( #26 ) ) ;
#21 = SURFACE_STYLE_FILL_AREA ( #366 ) ;
#22 = FILL_AREA_STYLE ('',( #109 ) ) ;
#23 = LENGTH_MEASURE_WITH_UNIT ( LENGTH_MEASURE( 0.02539999999999999897 ), #135 );
#24 =( GEOMETRIC_REPRESENTATION_CONTEXT ( 3 ) GLOBAL_UNCERTAINTY_ASSIGNED_CONTEXT ( ( #350 ) ) GLOBAL_UNIT_ASSIGNED_CONTEXT ( ( #74, #306, #339 ) ) REPRESENTATION_CONTEXT ( 'NONE', 'WORKASPACE' ) );
#25 = PRESENTATION_STYLE_ASSIGNMENT (( #202 ) ) ;
#26 = PRODUCT ( 'Micro_MMBM-010-6', 'Micro_MMBM-010-6', '', ( #334 ) ) ;
#27 = AXIS2_PLACEMENT_3D ( 'NONE', #324, #66, #178 ) ;
#28 = ORIENTED_EDGE ( 'NONE', *, *, #86, .T. ) ;
#29 = DIRECTION ( 'NONE',  ( -1.000000000000000000, 0.0000000000000000000, 0.0000000000000000000 ) ) ;
#30 = AXIS2_PLACEMENT_3D ( 'NONE', #12, #301, #276 ) ;
#31 = ORIENTED_EDGE ( 'NONE', *, *, #345, .T. ) ;
#32 = ADVANCED_BREP_SHAPE_REPRESENTATION ( 'Micro_MMBM-010-6', ( #179, #53 ), #198 ) ;
#33 = LINE ( 'NONE', #211, #195 ) ;
#34 = EDGE_CURVE ( 'NONE', #242, #237, #61, .T. ) ;
#35 = EDGE_CURVE ( 'NONE', #111, #230, #46, .T. ) ;
#36 = ORIENTED_EDGE ( 'NONE', *, *, #197, .T. ) ;
#37 = CARTESIAN_POINT ( 'NONE',  ( 0.0000000000000000000, 0.0000000000000000000, 2.244094000000000033 ) ) ;
#38 = ORIENTED_EDGE ( 'NONE', *, *, #246, .F. ) ;
#39 = FACE_OUTER_BOUND ( 'NONE', #348, .T. ) ;
#40 = VERTEX_POINT ( 'NONE', #247 ) ;
#41 = FACE_BOUND ( 'NONE', #353, .T. ) ;
#42 = COLOUR_RGB ( '',0.7921568627450980005, 0.8196078431372548767, 0.9333333333333333481 ) ;
#43 = DIRECTION ( 'NONE',  ( -0.0000000000000000000, -0.0000000000000000000, -1.000000000000000000 ) ) ;
#44 = CYLINDRICAL_SURFACE ( 'NONE', #121, 0.1181100000000000066 ) ;
#45 = DIRECTION ( 'NONE',  ( -1.000000000000000000, 0.0000000000000000000, 0.0000000000000000000 ) ) ;
#46 = LINE ( 'NONE', #273, #93 ) ;
#47 =( NAMED_UNIT ( * ) PLANE_ANGLE_UNIT ( ) SI_UNIT ( $, .RADIAN. ) );
#48 = CARTESIAN_POINT ( 'NONE',  ( 0.0000000000000000000, 0.0000000000000000000, 2.229093999999999465 ) ) ;
#49 = CIRCLE ( 'NONE', #129, 0.01968303149999999294 ) ;
#50 = ORIENTED_EDGE ( 'NONE', *, *, #309, .T. ) ;
#51 = FILL_AREA_STYLE_COLOUR ( '', #42 ) ;
#52 = DIRECTION ( 'NONE',  ( -1.000000000000000000, 0.0000000000000000000, 0.0000000000000000000 ) ) ;
#53 = AXIS2_PLACEMENT_3D ( 'NONE', #131, #193, #279 ) ;
#54 = CARTESIAN_POINT ( 'NONE',  ( 0.0000000000000000000, 0.0000000000000000000, 2.244094000000000033 ) ) ;
#55 = VECTOR ( 'NONE', #167, 39.37007874015748143 ) ;
#56 = AXIS2_PLACEMENT_3D ( 'NONE', #296, #76, #189 ) ;
#57 = CYLINDRICAL_SURFACE ( 'NONE', #88, 0.01870100000000001622 ) ;
#58 = ORIENTED_EDGE ( 'NONE', *, *, #188, .F. ) ;
#59 = DIRECTION ( 'NONE',  ( -1.000000000000000000, 0.0000000000000000000, 0.0000000000000000000 ) ) ;
#60 = EDGE_CURVE ( 'NONE', #230, #40, #227, .T. ) ;
#61 = CIRCLE ( 'NONE', #329, 0.01968303149999999294 ) ;
#62 = VERTEX_POINT ( 'NONE', #163 ) ;
#63 = AXIS2_PLACEMENT_3D ( 'NONE', #54, #338, #140 ) ;
#64 = DIRECTION ( 'NONE',  ( 0.0000000000000000000, 0.0000000000000000000, 1.000000000000000000 ) ) ;
#65 = ORIENTED_EDGE ( 'NONE', *, *, #60, .F. ) ;
#66 = DIRECTION ( 'NONE',  ( -0.0000000000000000000, -0.0000000000000000000, -1.000000000000000000 ) ) ;
#67 = EDGE_CURVE ( 'NONE', #94, #97, #302, .T. ) ;
#68 = EDGE_LOOP ( 'NONE', ( #314, #19, #180, #208 ) ) ;
#69 = FACE_OUTER_BOUND ( 'NONE', #5, .T. ) ;
#70 = DIRECTION ( 'NONE',  ( 1.000000000000000000, 0.0000000000000000000, 0.0000000000000000000 ) ) ;
#71 = DIRECTION ( 'NONE',  ( -1.000000000000000000, 0.0000000000000000000, 0.0000000000000000000 ) ) ;
#72 = ORIENTED_EDGE ( 'NONE', *, *, #370, .T. ) ;
#73 = EDGE_CURVE ( 'NONE', #242, #199, #132, .T. ) ;
#74 =( CONVERSION_BASED_UNIT ( 'INCH', #222 ) LENGTH_UNIT ( ) NAMED_UNIT ( #141 ) );
#75 = CARTESIAN_POINT ( 'NONE',  ( 0.01870100000000003010, 2.290211979085468414E-18, 0.2362200000000000688 ) ) ;
#76 = DIRECTION ( 'NONE',  ( 0.0000000000000000000, 0.0000000000000000000, 1.000000000000000000 ) ) ;
#77 = AXIS2_PLACEMENT_3D ( 'NONE', #16, #80, #136 ) ;
#78 = ORIENTED_EDGE ( 'NONE', *, *, #370, .F. ) ;
#79 = PRODUCT_DEFINITION_CONTEXT ( 'detailed design', #310, 'design' ) ;
#80 = DIRECTION ( 'NONE',  ( -0.0000000000000000000, -0.0000000000000000000, -1.000000000000000000 ) ) ;
#81 = CARTESIAN_POINT ( 'NONE',  ( -0.01968303149999999294, 0.0000000000000000000, 0.03937000000000000222 ) ) ;
#82 = DIRECTION ( 'NONE',  ( -0.0000000000000000000, -0.0000000000000000000, -1.000000000000000000 ) ) ;
#83 = CIRCLE ( 'NONE', #347, 0.01870100000000000581 ) ;
#84 = EDGE_CURVE ( 'NONE', #40, #230, #160, .T. ) ;
#85 = AXIS2_PLACEMENT_3D ( 'NONE', #340, #254, #59 ) ;
#86 = EDGE_CURVE ( 'NONE', #62, #111, #259, .T. ) ;
#87 = ORIENTED_EDGE ( 'NONE', *, *, #84, .F. ) ;
#88 = AXIS2_PLACEMENT_3D ( 'NONE', #116, #171, #29 ) ;
#89 = FACE_OUTER_BOUND ( 'NONE', #268, .T. ) ;
#90 = ORIENTED_EDGE ( 'NONE', *, *, #148, .F. ) ;
#91 = EDGE_LOOP ( 'NONE', ( #261, #50 ) ) ;
#92 = CARTESIAN_POINT ( 'NONE',  ( 0.0000000000000000000, 0.0000000000000000000, 0.04493937739224183880 ) ) ;
#93 = VECTOR ( 'NONE', #364, 39.37007874015748854 ) ;
#94 = VERTEX_POINT ( 'NONE', #123 ) ;
#95 = AXIS2_PLACEMENT_3D ( 'NONE', #92, #326, #322 ) ;
#96 = CARTESIAN_POINT ( 'NONE',  ( 0.01870100000000002663, 0.0000000000000000000, 0.2362200000000000688 ) ) ;
#97 = VERTEX_POINT ( 'NONE', #185 ) ;
#98 = DIRECTION ( 'NONE',  ( -1.000000000000000000, 0.0000000000000000000, 0.0000000000000000000 ) ) ;
#99 = ORIENTED_EDGE ( 'NONE', *, *, #255, .F. ) ;
#100 = DIRECTION ( 'NONE',  ( -0.0000000000000000000, -0.0000000000000000000, -1.000000000000000000 ) ) ;
#101 = CARTESIAN_POINT ( 'NONE',  ( 0.0000000000000000000, 0.0000000000000000000, 0.03937000000000000222 ) ) ;
#102 = DIRECTION ( 'NONE',  ( -0.1736481776669301647, 0.0000000000000000000, -0.9848077530122080203 ) ) ;
#103 = DIRECTION ( 'NONE',  ( -0.0000000000000000000, -0.0000000000000000000, -1.000000000000000000 ) ) ;
#104 = EDGE_LOOP ( 'NONE', ( #28, #31 ) ) ;
#105 = SHAPE_DEFINITION_REPRESENTATION ( #357, #32 ) ;
#106 = CARTESIAN_POINT ( 'NONE',  ( 0.01968303149999999294, 2.410476152399151743E-18, 0.0000000000000000000 ) ) ;
#107 = CARTESIAN_POINT ( 'NONE',  ( -0.01968303149999999294, 0.0000000000000000000, 0.0000000000000000000 ) ) ;
#108 = FACE_OUTER_BOUND ( 'NONE', #130, .T. ) ;
#109 = FILL_AREA_STYLE_COLOUR ( '', #308 ) ;
#110 = CONICAL_SURFACE ( 'NONE', #153, 0.1031100000000002570, 0.7853981633974318477 ) ;
#111 = VERTEX_POINT ( 'NONE', #14 ) ;
#112 = DIRECTION ( 'NONE',  ( -0.0000000000000000000, -0.0000000000000000000, -1.000000000000000000 ) ) ;
#113 = AXIS2_PLACEMENT_3D ( 'NONE', #333, #336, #304 ) ;
#114 = ORIENTED_EDGE ( 'NONE', *, *, #148, .T. ) ;
#115 = CIRCLE ( 'NONE', #95, 0.01870100000000000581 ) ;
#116 = CARTESIAN_POINT ( 'NONE',  ( 0.0000000000000000000, 0.0000000000000000000, 0.0000000000000000000 ) ) ;
#117 = DIRECTION ( 'NONE',  ( -1.000000000000000000, 0.0000000000000000000, 0.0000000000000000000 ) ) ;
#118 = ORIENTED_EDGE ( 'NONE', *, *, #73, .T. ) ;
#119 = CARTESIAN_POINT ( 'NONE',  ( 0.0000000000000000000, 0.0000000000000000000, 0.0000000000000000000 ) ) ;
#120 = VERTEX_POINT ( 'NONE', #75 ) ;
#121 = AXIS2_PLACEMENT_3D ( 'NONE', #126, #100, #71 ) ;
#122 = DIRECTION ( 'NONE',  ( -0.0000000000000000000, -0.0000000000000000000, -1.000000000000000000 ) ) ;
#123 = CARTESIAN_POINT ( 'NONE',  ( 0.1181100000000000066, 1.446430334472939084E-17, 0.2362199999999999300 ) ) ;
#124 = CARTESIAN_POINT ( 'NONE',  ( 0.0000000000000000000, 0.0000000000000000000, 2.244094000000000033 ) ) ;
#125 = ORIENTED_EDGE ( 'NONE', *, *, #216, .F. ) ;
#126 = CARTESIAN_POINT ( 'NONE',  ( 0.0000000000000000000, 0.0000000000000000000, 2.244094000000000033 ) ) ;
#127 = ORIENTED_EDGE ( 'NONE', *, *, #281, .T. ) ;
#128 = SURFACE_SIDE_STYLE ('',( #21 ) ) ;
#129 = AXIS2_PLACEMENT_3D ( 'NONE', #184, #8, #238 ) ;
#130 = EDGE_LOOP ( 'NONE', ( #145, #293, #258, #65 ) ) ;
#131 = CARTESIAN_POINT ( 'NONE',  ( 0.0000000000000000000, 0.0000000000000000000, 0.0000000000000000000 ) ) ;
#132 = LINE ( 'NONE', #106, #378 ) ;
#133 = ADVANCED_FACE ( 'NONE', ( #210 ), #275, .T. ) ;
#134 =( NAMED_UNIT ( * ) SI_UNIT ( $, .STERADIAN. ) SOLID_ANGLE_UNIT ( ) );
#135 =( LENGTH_UNIT ( ) NAMED_UNIT ( * ) SI_UNIT ( $, .METRE. ) );
#136 = DIRECTION ( 'NONE',  ( -1.000000000000000000, 0.0000000000000000000, 0.0000000000000000000 ) ) ;
#137 = EDGE_CURVE ( 'NONE', #237, #201, #186, .T. ) ;
#138 = AXIS2_PLACEMENT_3D ( 'NONE', #214, #298, #70 ) ;
#139 = AXIS2_PLACEMENT_3D ( 'NONE', #377, #112, #52 ) ;
#140 = DIRECTION ( 'NONE',  ( 1.000000000000000000, 0.0000000000000000000, -0.0000000000000000000 ) ) ;
#141 = DIMENSIONAL_EXPONENTS ( 1.000000000000000000, 0.0000000000000000000, 0.0000000000000000000, 0.0000000000000000000, 0.0000000000000000000, 0.0000000000000000000, 0.0000000000000000000 ) ;
#142 = VERTEX_POINT ( 'NONE', #155 ) ;
#143 = LINE ( 'NONE', #266, #283 ) ;
#144 = ADVANCED_FACE ( 'NONE', ( #159 ), #271, .T. ) ;
#145 = ORIENTED_EDGE ( 'NONE', *, *, #35, .F. ) ;
#146 = LINE ( 'NONE', #181, #170 ) ;
#147 = ORIENTED_EDGE ( 'NONE', *, *, #374, .F. ) ;
#148 = EDGE_CURVE ( 'NONE', #369, #120, #236, .T. ) ;
#149 = EDGE_LOOP ( 'NONE', ( #114, #265, #287, #38 ) ) ;
#150 = CYLINDRICAL_SURFACE ( 'NONE', #323, 0.01968303149999999294 ) ;
#151 = EDGE_LOOP ( 'NONE', ( #7, #278, #289, #172 ) ) ;
#152 = ADVANCED_FACE ( 'NONE', ( #89 ), #249, .T. ) ;
#153 = AXIS2_PLACEMENT_3D ( 'NONE', #220, #228, #286 ) ;
#154 = CARTESIAN_POINT ( 'NONE',  ( 0.0000000000000000000, 0.0000000000000000000, 0.0000000000000000000 ) ) ;
#155 = CARTESIAN_POINT ( 'NONE',  ( 0.01870100000000000581, 2.350344065742308730E-18, 0.04493937739224183880 ) ) ;
#156 = DIRECTION ( 'NONE',  ( -0.0000000000000000000, -0.0000000000000000000, -1.000000000000000000 ) ) ;
#157 = DIRECTION ( 'NONE',  ( -0.0000000000000000000, -0.0000000000000000000, -1.000000000000000000 ) ) ;
#158 = APPLICATION_PROTOCOL_DEFINITION ( 'draft international standard', 'automotive_design', 1998, #316 ) ;
#159 = FACE_OUTER_BOUND ( 'NONE', #351, .T. ) ;
#160 = CIRCLE ( 'NONE', #113, 0.1181100000000000066 ) ;
#161 = LENGTH_MEASURE_WITH_UNIT ( LENGTH_MEASURE( 0.02539999999999999897 ), #166 );
#162 = CONICAL_SURFACE ( 'NONE', #139, 0.01968303149999999294, 0.1745329251994327535 ) ;
#163 = CARTESIAN_POINT ( 'NONE',  ( -0.1031100000000002570, 0.0000000000000000000, 2.244094000000000033 ) ) ;
#164 = DIRECTION ( 'NONE',  ( 0.0000000000000000000, 0.0000000000000000000, -1.000000000000000000 ) ) ;
#165 = CARTESIAN_POINT ( 'NONE',  ( 0.1181100000000000066, 1.446430334472939084E-17, 2.229093999999999465 ) ) ;
#166 =( LENGTH_UNIT ( ) NAMED_UNIT ( * ) SI_UNIT ( $, .METRE. ) );
#167 = DIRECTION ( 'NONE',  ( -0.0000000000000000000, -0.0000000000000000000, -1.000000000000000000 ) ) ;
#168 = UNCERTAINTY_MEASURE_WITH_UNIT (LENGTH_MEASURE( 1.000000000000000082E-05 ), #200, 'distance_accuracy_value', 'NONE');
#169 = LINE ( 'NONE', #194, #243 ) ;
#170 = VECTOR ( 'NONE', #102, 39.37007874015748854 ) ;
#171 = DIRECTION ( 'NONE',  ( -0.0000000000000000000, -0.0000000000000000000, -1.000000000000000000 ) ) ;
#172 = ORIENTED_EDGE ( 'NONE', *, *, #34, .F. ) ;
#173 = FACE_OUTER_BOUND ( 'NONE', #263, .T. ) ;
#174 = VERTEX_POINT ( 'NONE', #305 ) ;
#175 = STYLED_ITEM ( 'NONE', ( #250 ), #32 ) ;
#176 = DIRECTION ( 'NONE',  ( 1.000000000000000000, 0.0000000000000000000, 0.0000000000000000000 ) ) ;
#177 = ORIENTED_EDGE ( 'NONE', *, *, #35, .T. ) ;
#178 = DIRECTION ( 'NONE',  ( -1.000000000000000000, 0.0000000000000000000, 0.0000000000000000000 ) ) ;
#179 = MANIFOLD_SOLID_BREP ( 'Cut-Revolve1', #218 ) ;
#180 = ORIENTED_EDGE ( 'NONE', *, *, #137, .T. ) ;
#181 = CARTESIAN_POINT ( 'NONE',  ( -0.01968303149999999294, 0.0000000000000000000, 0.03937000000000000222 ) ) ;
#182 = CARTESIAN_POINT ( 'NONE',  ( -0.01968303149999999294, 0.0000000000000000000, 0.0000000000000000000 ) ) ;
#183 = CIRCLE ( 'NONE', #277, 0.1031100000000002570 ) ;
#184 = CARTESIAN_POINT ( 'NONE',  ( 0.0000000000000000000, 0.0000000000000000000, 0.0000000000000000000 ) ) ;
#185 = CARTESIAN_POINT ( 'NONE',  ( -0.1181100000000000066, 0.0000000000000000000, 0.2362199999999999300 ) ) ;
#186 = LINE ( 'NONE', #182, #354 ) ;
#187 =( LENGTH_UNIT ( ) NAMED_UNIT ( * ) SI_UNIT ( $, .METRE. ) );
#188 = EDGE_CURVE ( 'NONE', #97, #94, #206, .T. ) ;
#189 = DIRECTION ( 'NONE',  ( 1.000000000000000000, 0.0000000000000000000, -0.0000000000000000000 ) ) ;
#190 = CIRCLE ( 'NONE', #372, 0.01968303149999999294 ) ;
#191 = DIRECTION ( 'NONE',  ( 1.000000000000000000, 0.0000000000000000000, 0.0000000000000000000 ) ) ;
#192 = CARTESIAN_POINT ( 'NONE',  ( -0.1181100000000000066, 0.0000000000000000000, 2.244094000000000033 ) ) ;
#193 = DIRECTION ( 'NONE',  ( 0.0000000000000000000, 0.0000000000000000000, 1.000000000000000000 ) ) ;
#194 = CARTESIAN_POINT ( 'NONE',  ( 0.1181100000000000066, 1.446430334472939084E-17, 2.244094000000000033 ) ) ;
#195 = VECTOR ( 'NONE', #122, 39.37007874015748143 ) ;
#196 = PLANE ( 'NONE',  #63 ) ;
#197 = EDGE_CURVE ( 'NONE', #230, #94, #169, .T. ) ;
#198 =( GEOMETRIC_REPRESENTATION_CONTEXT ( 3 ) GLOBAL_UNCERTAINTY_ASSIGNED_CONTEXT ( ( #342 ) ) GLOBAL_UNIT_ASSIGNED_CONTEXT ( ( #18, #47, #253 ) ) REPRESENTATION_CONTEXT ( 'NONE', 'WORKASPACE' ) );
#199 = VERTEX_POINT ( 'NONE', #371 ) ;
#200 =( CONVERSION_BASED_UNIT ( 'INCH', #23 ) LENGTH_UNIT ( ) NAMED_UNIT ( #349 ) );
#201 = VERTEX_POINT ( 'NONE', #107 ) ;
#202 = SURFACE_STYLE_USAGE ( .BOTH. , #280 ) ;
#203 = ORIENTED_EDGE ( 'NONE', *, *, #60, .T. ) ;
#204 = DIRECTION ( 'NONE',  ( -1.000000000000000000, 0.0000000000000000000, 0.0000000000000000000 ) ) ;
#205 = ORIENTED_EDGE ( 'NONE', *, *, #197, .F. ) ;
#206 = CIRCLE ( 'NONE', #229, 0.1181100000000000066 ) ;
#207 = DIRECTION ( 'NONE',  ( -1.000000000000000000, 0.0000000000000000000, 0.0000000000000000000 ) ) ;
#208 = ORIENTED_EDGE ( 'NONE', *, *, #309, .F. ) ;
#209 = LINE ( 'NONE', #297, #313 ) ;
#210 = FACE_OUTER_BOUND ( 'NONE', #325, .T. ) ;
#211 = CARTESIAN_POINT ( 'NONE',  ( 0.01870100000000001622, 2.290211979085467258E-18, 0.0000000000000000000 ) ) ;
#212 = ORIENTED_EDGE ( 'NONE', *, *, #67, .F. ) ;
#213 = CYLINDRICAL_SURFACE ( 'NONE', #9, 0.01870100000000001622 ) ;
#214 = CARTESIAN_POINT ( 'NONE',  ( 0.0000000000000000000, 0.0000000000000000000, 2.244094000000000033 ) ) ;
#215 = FACE_OUTER_BOUND ( 'NONE', #91, .T. ) ;
#216 = EDGE_CURVE ( 'NONE', #40, #97, #307, .T. ) ;
#217 = DIRECTION ( 'NONE',  ( -1.000000000000000000, 0.0000000000000000000, 0.0000000000000000000 ) ) ;
#218 = CLOSED_SHELL ( 'NONE', ( #144, #245, #133, #152, #312, #294, #221, #231, #291, #225, #299, #321, #2 ) ) ;
#219 = CARTESIAN_POINT ( 'NONE',  ( 0.0000000000000000000, 0.0000000000000000000, 0.2362199999999999300 ) ) ;
#220 = CARTESIAN_POINT ( 'NONE',  ( 0.0000000000000000000, 0.0000000000000000000, 2.244094000000000033 ) ) ;
#221 = ADVANCED_FACE ( 'NONE', ( #284 ), #196, .T. ) ;
#222 = LENGTH_MEASURE_WITH_UNIT ( LENGTH_MEASURE( 0.02539999999999999897 ), #187 );
#223 =( NAMED_UNIT ( * ) PLANE_ANGLE_UNIT ( ) SI_UNIT ( $, .RADIAN. ) );
#224 = CIRCLE ( 'NONE', #1, 0.01968303149999999294 ) ;
#225 = ADVANCED_FACE ( 'NONE', ( #257 ), #162, .T. ) ;
#226 = ORIENTED_EDGE ( 'NONE', *, *, #274, .F. ) ;
#227 = CIRCLE ( 'NONE', #267, 0.1181100000000000066 ) ;
#228 = DIRECTION ( 'NONE',  ( 0.0000000000000000000, 0.0000000000000000000, -1.000000000000000000 ) ) ;
#229 = AXIS2_PLACEMENT_3D ( 'NONE', #219, #248, #252 ) ;
#230 = VERTEX_POINT ( 'NONE', #165 ) ;
#231 = ADVANCED_FACE ( 'NONE', ( #108 ), #110, .T. ) ;
#232 = ORIENTED_EDGE ( 'NONE', *, *, #300, .F. ) ;
#233 = DIRECTION ( 'NONE',  ( -0.0000000000000000000, -0.0000000000000000000, -1.000000000000000000 ) ) ;
#234 = ORIENTED_EDGE ( 'NONE', *, *, #67, .T. ) ;
#235 = DIRECTION ( 'NONE',  ( -0.0000000000000000000, -0.0000000000000000000, -1.000000000000000000 ) ) ;
#236 = CIRCLE ( 'NONE', #77, 0.01870100000000002663 ) ;
#237 = VERTEX_POINT ( 'NONE', #81 ) ;
#238 = DIRECTION ( 'NONE',  ( -1.000000000000000000, 0.0000000000000000000, 0.0000000000000000000 ) ) ;
#239 = DIRECTION ( 'NONE',  ( -1.000000000000000000, 0.0000000000000000000, 0.0000000000000000000 ) ) ;
#240 = FACE_OUTER_BOUND ( 'NONE', #68, .T. ) ;
#241 = LINE ( 'NONE', #360, #375 ) ;
#242 = VERTEX_POINT ( 'NONE', #346 ) ;
#243 = VECTOR ( 'NONE', #82, 39.37007874015748143 ) ;
#244 = ORIENTED_EDGE ( 'NONE', *, *, #341, .T. ) ;
#245 = ADVANCED_FACE ( 'NONE', ( #315 ), #57, .T. ) ;
#246 = EDGE_CURVE ( 'NONE', #369, #174, #143, .T. ) ;
#247 = CARTESIAN_POINT ( 'NONE',  ( -0.1181100000000000066, 0.0000000000000000000, 2.229093999999999465 ) ) ;
#248 = DIRECTION ( 'NONE',  ( -0.0000000000000000000, -0.0000000000000000000, -1.000000000000000000 ) ) ;
#249 = CONICAL_SURFACE ( 'NONE', #85, 0.1031100000000002570, 0.7853981633974318477 ) ;
#250 = PRESENTATION_STYLE_ASSIGNMENT (( #373 ) ) ;
#251 = MECHANICAL_DESIGN_GEOMETRIC_PRESENTATION_REPRESENTATION (  '', ( #175 ), #24 ) ;
#252 = DIRECTION ( 'NONE',  ( -1.000000000000000000, 0.0000000000000000000, 0.0000000000000000000 ) ) ;
#253 =( NAMED_UNIT ( * ) SI_UNIT ( $, .STERADIAN. ) SOLID_ANGLE_UNIT ( ) );
#254 = DIRECTION ( 'NONE',  ( 0.0000000000000000000, 0.0000000000000000000, -1.000000000000000000 ) ) ;
#255 = EDGE_CURVE ( 'NONE', #120, #142, #33, .T. ) ;
#256 = MECHANICAL_DESIGN_GEOMETRIC_PRESENTATION_REPRESENTATION (  '', ( #282 ), #337 ) ;
#257 = FACE_OUTER_BOUND ( 'NONE', #151, .T. ) ;
#258 = ORIENTED_EDGE ( 'NONE', *, *, #318, .T. ) ;
#259 = CIRCLE ( 'NONE', #138, 0.1031100000000002570 ) ;
#260 = PRODUCT_DEFINITION_FORMATION_WITH_SPECIFIED_SOURCE ( 'ANY', '', #26, .NOT_KNOWN. ) ;
#261 = ORIENTED_EDGE ( 'NONE', *, *, #331, .T. ) ;
#262 = FACE_OUTER_BOUND ( 'NONE', #3, .T. ) ;
#263 = EDGE_LOOP ( 'NONE', ( #99, #361, #379, #226 ) ) ;
#264 = CARTESIAN_POINT ( 'NONE',  ( -0.01870100000000002663, 0.0000000000000000000, 0.2362200000000000688 ) ) ;
#265 = ORIENTED_EDGE ( 'NONE', *, *, #255, .T. ) ;
#266 = CARTESIAN_POINT ( 'NONE',  ( -0.01870100000000001622, 0.0000000000000000000, 0.0000000000000000000 ) ) ;
#267 = AXIS2_PLACEMENT_3D ( 'NONE', #48, #164, #191 ) ;
#268 = EDGE_LOOP ( 'NONE', ( #292, #177, #87, #319 ) ) ;
#269 = AXIS2_PLACEMENT_3D ( 'NONE', #96, #4, #13 ) ;
#270 = PLANE ( 'NONE',  #269 ) ;
#271 = CYLINDRICAL_SURFACE ( 'NONE', #30, 0.01968303149999999294 ) ;
#272 = DIRECTION ( 'NONE',  ( -0.0000000000000000000, -0.0000000000000000000, -1.000000000000000000 ) ) ;
#273 = CARTESIAN_POINT ( 'NONE',  ( 0.1031100000000002570, 1.262733314600838667E-17, 2.244094000000000033 ) ) ;
#274 = EDGE_CURVE ( 'NONE', #142, #174, #83, .T. ) ;
#275 = CONICAL_SURFACE ( 'NONE', #15, 0.01968303149999999294, 0.1745329251994327535 ) ;
#276 = DIRECTION ( 'NONE',  ( -1.000000000000000000, 0.0000000000000000000, 0.0000000000000000000 ) ) ;
#277 = AXIS2_PLACEMENT_3D ( 'NONE', #124, #64, #176 ) ;
#278 = ORIENTED_EDGE ( 'NONE', *, *, #274, .T. ) ;
#279 = DIRECTION ( 'NONE',  ( 1.000000000000000000, 0.0000000000000000000, 0.0000000000000000000 ) ) ;
#280 = SURFACE_SIDE_STYLE ('',( #311 ) ) ;
#281 = EDGE_CURVE ( 'NONE', #142, #242, #241, .T. ) ;
#282 = STYLED_ITEM ( 'NONE', ( #25 ), #179 ) ;
#283 = VECTOR ( 'NONE', #290, 39.37007874015748143 ) ;
#284 = FACE_OUTER_BOUND ( 'NONE', #104, .T. ) ;
#285 = ORIENTED_EDGE ( 'NONE', *, *, #216, .T. ) ;
#286 = DIRECTION ( 'NONE',  ( -1.000000000000000000, 0.0000000000000000000, 0.0000000000000000000 ) ) ;
#287 = ORIENTED_EDGE ( 'NONE', *, *, #341, .F. ) ;
#288 = DIRECTION ( 'NONE',  ( -1.000000000000000000, 0.0000000000000000000, 0.0000000000000000000 ) ) ;
#289 = ORIENTED_EDGE ( 'NONE', *, *, #300, .T. ) ;
#290 = DIRECTION ( 'NONE',  ( -0.0000000000000000000, -0.0000000000000000000, -1.000000000000000000 ) ) ;
#291 = ADVANCED_FACE ( 'NONE', ( #41, #262 ), #270, .T. ) ;
#292 = ORIENTED_EDGE ( 'NONE', *, *, #345, .F. ) ;
#293 = ORIENTED_EDGE ( 'NONE', *, *, #86, .F. ) ;
#294 = ADVANCED_FACE ( 'NONE', ( #69 ), #44, .T. ) ;
#295 = DIRECTION ( 'NONE',  ( -0.0000000000000000000, -0.0000000000000000000, -1.000000000000000000 ) ) ;
#296 = CARTESIAN_POINT ( 'NONE',  ( 0.0000000000000000000, 0.0000000000000000000, 0.0000000000000000000 ) ) ;
#297 = CARTESIAN_POINT ( 'NONE',  ( -0.1031100000000002570, 0.0000000000000000000, 2.244094000000000033 ) ) ;
#298 = DIRECTION ( 'NONE',  ( 0.0000000000000000000, 0.0000000000000000000, 1.000000000000000000 ) ) ;
#299 = ADVANCED_FACE ( 'NONE', ( #173 ), #213, .T. ) ;
#300 = EDGE_CURVE ( 'NONE', #174, #237, #146, .T. ) ;
#301 = DIRECTION ( 'NONE',  ( -0.0000000000000000000, -0.0000000000000000000, -1.000000000000000000 ) ) ;
#302 = CIRCLE ( 'NONE', #320, 0.1181100000000000066 ) ;
#303 = DIRECTION ( 'NONE',  ( -0.0000000000000000000, -0.0000000000000000000, -1.000000000000000000 ) ) ;
#304 = DIRECTION ( 'NONE',  ( 1.000000000000000000, 0.0000000000000000000, 0.0000000000000000000 ) ) ;
#305 = CARTESIAN_POINT ( 'NONE',  ( -0.01870100000000000581, 0.0000000000000000000, 0.04493937739224183880 ) ) ;
#306 =( NAMED_UNIT ( * ) PLANE_ANGLE_UNIT ( ) SI_UNIT ( $, .RADIAN. ) );
#307 = LINE ( 'NONE', #192, #55 ) ;
#308 = COLOUR_RGB ( '',0.7921568627450980005, 0.8196078431372548767, 0.9333333333333333481 ) ;
#309 = EDGE_CURVE ( 'NONE', #199, #201, #49, .T. ) ;
#310 = APPLICATION_CONTEXT ( 'automotive_design' ) ;
#311 = SURFACE_STYLE_FILL_AREA ( #22 ) ;
#312 = ADVANCED_FACE ( 'NONE', ( #39 ), #332, .T. ) ;
#313 = VECTOR ( 'NONE', #11, 39.37007874015748854 ) ;
#314 = ORIENTED_EDGE ( 'NONE', *, *, #73, .F. ) ;
#315 = FACE_OUTER_BOUND ( 'NONE', #149, .T. ) ;
#316 = APPLICATION_CONTEXT ( 'automotive_design' ) ;
#317 = ORIENTED_EDGE ( 'NONE', *, *, #84, .T. ) ;
#318 = EDGE_CURVE ( 'NONE', #62, #40, #209, .T. ) ;
#319 = ORIENTED_EDGE ( 'NONE', *, *, #318, .F. ) ;
#320 = AXIS2_PLACEMENT_3D ( 'NONE', #10, #330, #217 ) ;
#321 = ADVANCED_FACE ( 'NONE', ( #240 ), #150, .T. ) ;
#322 = DIRECTION ( 'NONE',  ( -1.000000000000000000, 0.0000000000000000000, 0.0000000000000000000 ) ) ;
#323 = AXIS2_PLACEMENT_3D ( 'NONE', #154, #272, #117 ) ;
#324 = CARTESIAN_POINT ( 'NONE',  ( 0.0000000000000000000, 0.0000000000000000000, 0.2362200000000000688 ) ) ;
#325 = EDGE_LOOP ( 'NONE', ( #244, #127, #78, #232 ) ) ;
#326 = DIRECTION ( 'NONE',  ( -0.0000000000000000000, -0.0000000000000000000, -1.000000000000000000 ) ) ;
#327 = CARTESIAN_POINT ( 'NONE',  ( 0.0000000000000000000, 0.0000000000000000000, 0.03937000000000000222 ) ) ;
#328 = CARTESIAN_POINT ( 'NONE',  ( 0.0000000000000000000, 0.0000000000000000000, 0.04493937739224183880 ) ) ;
#329 = AXIS2_PLACEMENT_3D ( 'NONE', #101, #303, #239 ) ;
#330 = DIRECTION ( 'NONE',  ( -0.0000000000000000000, -0.0000000000000000000, -1.000000000000000000 ) ) ;
#331 = EDGE_CURVE ( 'NONE', #201, #199, #190, .T. ) ;
#332 = CYLINDRICAL_SURFACE ( 'NONE', #365, 0.1181100000000000066 ) ;
#333 = CARTESIAN_POINT ( 'NONE',  ( 0.0000000000000000000, 0.0000000000000000000, 2.229093999999999465 ) ) ;
#334 = PRODUCT_CONTEXT ( 'NONE', #316, 'mechanical' ) ;
#335 = ORIENTED_EDGE ( 'NONE', *, *, #331, .F. ) ;
#336 = DIRECTION ( 'NONE',  ( 0.0000000000000000000, 0.0000000000000000000, -1.000000000000000000 ) ) ;
#337 =( GEOMETRIC_REPRESENTATION_CONTEXT ( 3 ) GLOBAL_UNCERTAINTY_ASSIGNED_CONTEXT ( ( #168 ) ) GLOBAL_UNIT_ASSIGNED_CONTEXT ( ( #200, #223, #134 ) ) REPRESENTATION_CONTEXT ( 'NONE', 'WORKASPACE' ) );
#338 = DIRECTION ( 'NONE',  ( 0.0000000000000000000, 0.0000000000000000000, 1.000000000000000000 ) ) ;
#339 =( NAMED_UNIT ( * ) SI_UNIT ( $, .STERADIAN. ) SOLID_ANGLE_UNIT ( ) );
#340 = CARTESIAN_POINT ( 'NONE',  ( 0.0000000000000000000, 0.0000000000000000000, 2.244094000000000033 ) ) ;
#341 = EDGE_CURVE ( 'NONE', #174, #142, #115, .T. ) ;
#342 = UNCERTAINTY_MEASURE_WITH_UNIT (LENGTH_MEASURE( 1.000000000000000082E-05 ), #18, 'distance_accuracy_value', 'NONE');
#343 = CIRCLE ( 'NONE', #27, 0.01870100000000002663 ) ;
#344 = DIMENSIONAL_EXPONENTS ( 1.000000000000000000, 0.0000000000000000000, 0.0000000000000000000, 0.0000000000000000000, 0.0000000000000000000, 0.0000000000000000000, 0.0000000000000000000 ) ;
#345 = EDGE_CURVE ( 'NONE', #111, #62, #183, .T. ) ;
#346 = CARTESIAN_POINT ( 'NONE',  ( 0.01968303149999999294, 2.410476152399151743E-18, 0.03937000000000000222 ) ) ;
#347 = AXIS2_PLACEMENT_3D ( 'NONE', #328, #355, #204 ) ;
#348 = EDGE_LOOP ( 'NONE', ( #317, #36, #58, #125 ) ) ;
#349 = DIMENSIONAL_EXPONENTS ( 1.000000000000000000, 0.0000000000000000000, 0.0000000000000000000, 0.0000000000000000000, 0.0000000000000000000, 0.0000000000000000000, 0.0000000000000000000 ) ;
#350 = UNCERTAINTY_MEASURE_WITH_UNIT (LENGTH_MEASURE( 1.000000000000000082E-05 ), #74, 'distance_accuracy_value', 'NONE');
#351 = EDGE_LOOP ( 'NONE', ( #72, #118, #335, #367 ) ) ;
#352 = DIRECTION ( 'NONE',  ( -1.000000000000000000, 0.0000000000000000000, 0.0000000000000000000 ) ) ;
#353 = EDGE_LOOP ( 'NONE', ( #90, #147 ) ) ;
#354 = VECTOR ( 'NONE', #43, 39.37007874015748143 ) ;
#355 = DIRECTION ( 'NONE',  ( -0.0000000000000000000, -0.0000000000000000000, -1.000000000000000000 ) ) ;
#356 = ORIENTED_EDGE ( 'NONE', *, *, #188, .T. ) ;
#357 = PRODUCT_DEFINITION_SHAPE ( 'NONE', 'NONE',  #376 ) ;
#358 = DIRECTION ( 'NONE',  ( 0.1736481776669301647, 2.126576849575769450E-17, -0.9848077530122080203 ) ) ;
#359 = PLANE ( 'NONE',  #56 ) ;
#360 = CARTESIAN_POINT ( 'NONE',  ( 0.01968303149999999294, 2.410476152399151743E-18, 0.03937000000000000222 ) ) ;
#361 = ORIENTED_EDGE ( 'NONE', *, *, #374, .T. ) ;
#362 = CARTESIAN_POINT ( 'NONE',  ( 0.0000000000000000000, 0.0000000000000000000, 0.0000000000000000000 ) ) ;
#363 = PRESENTATION_LAYER_ASSIGNMENT (  '', '', ( #282 ) ) ;
#364 = DIRECTION ( 'NONE',  ( 0.7071067811865358044, 8.659560562354788645E-17, -0.7071067811865590080 ) ) ;
#365 = AXIS2_PLACEMENT_3D ( 'NONE', #37, #295, #288 ) ;
#366 = FILL_AREA_STYLE ('',( #51 ) ) ;
#367 = ORIENTED_EDGE ( 'NONE', *, *, #137, .F. ) ;
#368 = APPLICATION_PROTOCOL_DEFINITION ( 'draft international standard', 'automotive_design', 1998, #310 ) ;
#369 = VERTEX_POINT ( 'NONE', #264 ) ;
#370 = EDGE_CURVE ( 'NONE', #237, #242, #224, .T. ) ;
#371 = CARTESIAN_POINT ( 'NONE',  ( 0.01968303149999999294, 2.410476152399151743E-18, 0.0000000000000000000 ) ) ;
#372 = AXIS2_PLACEMENT_3D ( 'NONE', #119, #233, #352 ) ;
#373 = SURFACE_STYLE_USAGE ( .BOTH. , #128 ) ;
#374 = EDGE_CURVE ( 'NONE', #120, #369, #343, .T. ) ;
#375 = VECTOR ( 'NONE', #358, 39.37007874015748854 ) ;
#376 = PRODUCT_DEFINITION ( 'UNKNOWN', '', #260, #79 ) ;
#377 = CARTESIAN_POINT ( 'NONE',  ( 0.0000000000000000000, 0.0000000000000000000, 0.03937000000000000222 ) ) ;
#378 = VECTOR ( 'NONE', #103, 39.37007874015748143 ) ;
#379 = ORIENTED_EDGE ( 'NONE', *, *, #246, .T. ) ;
ENDSEC;
END-ISO-10303-21;
