ISO-10303-21;
HEADER;
FILE_DESCRIPTION (( 'STEP AP214' ),
    '1' );
FILE_NAME ('Micro_AECM-1215-4X.STEP',
    '2021-09-03T16:59:58',
    ( '' ),
    ( '' ),
    'SwSTEP 2.0',
    'SolidWorks 2020',
    '' );
FILE_SCHEMA (( 'AUTOMOTIVE_DESIGN' ));
ENDSEC;

DATA;
#1 = DIRECTION ( 'NONE',  ( 0.0000000000000000000, 0.0000000000000000000, 1.000000000000000000 ) ) ;
#2 = AXIS2_PLACEMENT_3D ( 'NONE', #278, #258, #339 ) ;
#3 = DIRECTION ( 'NONE',  ( -1.000000000000000000, 0.0000000000000000000, 0.0000000000000000000 ) ) ;
#4 = CARTESIAN_POINT ( 'NONE',  ( 0.0000000000000000000, 0.0000000000000000000, 3.252717000000002301 ) ) ;
#5 = DIRECTION ( 'NONE',  ( 0.0000000000000000000, 0.0000000000000000000, -1.000000000000000000 ) ) ;
#6 = CARTESIAN_POINT ( 'NONE',  ( 1.446432783766537492E-16, 0.0000000000000000000, 1.181102000000000096 ) ) ;
#7 = CONICAL_SURFACE ( 'NONE', #220, 0.2212205000000019295, 0.7853981633974482790 ) ;
#8 = AXIS2_PLACEMENT_3D ( 'NONE', #187, #52, #161 ) ;
#9 = DIRECTION ( 'NONE',  ( 0.1736481776669313026, 0.0000000000000000000, 0.9848077530122077983 ) ) ;
#10 = ORIENTED_EDGE ( 'NONE', *, *, #47, .F. ) ;
#11 = EDGE_CURVE ( 'NONE', #141, #199, #77, .T. ) ;
#12 = ORIENTED_EDGE ( 'NONE', *, *, #53, .T. ) ;
#13 = UNCERTAINTY_MEASURE_WITH_UNIT (LENGTH_MEASURE( 1.000000000000000082E-05 ), #103, 'distance_accuracy_value', 'NONE');
#14 = ORIENTED_EDGE ( 'NONE', *, *, #114, .T. ) ;
#15 = DIRECTION ( 'NONE',  ( -1.000000000000000000, 0.0000000000000000000, 0.0000000000000000000 ) ) ;
#16 = ORIENTED_EDGE ( 'NONE', *, *, #101, .T. ) ;
#17 = ORIENTED_EDGE ( 'NONE', *, *, #120, .F. ) ;
#18 = CIRCLE ( 'NONE', #80, 0.05905500000000001720 ) ;
#19 = EDGE_CURVE ( 'NONE', #283, #179, #130, .T. ) ;
#20 = AXIS2_PLACEMENT_3D ( 'NONE', #99, #208, #105 ) ;
#21 = PRODUCT ( 'Micro_AECM-1215-4X', 'Micro_AECM-1215-4X', '', ( #209 ) ) ;
#22 = PRESENTATION_STYLE_ASSIGNMENT (( #48 ) ) ;
#23 = CARTESIAN_POINT ( 'NONE',  ( 0.0000000000000000000, 0.0000000000000000000, 0.0000000000000000000 ) ) ;
#24 = ADVANCED_FACE ( 'NONE', ( #156 ), #189, .T. ) ;
#25 = ORIENTED_EDGE ( 'NONE', *, *, #98, .F. ) ;
#26 =( LENGTH_UNIT ( ) NAMED_UNIT ( * ) SI_UNIT ( $, .METRE. ) );
#27 = DIRECTION ( 'NONE',  ( 1.000000000000000000, 0.0000000000000000000, 0.0000000000000000000 ) ) ;
#28 = CARTESIAN_POINT ( 'NONE',  ( 0.2362204999999999999, 2.892866792179872647E-17, 3.267717000000000649 ) ) ;
#29 = COLOUR_RGB ( '',0.7921568627450980005, 0.8196078431372548767, 0.9333333333333333481 ) ;
#30 = CARTESIAN_POINT ( 'NONE',  ( -0.2362204999999999999, 0.0000000000000000000, 3.252717000000002301 ) ) ;
#31 = FACE_OUTER_BOUND ( 'NONE', #90, .T. ) ;
#32 = DIRECTION ( 'NONE',  ( -0.0000000000000000000, -0.0000000000000000000, -1.000000000000000000 ) ) ;
#33 = AXIS2_PLACEMENT_3D ( 'NONE', #6, #86, #107 ) ;
#34 = MANIFOLD_SOLID_BREP ( 'Fillet1', #249 ) ;
#35 = DIRECTION ( 'NONE',  ( 0.0000000000000000000, 0.0000000000000000000, -1.000000000000000000 ) ) ;
#36 = EDGE_CURVE ( 'NONE', #290, #69, #18, .T. ) ;
#37 = ORIENTED_EDGE ( 'NONE', *, *, #139, .T. ) ;
#38 = APPLICATION_PROTOCOL_DEFINITION ( 'draft international standard', 'automotive_design', 1998, #297 ) ;
#39 = ORIENTED_EDGE ( 'NONE', *, *, #11, .T. ) ;
#40 = DIRECTION ( 'NONE',  ( -1.000000000000000000, 0.0000000000000000000, 0.0000000000000000000 ) ) ;
#41 = EDGE_LOOP ( 'NONE', ( #147, #148, #180, #288 ) ) ;
#42 =( CONVERSION_BASED_UNIT ( 'INCH', #287 ) LENGTH_UNIT ( ) NAMED_UNIT ( #350 ) );
#43 = ORIENTED_EDGE ( 'NONE', *, *, #62, .F. ) ;
#44 = ORIENTED_EDGE ( 'NONE', *, *, #11, .F. ) ;
#45 = PRODUCT_DEFINITION_FORMATION_WITH_SPECIFIED_SOURCE ( 'ANY', '', #21, .NOT_KNOWN. ) ;
#46 = SURFACE_STYLE_FILL_AREA ( #348 ) ;
#47 = EDGE_CURVE ( 'NONE', #225, #283, #127, .T. ) ;
#48 = SURFACE_STYLE_USAGE ( .BOTH. , #263 ) ;
#49 = AXIS2_PLACEMENT_3D ( 'NONE', #78, #215, #321 ) ;
#50 = SURFACE_STYLE_USAGE ( .BOTH. , #181 ) ;
#51 = AXIS2_PLACEMENT_3D ( 'NONE', #246, #32, #83 ) ;
#52 = DIRECTION ( 'NONE',  ( -1.224646799147353454E-16, -0.0000000000000000000, -1.000000000000000000 ) ) ;
#53 = EDGE_CURVE ( 'NONE', #281, #199, #341, .T. ) ;
#54 = EDGE_LOOP ( 'NONE', ( #291, #89, #91, #117 ) ) ;
#55 = DIRECTION ( 'NONE',  ( -0.7071067811865474617, 0.0000000000000000000, -0.7071067811865474617 ) ) ;
#56 = DIRECTION ( 'NONE',  ( 0.0000000000000000000, 0.0000000000000000000, 1.000000000000000000 ) ) ;
#57 = CIRCLE ( 'NONE', #102, 0.2359842794999999771 ) ;
#58 = ADVANCED_FACE ( 'NONE', ( #155 ), #71, .T. ) ;
#59 = CARTESIAN_POINT ( 'NONE',  ( 1.446432783766537492E-16, 0.0000000000000000000, 1.181102000000000096 ) ) ;
#60 = FACE_OUTER_BOUND ( 'NONE', #200, .T. ) ;
#61 =( NAMED_UNIT ( * ) SI_UNIT ( $, .STERADIAN. ) SOLID_ANGLE_UNIT ( ) );
#62 = EDGE_CURVE ( 'NONE', #199, #281, #151, .T. ) ;
#63 = DIRECTION ( 'NONE',  ( 1.000000000000000000, 0.0000000000000000000, 0.0000000000000000000 ) ) ;
#64 = EDGE_LOOP ( 'NONE', ( #338, #125, #43, #336 ) ) ;
#65 = CARTESIAN_POINT ( 'NONE',  ( 0.2359842795000001159, 0.0000000000000000000, 1.181102000000000096 ) ) ;
#66 = ORIENTED_EDGE ( 'NONE', *, *, #275, .F. ) ;
#67 = VECTOR ( 'NONE', #100, 39.37007874015747433 ) ;
#68 =( LENGTH_UNIT ( ) NAMED_UNIT ( * ) SI_UNIT ( $, .METRE. ) );
#69 = VERTEX_POINT ( 'NONE', #324 ) ;
#70 = AXIS2_PLACEMENT_3D ( 'NONE', #23, #317, #262 ) ;
#71 = TOROIDAL_SURFACE ( 'NONE', #49, 0.1769292794999999530, 0.05905500000000000332 ) ;
#72 = CYLINDRICAL_SURFACE ( 'NONE', #95, 0.2362204999999999999 ) ;
#73 = EDGE_LOOP ( 'NONE', ( #150, #250, #66, #206 ) ) ;
#74 = EDGE_LOOP ( 'NONE', ( #119, #228, #234, #315 ) ) ;
#75 = STYLED_ITEM ( 'NONE', ( #184 ), #277 ) ;
#76 = ORIENTED_EDGE ( 'NONE', *, *, #101, .F. ) ;
#77 = LINE ( 'NONE', #292, #67 ) ;
#78 = CARTESIAN_POINT ( 'NONE',  ( 7.232151672364696963E-18, 0.0000000000000000000, 0.05905500000000000332 ) ) ;
#79 = AXIS2_PLACEMENT_3D ( 'NONE', #301, #56, #231 ) ;
#80 = AXIS2_PLACEMENT_3D ( 'NONE', #212, #104, #346 ) ;
#81 = ADVANCED_FACE ( 'NONE', ( #264 ), #182, .T. ) ;
#82 = CARTESIAN_POINT ( 'NONE',  ( -0.2212205000000019295, 0.0000000000000000000, 3.267717000000000649 ) ) ;
#83 = DIRECTION ( 'NONE',  ( -1.000000000000000000, 0.0000000000000000000, 0.0000000000000000000 ) ) ;
#84 = AXIS2_PLACEMENT_3D ( 'NONE', #4, #5, #217 ) ;
#85 = LINE ( 'NONE', #305, #274 ) ;
#86 = DIRECTION ( 'NONE',  ( -1.224646799147353454E-16, -0.0000000000000000000, -1.000000000000000000 ) ) ;
#87 = DIRECTION ( 'NONE',  ( 1.224646799147353454E-16, 0.0000000000000000000, 1.000000000000000000 ) ) ;
#88 = CARTESIAN_POINT ( 'NONE',  ( 0.2359842794999999771, 2.889973925387693713E-17, 0.05905500000000001720 ) ) ;
#89 = ORIENTED_EDGE ( 'NONE', *, *, #343, .F. ) ;
#90 = EDGE_LOOP ( 'NONE', ( #44, #17, #14, #12 ) ) ;
#91 = ORIENTED_EDGE ( 'NONE', *, *, #133, .T. ) ;
#92 = DIRECTION ( 'NONE',  ( 0.0000000000000000000, 0.0000000000000000000, 1.000000000000000000 ) ) ;
#93 = STYLED_ITEM ( 'NONE', ( #22 ), #34 ) ;
#94 = VERTEX_POINT ( 'NONE', #30 ) ;
#95 = AXIS2_PLACEMENT_3D ( 'NONE', #178, #229, #40 ) ;
#96 = DIRECTION ( 'NONE',  ( -0.0000000000000000000, -0.0000000000000000000, -1.000000000000000000 ) ) ;
#97 = ORIENTED_EDGE ( 'NONE', *, *, #62, .T. ) ;
#98 = EDGE_CURVE ( 'NONE', #141, #335, #245, .T. ) ;
#99 = CARTESIAN_POINT ( 'NONE',  ( 1.448073410051044337E-16, 0.0000000000000000000, 1.182441673027071261 ) ) ;
#100 = DIRECTION ( 'NONE',  ( -0.1736481776669311083, 2.126576849575782084E-17, 0.9848077530122080203 ) ) ;
#101 = EDGE_CURVE ( 'NONE', #141, #69, #85, .T. ) ;
#102 = AXIS2_PLACEMENT_3D ( 'NONE', #59, #333, #330 ) ;
#103 =( CONVERSION_BASED_UNIT ( 'INCH', #238 ) LENGTH_UNIT ( ) NAMED_UNIT ( #323 ) );
#104 = DIRECTION ( 'NONE',  ( 1.224646799147353207E-16, 1.000000000000000000, -0.0000000000000000000 ) ) ;
#105 = DIRECTION ( 'NONE',  ( 1.000000000000000000, 0.0000000000000000000, 0.0000000000000000000 ) ) ;
#106 = DIRECTION ( 'NONE',  ( 1.000000000000000000, 0.0000000000000000000, -0.0000000000000000000 ) ) ;
#107 = DIRECTION ( 'NONE',  ( -1.000000000000000000, 0.0000000000000000000, 0.0000000000000000000 ) ) ;
#108 = LINE ( 'NONE', #163, #211 ) ;
#109 = FACE_OUTER_BOUND ( 'NONE', #41, .T. ) ;
#110 = AXIS2_PLACEMENT_3D ( 'NONE', #132, #272, #304 ) ;
#111 = PRODUCT_DEFINITION_CONTEXT ( 'detailed design', #153, 'design' ) ;
#112 = ADVANCED_FACE ( 'NONE', ( #60 ), #268, .T. ) ;
#113 = DIRECTION ( 'NONE',  ( 0.0000000000000000000, 0.0000000000000000000, 1.000000000000000000 ) ) ;
#114 = EDGE_CURVE ( 'NONE', #335, #281, #108, .T. ) ;
#115 = EDGE_LOOP ( 'NONE', ( #25, #39, #97, #170 ) ) ;
#116 = CONICAL_SURFACE ( 'NONE', #157, 0.2359842794999999771, 0.1745329251994338082 ) ;
#117 = ORIENTED_EDGE ( 'NONE', *, *, #164, .F. ) ;
#118 = SURFACE_STYLE_FILL_AREA ( #282 ) ;
#119 = ORIENTED_EDGE ( 'NONE', *, *, #300, .F. ) ;
#120 = EDGE_CURVE ( 'NONE', #335, #141, #57, .T. ) ;
#121 = CARTESIAN_POINT ( 'NONE',  ( 0.1769292794999999530, 0.0000000000000000000, 0.0000000000000000000 ) ) ;
#122 = EDGE_LOOP ( 'NONE', ( #253, #322, #313, #76 ) ) ;
#123 = EDGE_CURVE ( 'NONE', #179, #281, #273, .T. ) ;
#124 = DIRECTION ( 'NONE',  ( -0.0000000000000000000, -0.0000000000000000000, -1.000000000000000000 ) ) ;
#125 = ORIENTED_EDGE ( 'NONE', *, *, #123, .T. ) ;
#126 = CIRCLE ( 'NONE', #188, 0.1769292794999999530 ) ;
#127 = CIRCLE ( 'NONE', #168, 0.2212205000000019295 ) ;
#128 = APPLICATION_PROTOCOL_DEFINITION ( 'draft international standard', 'automotive_design', 1998, #153 ) ;
#129 =( NAMED_UNIT ( * ) PLANE_ANGLE_UNIT ( ) SI_UNIT ( $, .RADIAN. ) );
#130 = LINE ( 'NONE', #236, #176 ) ;
#131 = CARTESIAN_POINT ( 'NONE',  ( 0.0000000000000000000, 0.0000000000000000000, 0.0000000000000000000 ) ) ;
#132 = CARTESIAN_POINT ( 'NONE',  ( 0.0000000000000000000, 0.0000000000000000000, 3.267717000000000649 ) ) ;
#133 = EDGE_CURVE ( 'NONE', #340, #296, #239, .T. ) ;
#134 = CARTESIAN_POINT ( 'NONE',  ( 0.1769292794999999530, 0.0000000000000000000, 0.05905500000000000332 ) ) ;
#135 = CARTESIAN_POINT ( 'NONE',  ( -0.2362204999999998611, 0.0000000000000000000, 1.182441673027071261 ) ) ;
#136 = CARTESIAN_POINT ( 'NONE',  ( 0.2362204999999999999, 2.892866792179872647E-17, 3.252717000000002301 ) ) ;
#137 = AXIS2_PLACEMENT_3D ( 'NONE', #145, #92, #63 ) ;
#138 = CARTESIAN_POINT ( 'NONE',  ( -0.2359842794999998383, 2.891420358783783796E-17, 1.181102000000000096 ) ) ;
#139 = EDGE_CURVE ( 'NONE', #283, #225, #193, .T. ) ;
#140 =( NAMED_UNIT ( * ) PLANE_ANGLE_UNIT ( ) SI_UNIT ( $, .RADIAN. ) );
#141 = VERTEX_POINT ( 'NONE', #138 ) ;
#142 = CARTESIAN_POINT ( 'NONE',  ( 0.2212205000000019295, 2.801018282243833685E-17, 3.267717000000000649 ) ) ;
#143 = AXIS2_PLACEMENT_3D ( 'NONE', #134, #241, #194 ) ;
#144 = EDGE_LOOP ( 'NONE', ( #257, #10, #204, #311 ) ) ;
#145 = CARTESIAN_POINT ( 'NONE',  ( 7.232151672364696963E-18, 0.0000000000000000000, 0.05905500000000000332 ) ) ;
#146 = ADVANCED_FACE ( 'NONE', ( #109 ), #242, .T. ) ;
#147 = ORIENTED_EDGE ( 'NONE', *, *, #123, .F. ) ;
#148 = ORIENTED_EDGE ( 'NONE', *, *, #221, .T. ) ;
#149 = AXIS2_PLACEMENT_3D ( 'NONE', #269, #87, #196 ) ;
#150 = ORIENTED_EDGE ( 'NONE', *, *, #139, .F. ) ;
#151 = CIRCLE ( 'NONE', #251, 0.2362204999999999999 ) ;
#152 =( NAMED_UNIT ( * ) PLANE_ANGLE_UNIT ( ) SI_UNIT ( $, .RADIAN. ) );
#153 = APPLICATION_CONTEXT ( 'automotive_design' ) ;
#154 = ORIENTED_EDGE ( 'NONE', *, *, #343, .T. ) ;
#155 = FACE_OUTER_BOUND ( 'NONE', #54, .T. ) ;
#156 = FACE_OUTER_BOUND ( 'NONE', #266, .T. ) ;
#157 = AXIS2_PLACEMENT_3D ( 'NONE', #243, #222, #329 ) ;
#158 = MECHANICAL_DESIGN_GEOMETRIC_PRESENTATION_REPRESENTATION (  '', ( #93 ), #307 ) ;
#159 = CARTESIAN_POINT ( 'NONE',  ( 0.0000000000000000000, 0.0000000000000000000, 3.267717000000000649 ) ) ;
#160 = DIRECTION ( 'NONE',  ( 0.0000000000000000000, 0.0000000000000000000, 1.000000000000000000 ) ) ;
#161 = DIRECTION ( 'NONE',  ( -1.000000000000000000, 0.0000000000000000000, 1.224646799147353454E-16 ) ) ;
#162 = DIRECTION ( 'NONE',  ( -0.0000000000000000000, -0.0000000000000000000, -1.000000000000000000 ) ) ;
#163 = CARTESIAN_POINT ( 'NONE',  ( 0.2359842795000001159, 0.0000000000000000000, 1.181102000000000096 ) ) ;
#164 = EDGE_CURVE ( 'NONE', #69, #296, #203, .T. ) ;
#165 = AXIS2_PLACEMENT_3D ( 'NONE', #219, #160, #106 ) ;
#166 = CONICAL_SURFACE ( 'NONE', #149, 0.2359842794999999771, 0.1745329251994338082 ) ;
#167 = DIRECTION ( 'NONE',  ( 1.000000000000000000, 0.0000000000000000000, 0.0000000000000000000 ) ) ;
#168 = AXIS2_PLACEMENT_3D ( 'NONE', #185, #1, #213 ) ;
#169 = DIRECTION ( 'NONE',  ( 1.000000000000000000, 0.0000000000000000000, 0.0000000000000000000 ) ) ;
#170 = ORIENTED_EDGE ( 'NONE', *, *, #114, .F. ) ;
#171 = FILL_AREA_STYLE_COLOUR ( '', #29 ) ;
#172 = ORIENTED_EDGE ( 'NONE', *, *, #300, .T. ) ;
#173 = UNCERTAINTY_MEASURE_WITH_UNIT (LENGTH_MEASURE( 1.000000000000000082E-05 ), #320, 'distance_accuracy_value', 'NONE');
#174 = PRESENTATION_LAYER_ASSIGNMENT (  '', '', ( #75 ) ) ;
#175 = DIRECTION ( 'NONE',  ( 1.000000000000000000, 0.0000000000000000000, 0.0000000000000000000 ) ) ;
#176 = VECTOR ( 'NONE', #183, 39.37007874015748854 ) ;
#177 = ORIENTED_EDGE ( 'NONE', *, *, #47, .T. ) ;
#178 = CARTESIAN_POINT ( 'NONE',  ( 0.0000000000000000000, 0.0000000000000000000, 3.267717000000000649 ) ) ;
#179 = VERTEX_POINT ( 'NONE', #136 ) ;
#180 = ORIENTED_EDGE ( 'NONE', *, *, #314, .T. ) ;
#181 = SURFACE_SIDE_STYLE ('',( #118 ) ) ;
#182 = CYLINDRICAL_SURFACE ( 'NONE', #8, 0.2359842794999999771 ) ;
#183 = DIRECTION ( 'NONE',  ( 0.7071067811865474617, 8.659560562354932858E-17, -0.7071067811865474617 ) ) ;
#184 = PRESENTATION_STYLE_ASSIGNMENT (( #50 ) ) ;
#185 = CARTESIAN_POINT ( 'NONE',  ( 0.0000000000000000000, 0.0000000000000000000, 3.267717000000000649 ) ) ;
#186 = SHAPE_DEFINITION_REPRESENTATION ( #316, #277 ) ;
#187 = CARTESIAN_POINT ( 'NONE',  ( 0.0000000000000000000, 0.0000000000000000000, 0.0000000000000000000 ) ) ;
#188 = AXIS2_PLACEMENT_3D ( 'NONE', #198, #124, #169 ) ;
#189 = CYLINDRICAL_SURFACE ( 'NONE', #332, 0.2359842794999999771 ) ;
#190 = LINE ( 'NONE', #299, #342 ) ;
#191 = ADVANCED_FACE ( 'NONE', ( #31 ), #116, .T. ) ;
#192 = PLANE ( 'NONE',  #79 ) ;
#193 = CIRCLE ( 'NONE', #110, 0.2212205000000019295 ) ;
#194 = DIRECTION ( 'NONE',  ( 0.0000000000000000000, 0.0000000000000000000, -1.000000000000000000 ) ) ;
#195 = DIRECTION ( 'NONE',  ( -1.224646799147353454E-16, -0.0000000000000000000, -1.000000000000000000 ) ) ;
#196 = DIRECTION ( 'NONE',  ( 1.000000000000000000, 0.0000000000000000000, 0.0000000000000000000 ) ) ;
#197 = AXIS2_PLACEMENT_3D ( 'NONE', #227, #248, #167 ) ;
#198 = CARTESIAN_POINT ( 'NONE',  ( 7.232151672364696963E-18, 0.0000000000000000000, 0.0000000000000000000 ) ) ;
#199 = VERTEX_POINT ( 'NONE', #135 ) ;
#200 = EDGE_LOOP ( 'NONE', ( #177, #37 ) ) ;
#201 = CARTESIAN_POINT ( 'NONE',  ( -0.1769292794999999530, 2.528366341769458480E-17, 0.0000000000000000000 ) ) ;
#202 = DIRECTION ( 'NONE',  ( 0.0000000000000000000, 0.0000000000000000000, -1.000000000000000000 ) ) ;
#203 = CIRCLE ( 'NONE', #284, 0.2359842794999999771 ) ;
#204 = ORIENTED_EDGE ( 'NONE', *, *, #235, .T. ) ;
#205 = ADVANCED_FACE ( 'NONE', ( #223 ), #166, .T. ) ;
#206 = ORIENTED_EDGE ( 'NONE', *, *, #235, .F. ) ;
#207 = LENGTH_MEASURE_WITH_UNIT ( LENGTH_MEASURE( 0.02539999999999999897 ), #237 );
#208 = DIRECTION ( 'NONE',  ( -1.224646799147353454E-16, -0.0000000000000000000, -1.000000000000000000 ) ) ;
#209 = PRODUCT_CONTEXT ( 'NONE', #297, 'mechanical' ) ;
#210 = CIRCLE ( 'NONE', #265, 0.2362204999999999999 ) ;
#211 = VECTOR ( 'NONE', #9, 39.37007874015748143 ) ;
#212 = CARTESIAN_POINT ( 'NONE',  ( -0.1769292794999999530, 2.166758758151223863E-17, 0.05905500000000000332 ) ) ;
#213 = DIRECTION ( 'NONE',  ( 1.000000000000000000, 0.0000000000000000000, 0.0000000000000000000 ) ) ;
#214 = ADVANCED_FACE ( 'NONE', ( #306 ), #226, .T. ) ;
#215 = DIRECTION ( 'NONE',  ( 0.0000000000000000000, 0.0000000000000000000, 1.000000000000000000 ) ) ;
#216 = MECHANICAL_DESIGN_GEOMETRIC_PRESENTATION_REPRESENTATION (  '', ( #75 ), #261 ) ;
#217 = DIRECTION ( 'NONE',  ( 1.000000000000000000, 0.0000000000000000000, 0.0000000000000000000 ) ) ;
#218 = FACE_OUTER_BOUND ( 'NONE', #230, .T. ) ;
#219 = CARTESIAN_POINT ( 'NONE',  ( 0.0000000000000000000, 0.0000000000000000000, 3.267717000000000649 ) ) ;
#220 = AXIS2_PLACEMENT_3D ( 'NONE', #256, #35, #15 ) ;
#221 = EDGE_CURVE ( 'NONE', #179, #94, #270, .T. ) ;
#222 = DIRECTION ( 'NONE',  ( 1.224646799147353454E-16, 0.0000000000000000000, 1.000000000000000000 ) ) ;
#223 = FACE_OUTER_BOUND ( 'NONE', #115, .T. ) ;
#224 = CARTESIAN_POINT ( 'NONE',  ( 0.0000000000000000000, 0.0000000000000000000, 3.252717000000002301 ) ) ;
#225 = VERTEX_POINT ( 'NONE', #82 ) ;
#226 = CONICAL_SURFACE ( 'NONE', #276, 0.2212205000000019295, 0.7853981633974482790 ) ;
#227 = CARTESIAN_POINT ( 'NONE',  ( 7.232151672364696963E-18, 0.0000000000000000000, 0.0000000000000000000 ) ) ;
#228 = ORIENTED_EDGE ( 'NONE', *, *, #36, .T. ) ;
#229 = DIRECTION ( 'NONE',  ( -0.0000000000000000000, -0.0000000000000000000, -1.000000000000000000 ) ) ;
#230 = EDGE_LOOP ( 'NONE', ( #154, #172 ) ) ;
#231 = DIRECTION ( 'NONE',  ( 1.000000000000000000, 0.0000000000000000000, -0.0000000000000000000 ) ) ;
#232 = ORIENTED_EDGE ( 'NONE', *, *, #164, .T. ) ;
#233 = CARTESIAN_POINT ( 'NONE',  ( 0.2362205000000001665, 2.892866792179874496E-17, 1.182441673027071261 ) ) ;
#234 = ORIENTED_EDGE ( 'NONE', *, *, #279, .F. ) ;
#235 = EDGE_CURVE ( 'NONE', #225, #94, #190, .T. ) ;
#236 = CARTESIAN_POINT ( 'NONE',  ( 0.2212205000000019295, 2.709169772307794108E-17, 3.267717000000000649 ) ) ;
#237 =( LENGTH_UNIT ( ) NAMED_UNIT ( * ) SI_UNIT ( $, .METRE. ) );
#238 = LENGTH_MEASURE_WITH_UNIT ( LENGTH_MEASURE( 0.02539999999999999897 ), #26 );
#239 = CIRCLE ( 'NONE', #143, 0.05905500000000000332 ) ;
#240 = DIRECTION ( 'NONE',  ( 0.0000000000000000000, 0.0000000000000000000, -1.000000000000000000 ) ) ;
#241 = DIRECTION ( 'NONE',  ( 0.0000000000000000000, -1.000000000000000000, 0.0000000000000000000 ) ) ;
#242 = CYLINDRICAL_SURFACE ( 'NONE', #51, 0.2362204999999999999 ) ;
#243 = CARTESIAN_POINT ( 'NONE',  ( 1.446432783766537492E-16, 0.0000000000000000000, 1.181102000000000096 ) ) ;
#244 = ADVANCED_FACE ( 'NONE', ( #218 ), #192, .F. ) ;
#245 = CIRCLE ( 'NONE', #33, 0.2359842794999999771 ) ;
#246 = CARTESIAN_POINT ( 'NONE',  ( 0.0000000000000000000, 0.0000000000000000000, 3.267717000000000649 ) ) ;
#247 = ADVANCED_FACE ( 'NONE', ( #334 ), #72, .T. ) ;
#248 = DIRECTION ( 'NONE',  ( -0.0000000000000000000, -0.0000000000000000000, -1.000000000000000000 ) ) ;
#249 = CLOSED_SHELL ( 'NONE', ( #328, #81, #205, #286, #247, #146, #112, #214, #191, #24, #244, #58 ) ) ;
#250 = ORIENTED_EDGE ( 'NONE', *, *, #19, .T. ) ;
#251 = AXIS2_PLACEMENT_3D ( 'NONE', #293, #318, #27 ) ;
#252 = DIRECTION ( 'NONE',  ( -1.224646799147353454E-16, -0.0000000000000000000, -1.000000000000000000 ) ) ;
#253 = ORIENTED_EDGE ( 'NONE', *, *, #98, .T. ) ;
#254 = UNCERTAINTY_MEASURE_WITH_UNIT (LENGTH_MEASURE( 1.000000000000000082E-05 ), #42, 'distance_accuracy_value', 'NONE');
#255 = DIMENSIONAL_EXPONENTS ( 1.000000000000000000, 0.0000000000000000000, 0.0000000000000000000, 0.0000000000000000000, 0.0000000000000000000, 0.0000000000000000000, 0.0000000000000000000 ) ;
#256 = CARTESIAN_POINT ( 'NONE',  ( 0.0000000000000000000, 0.0000000000000000000, 3.267717000000000649 ) ) ;
#257 = ORIENTED_EDGE ( 'NONE', *, *, #19, .F. ) ;
#258 = DIRECTION ( 'NONE',  ( 0.0000000000000000000, 0.0000000000000000000, 1.000000000000000000 ) ) ;
#259 = PRODUCT_DEFINITION ( 'UNKNOWN', '', #45, #111 ) ;
#260 = CIRCLE ( 'NONE', #2, 0.2359842794999999771 ) ;
#261 =( GEOMETRIC_REPRESENTATION_CONTEXT ( 3 ) GLOBAL_UNCERTAINTY_ASSIGNED_CONTEXT ( ( #173 ) ) GLOBAL_UNIT_ASSIGNED_CONTEXT ( ( #320, #152, #351 ) ) REPRESENTATION_CONTEXT ( 'NONE', 'WORKASPACE' ) );
#262 = DIRECTION ( 'NONE',  ( 1.000000000000000000, 0.0000000000000000000, 0.0000000000000000000 ) ) ;
#263 = SURFACE_SIDE_STYLE ('',( #46 ) ) ;
#264 = FACE_OUTER_BOUND ( 'NONE', #122, .T. ) ;
#265 = AXIS2_PLACEMENT_3D ( 'NONE', #224, #202, #175 ) ;
#266 = EDGE_LOOP ( 'NONE', ( #308, #345, #16, #232 ) ) ;
#267 = COLOUR_RGB ( '',0.7921568627450980005, 0.8196078431372548767, 0.9333333333333333481 ) ;
#268 = PLANE ( 'NONE',  #165 ) ;
#269 = CARTESIAN_POINT ( 'NONE',  ( 1.446432783766537492E-16, 0.0000000000000000000, 1.181102000000000096 ) ) ;
#270 = CIRCLE ( 'NONE', #84, 0.2362204999999999999 ) ;
#271 = DIRECTION ( 'NONE',  ( 1.000000000000000000, 0.0000000000000000000, 0.0000000000000000000 ) ) ;
#272 = DIRECTION ( 'NONE',  ( 0.0000000000000000000, 0.0000000000000000000, 1.000000000000000000 ) ) ;
#273 = LINE ( 'NONE', #28, #303 ) ;
#274 = VECTOR ( 'NONE', #195, 39.37007874015748143 ) ;
#275 = EDGE_CURVE ( 'NONE', #94, #179, #210, .T. ) ;
#276 = AXIS2_PLACEMENT_3D ( 'NONE', #159, #240, #3 ) ;
#277 = ADVANCED_BREP_SHAPE_REPRESENTATION ( 'Micro_AECM-1215-4X', ( #34, #70 ), #302 ) ;
#278 = CARTESIAN_POINT ( 'NONE',  ( 7.232151672364698504E-18, 0.0000000000000000000, 0.05905500000000001720 ) ) ;
#279 = EDGE_CURVE ( 'NONE', #296, #69, #260, .T. ) ;
#280 = CARTESIAN_POINT ( 'NONE',  ( -0.2362204999999999999, 0.0000000000000000000, 3.267717000000000649 ) ) ;
#281 = VERTEX_POINT ( 'NONE', #233 ) ;
#282 = FILL_AREA_STYLE ('',( #171 ) ) ;
#283 = VERTEX_POINT ( 'NONE', #142 ) ;
#284 = AXIS2_PLACEMENT_3D ( 'NONE', #327, #113, #271 ) ;
#285 = PRESENTATION_LAYER_ASSIGNMENT (  '', '', ( #93 ) ) ;
#286 = ADVANCED_FACE ( 'NONE', ( #309 ), #7, .T. ) ;
#287 = LENGTH_MEASURE_WITH_UNIT ( LENGTH_MEASURE( 0.02539999999999999897 ), #68 );
#288 = ORIENTED_EDGE ( 'NONE', *, *, #53, .F. ) ;
#289 = PRODUCT_RELATED_PRODUCT_CATEGORY ( 'part', '', ( #21 ) ) ;
#290 = VERTEX_POINT ( 'NONE', #201 ) ;
#291 = ORIENTED_EDGE ( 'NONE', *, *, #36, .F. ) ;
#292 = CARTESIAN_POINT ( 'NONE',  ( -0.2359842794999998383, 2.889973925387693713E-17, 1.181102000000000096 ) ) ;
#293 = CARTESIAN_POINT ( 'NONE',  ( 1.448073410051044337E-16, 0.0000000000000000000, 1.182441673027071261 ) ) ;
#294 = DIRECTION ( 'NONE',  ( -1.000000000000000000, 0.0000000000000000000, 1.224646799147353454E-16 ) ) ;
#295 = VECTOR ( 'NONE', #96, 39.37007874015748143 ) ;
#296 = VERTEX_POINT ( 'NONE', #88 ) ;
#297 = APPLICATION_CONTEXT ( 'automotive_design' ) ;
#298 = FILL_AREA_STYLE_COLOUR ( '', #267 ) ;
#299 = CARTESIAN_POINT ( 'NONE',  ( -0.2212205000000019295, 0.0000000000000000000, 3.267717000000000649 ) ) ;
#300 = EDGE_CURVE ( 'NONE', #290, #340, #126, .T. ) ;
#301 = CARTESIAN_POINT ( 'NONE',  ( 0.0000000000000000000, 0.0000000000000000000, 0.0000000000000000000 ) ) ;
#302 =( GEOMETRIC_REPRESENTATION_CONTEXT ( 3 ) GLOBAL_UNCERTAINTY_ASSIGNED_CONTEXT ( ( #254 ) ) GLOBAL_UNIT_ASSIGNED_CONTEXT ( ( #42, #140, #61 ) ) REPRESENTATION_CONTEXT ( 'NONE', 'WORKASPACE' ) );
#303 = VECTOR ( 'NONE', #162, 39.37007874015748143 ) ;
#304 = DIRECTION ( 'NONE',  ( 1.000000000000000000, 0.0000000000000000000, 0.0000000000000000000 ) ) ;
#305 = CARTESIAN_POINT ( 'NONE',  ( -0.2359842794999999771, 0.0000000000000000000, 2.889973925387693713E-17 ) ) ;
#306 = FACE_OUTER_BOUND ( 'NONE', #144, .T. ) ;
#307 =( GEOMETRIC_REPRESENTATION_CONTEXT ( 3 ) GLOBAL_UNCERTAINTY_ASSIGNED_CONTEXT ( ( #13 ) ) GLOBAL_UNIT_ASSIGNED_CONTEXT ( ( #103, #129, #347 ) ) REPRESENTATION_CONTEXT ( 'NONE', 'WORKASPACE' ) );
#308 = ORIENTED_EDGE ( 'NONE', *, *, #349, .F. ) ;
#309 = FACE_OUTER_BOUND ( 'NONE', #73, .T. ) ;
#310 = FACE_OUTER_BOUND ( 'NONE', #74, .T. ) ;
#311 = ORIENTED_EDGE ( 'NONE', *, *, #221, .F. ) ;
#312 = LINE ( 'NONE', #337, #319 ) ;
#313 = ORIENTED_EDGE ( 'NONE', *, *, #279, .T. ) ;
#314 = EDGE_CURVE ( 'NONE', #94, #199, #344, .T. ) ;
#315 = ORIENTED_EDGE ( 'NONE', *, *, #133, .F. ) ;
#316 = PRODUCT_DEFINITION_SHAPE ( 'NONE', 'NONE',  #259 ) ;
#317 = DIRECTION ( 'NONE',  ( 0.0000000000000000000, 0.0000000000000000000, 1.000000000000000000 ) ) ;
#318 = DIRECTION ( 'NONE',  ( -1.224646799147353454E-16, -0.0000000000000000000, -1.000000000000000000 ) ) ;
#319 = VECTOR ( 'NONE', #252, 39.37007874015748143 ) ;
#320 =( CONVERSION_BASED_UNIT ( 'INCH', #207 ) LENGTH_UNIT ( ) NAMED_UNIT ( #255 ) );
#321 = DIRECTION ( 'NONE',  ( 1.000000000000000000, 0.0000000000000000000, 0.0000000000000000000 ) ) ;
#322 = ORIENTED_EDGE ( 'NONE', *, *, #349, .T. ) ;
#323 = DIMENSIONAL_EXPONENTS ( 1.000000000000000000, 0.0000000000000000000, 0.0000000000000000000, 0.0000000000000000000, 0.0000000000000000000, 0.0000000000000000000, 0.0000000000000000000 ) ;
#324 = CARTESIAN_POINT ( 'NONE',  ( -0.2359842794999999771, 0.0000000000000000000, 0.05905500000000001720 ) ) ;
#325 = CIRCLE ( 'NONE', #197, 0.1769292794999999530 ) ;
#326 = DIRECTION ( 'NONE',  ( -1.224646799147353454E-16, -0.0000000000000000000, -1.000000000000000000 ) ) ;
#327 = CARTESIAN_POINT ( 'NONE',  ( 7.232151672364698504E-18, 0.0000000000000000000, 0.05905500000000001720 ) ) ;
#328 = ADVANCED_FACE ( 'NONE', ( #310 ), #331, .T. ) ;
#329 = DIRECTION ( 'NONE',  ( 1.000000000000000000, 0.0000000000000000000, 0.0000000000000000000 ) ) ;
#330 = DIRECTION ( 'NONE',  ( -1.000000000000000000, 0.0000000000000000000, 0.0000000000000000000 ) ) ;
#331 = TOROIDAL_SURFACE ( 'NONE', #137, 0.1769292794999999530, 0.05905500000000000332 ) ;
#332 = AXIS2_PLACEMENT_3D ( 'NONE', #131, #326, #294 ) ;
#333 = DIRECTION ( 'NONE',  ( -1.224646799147353454E-16, -0.0000000000000000000, -1.000000000000000000 ) ) ;
#334 = FACE_OUTER_BOUND ( 'NONE', #64, .T. ) ;
#335 = VERTEX_POINT ( 'NONE', #65 ) ;
#336 = ORIENTED_EDGE ( 'NONE', *, *, #314, .F. ) ;
#337 = CARTESIAN_POINT ( 'NONE',  ( 0.2359842794999999771, 2.889973925387693713E-17, -2.889973925387693713E-17 ) ) ;
#338 = ORIENTED_EDGE ( 'NONE', *, *, #275, .T. ) ;
#339 = DIRECTION ( 'NONE',  ( 1.000000000000000000, 0.0000000000000000000, 0.0000000000000000000 ) ) ;
#340 = VERTEX_POINT ( 'NONE', #121 ) ;
#341 = CIRCLE ( 'NONE', #20, 0.2362204999999999999 ) ;
#342 = VECTOR ( 'NONE', #55, 39.37007874015748854 ) ;
#343 = EDGE_CURVE ( 'NONE', #340, #290, #325, .T. ) ;
#344 = LINE ( 'NONE', #280, #295 ) ;
#345 = ORIENTED_EDGE ( 'NONE', *, *, #120, .T. ) ;
#346 = DIRECTION ( 'NONE',  ( -1.000000000000000000, 1.224646799147352468E-16, 0.0000000000000000000 ) ) ;
#347 =( NAMED_UNIT ( * ) SI_UNIT ( $, .STERADIAN. ) SOLID_ANGLE_UNIT ( ) );
#348 = FILL_AREA_STYLE ('',( #298 ) ) ;
#349 = EDGE_CURVE ( 'NONE', #335, #296, #312, .T. ) ;
#350 = DIMENSIONAL_EXPONENTS ( 1.000000000000000000, 0.0000000000000000000, 0.0000000000000000000, 0.0000000000000000000, 0.0000000000000000000, 0.0000000000000000000, 0.0000000000000000000 ) ;
#351 =( NAMED_UNIT ( * ) SI_UNIT ( $, .STERADIAN. ) SOLID_ANGLE_UNIT ( ) );
ENDSEC;
END-ISO-10303-21;
