ISO-10303-21;
HEADER;
FILE_DESCRIPTION (( 'STEP AP214' ),
    '1' );
FILE_NAME ('Micro_SBMM-080-440X.STEP',
    '2021-09-02T17:19:07',
    ( '' ),
    ( '' ),
    'SwSTEP 2.0',
    'SolidWorks 2020',
    '' );
FILE_SCHEMA (( 'AUTOMOTIVE_DESIGN' ));
ENDSEC;

DATA;
#1 = CARTESIAN_POINT ( 'NONE',  ( -0.1574804999999999955, 0.0000000000000000000, 3.937007999999999619 ) ) ;
#2 = VERTEX_POINT ( 'NONE', #38 ) ;
#3 = CIRCLE ( 'NONE', #78, 0.1574804999999999955 ) ;
#4 = SURFACE_STYLE_FILL_AREA ( #249 ) ;
#5 = APPLICATION_PROTOCOL_DEFINITION ( 'draft international standard', 'automotive_design', 1998, #324 ) ;
#6 = CARTESIAN_POINT ( 'NONE',  ( 0.1424805000000004540, 1.836731392595198898E-17, 3.937007999999999619 ) ) ;
#7 = FILL_AREA_STYLE ('',( #329 ) ) ;
#8 = CARTESIAN_POINT ( 'NONE',  ( 0.0000000000000000000, 0.0000000000000000000, 3.922008000000000827 ) ) ;
#9 = DIMENSIONAL_EXPONENTS ( 1.000000000000000000, 0.0000000000000000000, 0.0000000000000000000, 0.0000000000000000000, 0.0000000000000000000, 0.0000000000000000000, 0.0000000000000000000 ) ;
#10 = AXIS2_PLACEMENT_3D ( 'NONE', #306, #69, #103 ) ;
#11 =( NAMED_UNIT ( * ) SI_UNIT ( $, .STERADIAN. ) SOLID_ANGLE_UNIT ( ) );
#12 = DIRECTION ( 'NONE',  ( 1.000000000000000000, 0.0000000000000000000, 0.0000000000000000000 ) ) ;
#13 = ORIENTED_EDGE ( 'NONE', *, *, #61, .F. ) ;
#14 = CYLINDRICAL_SURFACE ( 'NONE', #10, 0.1574804999999999955 ) ;
#15 = DIMENSIONAL_EXPONENTS ( 1.000000000000000000, 0.0000000000000000000, 0.0000000000000000000, 0.0000000000000000000, 0.0000000000000000000, 0.0000000000000000000, 0.0000000000000000000 ) ;
#16 = CIRCLE ( 'NONE', #180, 0.1062989999999999768 ) ;
#17 = FACE_OUTER_BOUND ( 'NONE', #225, .T. ) ;
#18 = DIRECTION ( 'NONE',  ( 0.0000000000000000000, 0.0000000000000000000, 1.000000000000000000 ) ) ;
#19 = ORIENTED_EDGE ( 'NONE', *, *, #186, .F. ) ;
#20 = DIRECTION ( 'NONE',  ( -1.000000000000000000, 0.0000000000000000000, 0.0000000000000000000 ) ) ;
#21 = ORIENTED_EDGE ( 'NONE', *, *, #221, .F. ) ;
#22 = DIRECTION ( 'NONE',  ( -0.0000000000000000000, -0.0000000000000000000, -1.000000000000000000 ) ) ;
#23 = CONICAL_SURFACE ( 'NONE', #130, 0.1732285499999997869, 0.08645134638073896649 ) ;
#24 = UNCERTAINTY_MEASURE_WITH_UNIT (LENGTH_MEASURE( 1.000000000000000082E-05 ), #288, 'distance_accuracy_value', 'NONE');
#25 = DIRECTION ( 'NONE',  ( 0.0000000000000000000, 0.0000000000000000000, 1.000000000000000000 ) ) ;
#26 = CARTESIAN_POINT ( 'NONE',  ( 0.1574804999999999955, 1.928579902531247412E-17, 3.937007999999999619 ) ) ;
#27 = CARTESIAN_POINT ( 'NONE',  ( -0.1424805000000004540, 0.0000000000000000000, 3.937007999999999619 ) ) ;
#28 = VECTOR ( 'NONE', #256, 39.37007874015748143 ) ;
#29 = DIRECTION ( 'NONE',  ( -1.000000000000000000, 0.0000000000000000000, 0.0000000000000000000 ) ) ;
#30 = LINE ( 'NONE', #1, #51 ) ;
#31 =( LENGTH_UNIT ( ) NAMED_UNIT ( * ) SI_UNIT ( $, .METRE. ) );
#32 = EDGE_LOOP ( 'NONE', ( #21, #19, #210, #142 ) ) ;
#33 = CLOSED_SHELL ( 'NONE', ( #124, #204, #238, #108, #129, #313, #99, #163, #88, #191, #179 ) ) ;
#34 =( LENGTH_UNIT ( ) NAMED_UNIT ( * ) SI_UNIT ( $, .METRE. ) );
#35 = ORIENTED_EDGE ( 'NONE', *, *, #232, .T. ) ;
#36 = PRESENTATION_STYLE_ASSIGNMENT (( #272 ) ) ;
#37 = DIRECTION ( 'NONE',  ( 0.08634369942813732712, 0.0000000000000000000, 0.9962654092003110362 ) ) ;
#38 = CARTESIAN_POINT ( 'NONE',  ( 1.301787301025644282E-17, -0.1062989999999999491, 0.2736715358320045977 ) ) ;
#39 = AXIS2_PLACEMENT_3D ( 'NONE', #228, #84, #295 ) ;
#40 = VERTEX_POINT ( 'NONE', #145 ) ;
#41 = CARTESIAN_POINT ( 'NONE',  ( 0.0000000000000000000, 0.0000000000000000000, 2.165353999999999779 ) ) ;
#42 = LENGTH_MEASURE_WITH_UNIT ( LENGTH_MEASURE( 0.02539999999999999897 ), #70 );
#43 = AXIS2_PLACEMENT_3D ( 'NONE', #178, #149, #20 ) ;
#44 = PRESENTATION_STYLE_ASSIGNMENT (( #181 ) ) ;
#45 = EDGE_CURVE ( 'NONE', #276, #188, #268, .T. ) ;
#46 = EDGE_LOOP ( 'NONE', ( #13, #101, #274, #54 ) ) ;
#47 = DIRECTION ( 'NONE',  ( 0.0000000000000000000, 0.0000000000000000000, -1.000000000000000000 ) ) ;
#48 = VERTEX_POINT ( 'NONE', #6 ) ;
#49 = DIRECTION ( 'NONE',  ( 0.0000000000000000000, 0.0000000000000000000, -1.000000000000000000 ) ) ;
#50 = CARTESIAN_POINT ( 'NONE',  ( 0.0000000000000000000, 0.0000000000000000000, 3.937007999999999619 ) ) ;
#51 = VECTOR ( 'NONE', #314, 39.37007874015748143 ) ;
#52 = UNCERTAINTY_MEASURE_WITH_UNIT (LENGTH_MEASURE( 1.000000000000000082E-05 ), #169, 'distance_accuracy_value', 'NONE');
#53 = CARTESIAN_POINT ( 'NONE',  ( 0.0000000000000000000, 0.0000000000000000000, 3.937007999999999619 ) ) ;
#54 = ORIENTED_EDGE ( 'NONE', *, *, #243, .F. ) ;
#55 = DIRECTION ( 'NONE',  ( 0.0000000000000000000, 1.000000000000000000, 0.0000000000000000000 ) ) ;
#56 = EDGE_CURVE ( 'NONE', #188, #276, #236, .T. ) ;
#57 = DIRECTION ( 'NONE',  ( -0.0000000000000000000, -0.0000000000000000000, -1.000000000000000000 ) ) ;
#58 = COLOUR_RGB ( '',0.7921568627450980005, 0.8196078431372548767, 0.9333333333333333481 ) ;
#59 = DIRECTION ( 'NONE',  ( 0.0000000000000000000, 1.000000000000000000, 0.0000000000000000000 ) ) ;
#60 = ORIENTED_EDGE ( 'NONE', *, *, #285, .F. ) ;
#61 = EDGE_CURVE ( 'NONE', #48, #168, #160, .T. ) ;
#62 = VERTEX_POINT ( 'NONE', #222 ) ;
#63 = CONICAL_SURFACE ( 'NONE', #305, 0.1424805000000004540, 0.7853981633974608245 ) ;
#64 = VERTEX_POINT ( 'NONE', #141 ) ;
#65 = ORIENTED_EDGE ( 'NONE', *, *, #45, .T. ) ;
#66 = DIRECTION ( 'NONE',  ( 1.000000000000000000, 0.0000000000000000000, 0.0000000000000000000 ) ) ;
#67 = EDGE_CURVE ( 'NONE', #192, #107, #94, .T. ) ;
#68 = VECTOR ( 'NONE', #251, 39.37007874015748143 ) ;
#69 = DIRECTION ( 'NONE',  ( -0.0000000000000000000, -0.0000000000000000000, -1.000000000000000000 ) ) ;
#70 =( LENGTH_UNIT ( ) NAMED_UNIT ( * ) SI_UNIT ( $, .METRE. ) );
#71 = AXIS2_PLACEMENT_3D ( 'NONE', #158, #340, #76 ) ;
#72 = DIRECTION ( 'NONE',  ( 0.0000000000000000000, 0.0000000000000000000, 1.000000000000000000 ) ) ;
#73 = EDGE_LOOP ( 'NONE', ( #151, #86, #337, #121, #252 ) ) ;
#74 = DIRECTION ( 'NONE',  ( -1.000000000000000000, 0.0000000000000000000, 0.0000000000000000000 ) ) ;
#75 = MANIFOLD_SOLID_BREP ( 'Cut-Revolve3', #33 ) ;
#76 = DIRECTION ( 'NONE',  ( -1.224646799147352961E-16, 1.000000000000000000, 0.0000000000000000000 ) ) ;
#77 = LINE ( 'NONE', #26, #68 ) ;
#78 = AXIS2_PLACEMENT_3D ( 'NONE', #41, #72, #152 ) ;
#79 = EDGE_LOOP ( 'NONE', ( #144, #91, #234, #298, #302 ) ) ;
#80 = FACE_OUTER_BOUND ( 'NONE', #328, .T. ) ;
#81 = APPLICATION_CONTEXT ( 'automotive_design' ) ;
#82 = EDGE_CURVE ( 'NONE', #253, #62, #333, .T. ) ;
#83 = LINE ( 'NONE', #213, #237 ) ;
#84 = DIRECTION ( 'NONE',  ( -0.0000000000000000000, -0.0000000000000000000, -1.000000000000000000 ) ) ;
#85 = LENGTH_MEASURE_WITH_UNIT ( LENGTH_MEASURE( 0.02539999999999999897 ), #31 );
#86 = ORIENTED_EDGE ( 'NONE', *, *, #186, .T. ) ;
#87 = EDGE_CURVE ( 'NONE', #62, #185, #139, .T. ) ;
#88 = ADVANCED_FACE ( 'NONE', ( #126 ), #23, .T. ) ;
#89 = DIRECTION ( 'NONE',  ( 1.000000000000000000, 0.0000000000000000000, 0.0000000000000000000 ) ) ;
#90 = ORIENTED_EDGE ( 'NONE', *, *, #56, .F. ) ;
#91 = ORIENTED_EDGE ( 'NONE', *, *, #109, .T. ) ;
#92 = AXIS2_PLACEMENT_3D ( 'NONE', #137, #161, #317 ) ;
#93 = ORIENTED_EDGE ( 'NONE', *, *, #332, .F. ) ;
#94 = LINE ( 'NONE', #198, #280 ) ;
#95 = DIMENSIONAL_EXPONENTS ( 1.000000000000000000, 0.0000000000000000000, 0.0000000000000000000, 0.0000000000000000000, 0.0000000000000000000, 0.0000000000000000000, 0.0000000000000000000 ) ;
#96 = DIRECTION ( 'NONE',  ( 0.0000000000000000000, 0.0000000000000000000, 1.000000000000000000 ) ) ;
#97 = MECHANICAL_DESIGN_GEOMETRIC_PRESENTATION_REPRESENTATION (  '', ( #156 ), #202 ) ;
#98 = DIRECTION ( 'NONE',  ( -1.000000000000000000, 0.0000000000000000000, 0.0000000000000000000 ) ) ;
#99 = ADVANCED_FACE ( 'NONE', ( #17 ), #203, .T. ) ;
#100 = CARTESIAN_POINT ( 'NONE',  ( 0.1062989999999999075, 1.301787301025643820E-17, 0.0000000000000000000 ) ) ;
#101 = ORIENTED_EDGE ( 'NONE', *, *, #285, .T. ) ;
#102 = PRODUCT_DEFINITION ( 'UNKNOWN', '', #281, #110 ) ;
#103 = DIRECTION ( 'NONE',  ( -1.000000000000000000, 0.0000000000000000000, 0.0000000000000000000 ) ) ;
#104 = CARTESIAN_POINT ( 'NONE',  ( 0.0000000000000000000, 0.0000000000000000000, 2.347060801784821127 ) ) ;
#105 = UNCERTAINTY_MEASURE_WITH_UNIT (LENGTH_MEASURE( 1.000000000000000082E-05 ), #321, 'distance_accuracy_value', 'NONE');
#106 = SPHERICAL_SURFACE ( 'NONE', #135, 0.1574799999999999811 ) ;
#107 = VERTEX_POINT ( 'NONE', #233 ) ;
#108 = ADVANCED_FACE ( 'NONE', ( #199 ), #63, .T. ) ;
#109 = EDGE_CURVE ( 'NONE', #192, #299, #336, .T. ) ;
#110 = PRODUCT_DEFINITION_CONTEXT ( 'detailed design', #324, 'design' ) ;
#111 = DIRECTION ( 'NONE',  ( 1.000000000000000000, 0.0000000000000000000, 0.0000000000000000000 ) ) ;
#112 = FACE_OUTER_BOUND ( 'NONE', #282, .T. ) ;
#113 = LENGTH_MEASURE_WITH_UNIT ( LENGTH_MEASURE( 0.02539999999999999897 ), #34 );
#114 = DIRECTION ( 'NONE',  ( -1.000000000000000000, 0.0000000000000000000, 0.0000000000000000000 ) ) ;
#115 = SURFACE_SIDE_STYLE ('',( #4 ) ) ;
#116 = SHAPE_DEFINITION_REPRESENTATION ( #182, #326 ) ;
#117 = ORIENTED_EDGE ( 'NONE', *, *, #170, .T. ) ;
#118 = CARTESIAN_POINT ( 'NONE',  ( 0.0000000000000000000, 0.0000000000000000000, 0.0000000000000000000 ) ) ;
#119 = CARTESIAN_POINT ( 'NONE',  ( 0.0000000000000000000, 0.0000000000000000000, 3.922008000000000827 ) ) ;
#120 = AXIS2_PLACEMENT_3D ( 'NONE', #119, #193, #171 ) ;
#121 = ORIENTED_EDGE ( 'NONE', *, *, #232, .F. ) ;
#122 = FILL_AREA_STYLE_COLOUR ( '', #155 ) ;
#123 = FACE_OUTER_BOUND ( 'NONE', #79, .T. ) ;
#124 = ADVANCED_FACE ( 'NONE', ( #123 ), #309, .T. ) ;
#125 = CIRCLE ( 'NONE', #175, 0.1062989999999998103 ) ;
#126 = FACE_OUTER_BOUND ( 'NONE', #32, .T. ) ;
#127 =( NAMED_UNIT ( * ) SI_UNIT ( $, .STERADIAN. ) SOLID_ANGLE_UNIT ( ) );
#128 = PRESENTATION_LAYER_ASSIGNMENT (  '', '', ( #174 ) ) ;
#129 = ADVANCED_FACE ( 'NONE', ( #257 ), #14, .T. ) ;
#130 = AXIS2_PLACEMENT_3D ( 'NONE', #206, #183, #235 ) ;
#131 =( NAMED_UNIT ( * ) PLANE_ANGLE_UNIT ( ) SI_UNIT ( $, .RADIAN. ) );
#132 = DIRECTION ( 'NONE',  ( -1.000000000000000000, 0.0000000000000000000, 0.0000000000000000000 ) ) ;
#133 = CARTESIAN_POINT ( 'NONE',  ( 0.0000000000000000000, 0.0000000000000000000, 1.574802999999999953 ) ) ;
#134 = DIRECTION ( 'NONE',  ( -0.0000000000000000000, -0.0000000000000000000, -1.000000000000000000 ) ) ;
#135 = AXIS2_PLACEMENT_3D ( 'NONE', #187, #270, #55 ) ;
#136 = CARTESIAN_POINT ( 'NONE',  ( 0.1424805000000004540, 1.744882882659150076E-17, 3.937007999999999619 ) ) ;
#137 = CARTESIAN_POINT ( 'NONE',  ( 0.0000000000000000000, 0.0000000000000000000, 0.2736715358320045977 ) ) ;
#138 =( NAMED_UNIT ( * ) PLANE_ANGLE_UNIT ( ) SI_UNIT ( $, .RADIAN. ) );
#139 = CIRCLE ( 'NONE', #229, 0.1574799999999999256 ) ;
#140 = CIRCLE ( 'NONE', #92, 0.1062989999999999768 ) ;
#141 = CARTESIAN_POINT ( 'NONE',  ( -0.1062989999999998103, 1.615183601778445154E-17, 1.574802999999999953 ) ) ;
#142 = ORIENTED_EDGE ( 'NONE', *, *, #254, .F. ) ;
#143 = DIRECTION ( 'NONE',  ( -0.0000000000000000000, -0.0000000000000000000, -1.000000000000000000 ) ) ;
#144 = ORIENTED_EDGE ( 'NONE', *, *, #194, .T. ) ;
#145 = CARTESIAN_POINT ( 'NONE',  ( -0.1574804999999999955, 0.0000000000000000000, 2.165353999999999779 ) ) ;
#146 = AXIS2_PLACEMENT_3D ( 'NONE', #294, #292, #59 ) ;
#147 = ORIENTED_EDGE ( 'NONE', *, *, #170, .F. ) ;
#148 = LINE ( 'NONE', #262, #28 ) ;
#149 = DIRECTION ( 'NONE',  ( -0.0000000000000000000, -0.0000000000000000000, -1.000000000000000000 ) ) ;
#150 = CIRCLE ( 'NONE', #316, 0.1574804999999999955 ) ;
#151 = ORIENTED_EDGE ( 'NONE', *, *, #109, .F. ) ;
#152 = DIRECTION ( 'NONE',  ( 1.000000000000000000, 0.0000000000000000000, 0.0000000000000000000 ) ) ;
#153 = ORIENTED_EDGE ( 'NONE', *, *, #248, .T. ) ;
#154 = DIRECTION ( 'NONE',  ( -1.000000000000000000, 0.0000000000000000000, 0.0000000000000000000 ) ) ;
#155 = COLOUR_RGB ( '',0.7921568627450980005, 0.8196078431372548767, 0.9333333333333333481 ) ;
#156 = STYLED_ITEM ( 'NONE', ( #36 ), #326 ) ;
#157 = CARTESIAN_POINT ( 'NONE',  ( -0.1062989999999999768, 0.0000000000000000000, 0.2736715358320045977 ) ) ;
#158 = CARTESIAN_POINT ( 'NONE',  ( 0.0000000000000000000, 0.0000000000000000000, 0.1574800000000000089 ) ) ;
#159 = DIRECTION ( 'NONE',  ( 1.000000000000000000, 0.0000000000000000000, 0.0000000000000000000 ) ) ;
#160 = CIRCLE ( 'NONE', #264, 0.1424805000000004540 ) ;
#161 = DIRECTION ( 'NONE',  ( -0.0000000000000000000, -0.0000000000000000000, -1.000000000000000000 ) ) ;
#162 = VECTOR ( 'NONE', #338, 39.37007874015748143 ) ;
#163 = ADVANCED_FACE ( 'NONE', ( #231 ), #290, .T. ) ;
#164 = DIRECTION ( 'NONE',  ( 0.0000000000000000000, 0.0000000000000000000, 1.000000000000000000 ) ) ;
#165 = DIRECTION ( 'NONE',  ( 0.0000000000000000000, 0.0000000000000000000, -1.000000000000000000 ) ) ;
#166 = SURFACE_SIDE_STYLE ('',( #297 ) ) ;
#167 = AXIS2_PLACEMENT_3D ( 'NONE', #53, #164, #315 ) ;
#168 = VERTEX_POINT ( 'NONE', #283 ) ;
#169 =( CONVERSION_BASED_UNIT ( 'INCH', #113 ) LENGTH_UNIT ( ) NAMED_UNIT ( #15 ) );
#170 = EDGE_CURVE ( 'NONE', #107, #40, #3, .T. ) ;
#171 = DIRECTION ( 'NONE',  ( 1.000000000000000000, 0.0000000000000000000, 0.0000000000000000000 ) ) ;
#172 = ORIENTED_EDGE ( 'NONE', *, *, #307, .F. ) ;
#173 = DIRECTION ( 'NONE',  ( 0.0000000000000000000, 0.0000000000000000000, 1.000000000000000000 ) ) ;
#174 = STYLED_ITEM ( 'NONE', ( #44 ), #75 ) ;
#175 = AXIS2_PLACEMENT_3D ( 'NONE', #133, #296, #343 ) ;
#176 = EDGE_CURVE ( 'NONE', #64, #253, #148, .T. ) ;
#177 = CARTESIAN_POINT ( 'NONE',  ( 0.0000000000000000000, 0.0000000000000000000, 3.937007999999999619 ) ) ;
#178 = CARTESIAN_POINT ( 'NONE',  ( 0.0000000000000000000, 0.0000000000000000000, 0.0000000000000000000 ) ) ;
#179 = ADVANCED_FACE ( 'NONE', ( #208 ), #312, .T. ) ;
#180 = AXIS2_PLACEMENT_3D ( 'NONE', #277, #143, #114 ) ;
#181 = SURFACE_STYLE_USAGE ( .BOTH. , #115 ) ;
#182 = PRODUCT_DEFINITION_SHAPE ( 'NONE', 'NONE',  #102 ) ;
#183 = DIRECTION ( 'NONE',  ( 0.0000000000000000000, 0.0000000000000000000, 1.000000000000000000 ) ) ;
#184 = FACE_OUTER_BOUND ( 'NONE', #311, .T. ) ;
#185 = VERTEX_POINT ( 'NONE', #266 ) ;
#186 = EDGE_CURVE ( 'NONE', #192, #64, #125, .T. ) ;
#187 = CARTESIAN_POINT ( 'NONE',  ( 0.0000000000000000000, 0.0000000000000000000, 0.1574800000000000089 ) ) ;
#188 = VERTEX_POINT ( 'NONE', #319 ) ;
#189 = LINE ( 'NONE', #136, #218 ) ;
#190 = DIRECTION ( 'NONE',  ( -0.7071067811865563435, 0.0000000000000000000, -0.7071067811865386910 ) ) ;
#191 = ADVANCED_FACE ( 'NONE', ( #112 ), #215, .T. ) ;
#192 = VERTEX_POINT ( 'NONE', #239 ) ;
#193 = DIRECTION ( 'NONE',  ( 0.0000000000000000000, 0.0000000000000000000, -1.000000000000000000 ) ) ;
#194 = EDGE_CURVE ( 'NONE', #64, #192, #320, .T. ) ;
#195 = ORIENTED_EDGE ( 'NONE', *, *, #87, .T. ) ;
#196 = ORIENTED_EDGE ( 'NONE', *, *, #87, .F. ) ;
#197 =( NAMED_UNIT ( * ) PLANE_ANGLE_UNIT ( ) SI_UNIT ( $, .RADIAN. ) );
#198 = CARTESIAN_POINT ( 'NONE',  ( 0.1732285499999997869, 0.0000000000000000000, 2.347060801784821127 ) ) ;
#199 = FACE_OUTER_BOUND ( 'NONE', #46, .T. ) ;
#200 =( GEOMETRIC_REPRESENTATION_CONTEXT ( 3 ) GLOBAL_UNCERTAINTY_ASSIGNED_CONTEXT ( ( #24 ) ) GLOBAL_UNIT_ASSIGNED_CONTEXT ( ( #288, #131, #127 ) ) REPRESENTATION_CONTEXT ( 'NONE', 'WORKASPACE' ) );
#201 = PRESENTATION_LAYER_ASSIGNMENT (  '', '', ( #156 ) ) ;
#202 =( GEOMETRIC_REPRESENTATION_CONTEXT ( 3 ) GLOBAL_UNCERTAINTY_ASSIGNED_CONTEXT ( ( #105 ) ) GLOBAL_UNIT_ASSIGNED_CONTEXT ( ( #321, #197, #11 ) ) REPRESENTATION_CONTEXT ( 'NONE', 'WORKASPACE' ) );
#203 = PLANE ( 'NONE',  #310 ) ;
#204 = ADVANCED_FACE ( 'NONE', ( #240 ), #106, .T. ) ;
#205 = CARTESIAN_POINT ( 'NONE',  ( 0.0000000000000000000, 0.0000000000000000000, 3.937007999999999619 ) ) ;
#206 = CARTESIAN_POINT ( 'NONE',  ( 0.0000000000000000000, 0.0000000000000000000, 2.347060801784821127 ) ) ;
#207 = CIRCLE ( 'NONE', #230, 0.1062989999999999768 ) ;
#208 = FACE_OUTER_BOUND ( 'NONE', #73, .T. ) ;
#209 = DIRECTION ( 'NONE',  ( -1.000000000000000000, 0.0000000000000000000, 0.0000000000000000000 ) ) ;
#210 = ORIENTED_EDGE ( 'NONE', *, *, #67, .T. ) ;
#211 = DIRECTION ( 'NONE',  ( -0.0000000000000000000, -0.0000000000000000000, -1.000000000000000000 ) ) ;
#212 = ORIENTED_EDGE ( 'NONE', *, *, #243, .T. ) ;
#213 = CARTESIAN_POINT ( 'NONE',  ( -0.1732285499999997869, 2.121437892784369688E-17, 2.347060801784821127 ) ) ;
#214 = PRODUCT ( 'Micro_SBMM-080-440X', 'Micro_SBMM-080-440X', '', ( #279 ) ) ;
#215 = SPHERICAL_SURFACE ( 'NONE', #146, 0.1574799999999999811 ) ;
#216 = CARTESIAN_POINT ( 'NONE',  ( 0.0000000000000000000, 0.0000000000000000000, 0.2736715358320045977 ) ) ;
#217 = MECHANICAL_DESIGN_GEOMETRIC_PRESENTATION_REPRESENTATION (  '', ( #174 ), #200 ) ;
#218 = VECTOR ( 'NONE', #271, 39.37007874015748143 ) ;
#219 = ORIENTED_EDGE ( 'NONE', *, *, #56, .T. ) ;
#220 = EDGE_LOOP ( 'NONE', ( #60, #330, #212, #90 ) ) ;
#221 = EDGE_CURVE ( 'NONE', #64, #40, #83, .T. ) ;
#222 = CARTESIAN_POINT ( 'NONE',  ( 0.0000000000000000000, 0.1062989999999999491, 0.2736715358320045977 ) ) ;
#223 = APPLICATION_PROTOCOL_DEFINITION ( 'draft international standard', 'automotive_design', 1998, #81 ) ;
#224 = CIRCLE ( 'NONE', #167, 0.1424805000000004540 ) ;
#225 = EDGE_LOOP ( 'NONE', ( #278, #303 ) ) ;
#226 = ORIENTED_EDGE ( 'NONE', *, *, #342, .T. ) ;
#227 = ORIENTED_EDGE ( 'NONE', *, *, #301, .F. ) ;
#228 = CARTESIAN_POINT ( 'NONE',  ( 0.0000000000000000000, 0.0000000000000000000, 0.0000000000000000000 ) ) ;
#229 = AXIS2_PLACEMENT_3D ( 'NONE', #260, #74, #18 ) ;
#230 = AXIS2_PLACEMENT_3D ( 'NONE', #216, #134, #29 ) ;
#231 = FACE_OUTER_BOUND ( 'NONE', #220, .T. ) ;
#232 = EDGE_CURVE ( 'NONE', #2, #253, #140, .T. ) ;
#233 = CARTESIAN_POINT ( 'NONE',  ( 0.1574804999999999955, 1.928579902531247412E-17, 2.165353999999999779 ) ) ;
#234 = ORIENTED_EDGE ( 'NONE', *, *, #248, .F. ) ;
#235 = DIRECTION ( 'NONE',  ( 1.000000000000000000, 0.0000000000000000000, 0.0000000000000000000 ) ) ;
#236 = CIRCLE ( 'NONE', #120, 0.1574804999999999955 ) ;
#237 = VECTOR ( 'NONE', #345, 39.37007874015748143 ) ;
#238 = ADVANCED_FACE ( 'NONE', ( #80 ), #327, .T. ) ;
#239 = CARTESIAN_POINT ( 'NONE',  ( 0.1062989999999998103, 0.0000000000000000000, 1.574802999999999953 ) ) ;
#240 = FACE_OUTER_BOUND ( 'NONE', #245, .T. ) ;
#241 = AXIS2_PLACEMENT_3D ( 'NONE', #177, #47, #335 ) ;
#242 = CARTESIAN_POINT ( 'NONE',  ( 0.0000000000000000000, 0.0000000000000000000, 1.574802999999999953 ) ) ;
#243 = EDGE_CURVE ( 'NONE', #168, #276, #267, .T. ) ;
#244 = CARTESIAN_POINT ( 'NONE',  ( 0.1062989999999999768, 1.301787301025644745E-17, 0.2736715358320045977 ) ) ;
#245 = EDGE_LOOP ( 'NONE', ( #153, #226, #287, #196 ) ) ;
#246 = AXIS2_PLACEMENT_3D ( 'NONE', #304, #22, #98 ) ;
#247 = VECTOR ( 'NONE', #190, 39.37007874015748143 ) ;
#248 = EDGE_CURVE ( 'NONE', #62, #299, #207, .T. ) ;
#249 = FILL_AREA_STYLE ('',( #122 ) ) ;
#250 = EDGE_LOOP ( 'NONE', ( #65, #255, #117, #227 ) ) ;
#251 = DIRECTION ( 'NONE',  ( -0.0000000000000000000, -0.0000000000000000000, -1.000000000000000000 ) ) ;
#252 = ORIENTED_EDGE ( 'NONE', *, *, #342, .F. ) ;
#253 = VERTEX_POINT ( 'NONE', #157 ) ;
#254 = EDGE_CURVE ( 'NONE', #40, #107, #150, .T. ) ;
#255 = ORIENTED_EDGE ( 'NONE', *, *, #332, .T. ) ;
#256 = DIRECTION ( 'NONE',  ( -0.0000000000000000000, -0.0000000000000000000, -1.000000000000000000 ) ) ;
#257 = FACE_OUTER_BOUND ( 'NONE', #250, .T. ) ;
#258 = EDGE_CURVE ( 'NONE', #168, #48, #224, .T. ) ;
#259 = AXIS2_PLACEMENT_3D ( 'NONE', #104, #341, #159 ) ;
#260 = CARTESIAN_POINT ( 'NONE',  ( 0.0000000000000000000, 0.0000000000000000000, 0.1574800000000000089 ) ) ;
#261 = ORIENTED_EDGE ( 'NONE', *, *, #67, .F. ) ;
#262 = CARTESIAN_POINT ( 'NONE',  ( -0.1062989999999999075, 0.0000000000000000000, 0.0000000000000000000 ) ) ;
#263 = DIRECTION ( 'NONE',  ( 1.000000000000000000, 0.0000000000000000000, -0.0000000000000000000 ) ) ;
#264 = AXIS2_PLACEMENT_3D ( 'NONE', #273, #173, #12 ) ;
#265 = CARTESIAN_POINT ( 'NONE',  ( 0.0000000000000000000, 0.0000000000000000000, 2.165353999999999779 ) ) ;
#266 = CARTESIAN_POINT ( 'NONE',  ( 0.0000000000000000000, 9.642868896486256968E-18, 3.414809992080329023E-17 ) ) ;
#267 = LINE ( 'NONE', #27, #247 ) ;
#268 = CIRCLE ( 'NONE', #339, 0.1574804999999999955 ) ;
#269 =( GEOMETRIC_REPRESENTATION_CONTEXT ( 3 ) GLOBAL_UNCERTAINTY_ASSIGNED_CONTEXT ( ( #52 ) ) GLOBAL_UNIT_ASSIGNED_CONTEXT ( ( #169, #138, #275 ) ) REPRESENTATION_CONTEXT ( 'NONE', 'WORKASPACE' ) );
#270 = DIRECTION ( 'NONE',  ( 1.000000000000000000, 0.0000000000000000000, 0.0000000000000000000 ) ) ;
#271 = DIRECTION ( 'NONE',  ( 0.7071067811865563435, 8.659560562355041327E-17, -0.7071067811865386910 ) ) ;
#272 = SURFACE_STYLE_USAGE ( .BOTH. , #166 ) ;
#273 = CARTESIAN_POINT ( 'NONE',  ( 0.0000000000000000000, 0.0000000000000000000, 3.937007999999999619 ) ) ;
#274 = ORIENTED_EDGE ( 'NONE', *, *, #45, .F. ) ;
#275 =( NAMED_UNIT ( * ) SI_UNIT ( $, .STERADIAN. ) SOLID_ANGLE_UNIT ( ) );
#276 = VERTEX_POINT ( 'NONE', #318 ) ;
#277 = CARTESIAN_POINT ( 'NONE',  ( 0.0000000000000000000, 0.0000000000000000000, 0.2736715358320045977 ) ) ;
#278 = ORIENTED_EDGE ( 'NONE', *, *, #258, .T. ) ;
#279 = PRODUCT_CONTEXT ( 'NONE', #81, 'mechanical' ) ;
#280 = VECTOR ( 'NONE', #37, 39.37007874015748143 ) ;
#281 = PRODUCT_DEFINITION_FORMATION_WITH_SPECIFIED_SOURCE ( 'ANY', '', #214, .NOT_KNOWN. ) ;
#282 = EDGE_LOOP ( 'NONE', ( #172, #35, #323, #195 ) ) ;
#283 = CARTESIAN_POINT ( 'NONE',  ( -0.1424805000000004540, 0.0000000000000000000, 3.937007999999999619 ) ) ;
#284 = PRODUCT_RELATED_PRODUCT_CATEGORY ( 'part', '', ( #214 ) ) ;
#285 = EDGE_CURVE ( 'NONE', #48, #188, #189, .T. ) ;
#286 = AXIS2_PLACEMENT_3D ( 'NONE', #50, #211, #132 ) ;
#287 = ORIENTED_EDGE ( 'NONE', *, *, #307, .T. ) ;
#288 =( CONVERSION_BASED_UNIT ( 'INCH', #42 ) LENGTH_UNIT ( ) NAMED_UNIT ( #95 ) );
#289 = CYLINDRICAL_SURFACE ( 'NONE', #286, 0.1574804999999999955 ) ;
#290 = CONICAL_SURFACE ( 'NONE', #241, 0.1424805000000004540, 0.7853981633974608245 ) ;
#291 = ORIENTED_EDGE ( 'NONE', *, *, #254, .T. ) ;
#292 = DIRECTION ( 'NONE',  ( 1.000000000000000000, 0.0000000000000000000, 0.0000000000000000000 ) ) ;
#293 = ORIENTED_EDGE ( 'NONE', *, *, #301, .T. ) ;
#294 = CARTESIAN_POINT ( 'NONE',  ( 0.0000000000000000000, 0.0000000000000000000, 0.1574800000000000089 ) ) ;
#295 = DIRECTION ( 'NONE',  ( -1.000000000000000000, 0.0000000000000000000, 0.0000000000000000000 ) ) ;
#296 = DIRECTION ( 'NONE',  ( -0.0000000000000000000, -0.0000000000000000000, -1.000000000000000000 ) ) ;
#297 = SURFACE_STYLE_FILL_AREA ( #7 ) ;
#298 = ORIENTED_EDGE ( 'NONE', *, *, #82, .F. ) ;
#299 = VERTEX_POINT ( 'NONE', #244 ) ;
#300 = AXIS2_PLACEMENT_3D ( 'NONE', #242, #57, #209 ) ;
#301 = EDGE_CURVE ( 'NONE', #276, #40, #30, .T. ) ;
#302 = ORIENTED_EDGE ( 'NONE', *, *, #176, .F. ) ;
#303 = ORIENTED_EDGE ( 'NONE', *, *, #61, .T. ) ;
#304 = CARTESIAN_POINT ( 'NONE',  ( 0.0000000000000000000, 0.0000000000000000000, 0.2736715358320045977 ) ) ;
#305 = AXIS2_PLACEMENT_3D ( 'NONE', #308, #49, #154 ) ;
#306 = CARTESIAN_POINT ( 'NONE',  ( 0.0000000000000000000, 0.0000000000000000000, 3.937007999999999619 ) ) ;
#307 = EDGE_CURVE ( 'NONE', #2, #185, #344, .T. ) ;
#308 = CARTESIAN_POINT ( 'NONE',  ( 0.0000000000000000000, 0.0000000000000000000, 3.937007999999999619 ) ) ;
#309 = CYLINDRICAL_SURFACE ( 'NONE', #43, 0.1062989999999999075 ) ;
#310 = AXIS2_PLACEMENT_3D ( 'NONE', #205, #96, #263 ) ;
#311 = EDGE_LOOP ( 'NONE', ( #93, #219, #293, #291 ) ) ;
#312 = CYLINDRICAL_SURFACE ( 'NONE', #39, 0.1062989999999999075 ) ;
#313 = ADVANCED_FACE ( 'NONE', ( #184 ), #289, .T. ) ;
#314 = DIRECTION ( 'NONE',  ( -0.0000000000000000000, -0.0000000000000000000, -1.000000000000000000 ) ) ;
#315 = DIRECTION ( 'NONE',  ( 1.000000000000000000, 0.0000000000000000000, 0.0000000000000000000 ) ) ;
#316 = AXIS2_PLACEMENT_3D ( 'NONE', #265, #25, #111 ) ;
#317 = DIRECTION ( 'NONE',  ( -1.000000000000000000, 0.0000000000000000000, 0.0000000000000000000 ) ) ;
#318 = CARTESIAN_POINT ( 'NONE',  ( -0.1574804999999999955, 0.0000000000000000000, 3.922008000000000827 ) ) ;
#319 = CARTESIAN_POINT ( 'NONE',  ( 0.1574804999999999955, 1.928579902531247412E-17, 3.922008000000000827 ) ) ;
#320 = CIRCLE ( 'NONE', #300, 0.1062989999999998103 ) ;
#321 =( CONVERSION_BASED_UNIT ( 'INCH', #85 ) LENGTH_UNIT ( ) NAMED_UNIT ( #9 ) );
#322 = DIRECTION ( 'NONE',  ( 0.0000000000000000000, 0.0000000000000000000, 1.000000000000000000 ) ) ;
#323 = ORIENTED_EDGE ( 'NONE', *, *, #82, .T. ) ;
#324 = APPLICATION_CONTEXT ( 'automotive_design' ) ;
#325 = ORIENTED_EDGE ( 'NONE', *, *, #194, .F. ) ;
#326 = ADVANCED_BREP_SHAPE_REPRESENTATION ( 'Micro_SBMM-080-440X', ( #75, #334 ), #269 ) ;
#327 = CONICAL_SURFACE ( 'NONE', #259, 0.1732285499999997869, 0.08645134638073896649 ) ;
#328 = EDGE_LOOP ( 'NONE', ( #325, #331, #147, #261 ) ) ;
#329 = FILL_AREA_STYLE_COLOUR ( '', #58 ) ;
#330 = ORIENTED_EDGE ( 'NONE', *, *, #258, .F. ) ;
#331 = ORIENTED_EDGE ( 'NONE', *, *, #221, .T. ) ;
#332 = EDGE_CURVE ( 'NONE', #188, #107, #77, .T. ) ;
#333 = CIRCLE ( 'NONE', #246, 0.1062989999999999768 ) ;
#334 = AXIS2_PLACEMENT_3D ( 'NONE', #118, #322, #89 ) ;
#335 = DIRECTION ( 'NONE',  ( -1.000000000000000000, 0.0000000000000000000, 0.0000000000000000000 ) ) ;
#336 = LINE ( 'NONE', #100, #162 ) ;
#337 = ORIENTED_EDGE ( 'NONE', *, *, #176, .T. ) ;
#338 = DIRECTION ( 'NONE',  ( -0.0000000000000000000, -0.0000000000000000000, -1.000000000000000000 ) ) ;
#339 = AXIS2_PLACEMENT_3D ( 'NONE', #8, #165, #66 ) ;
#340 = DIRECTION ( 'NONE',  ( 1.000000000000000000, 1.224646799147353207E-16, -0.0000000000000000000 ) ) ;
#341 = DIRECTION ( 'NONE',  ( 0.0000000000000000000, 0.0000000000000000000, 1.000000000000000000 ) ) ;
#342 = EDGE_CURVE ( 'NONE', #299, #2, #16, .T. ) ;
#343 = DIRECTION ( 'NONE',  ( -1.000000000000000000, 0.0000000000000000000, 0.0000000000000000000 ) ) ;
#344 = CIRCLE ( 'NONE', #71, 0.1574799999999999811 ) ;
#345 = DIRECTION ( 'NONE',  ( -0.08634369942813732712, 1.057405351312095261E-17, 0.9962654092003110362 ) ) ;
ENDSEC;
END-ISO-10303-21;
