ISO-10303-21;
HEADER;
FILE_DESCRIPTION (( 'STEP AP214' ),
    '1' );
FILE_NAME ('01555.STEP',
    '2023-06-22T14:36:23',
    ( '' ),
    ( '' ),
    'SwSTEP 2.0',
    'SolidWorks 2023',
    '' );
FILE_SCHEMA (( 'AUTOMOTIVE_DESIGN' ));
ENDSEC;

DATA;
#1 = FACE_OUTER_BOUND ( 'NONE', #93, .T. ) ;
#2 =( LENGTH_UNIT ( ) NAMED_UNIT ( * ) SI_UNIT ( $, .METRE. ) );
#3 = CARTESIAN_POINT ( 'NONE',  ( -0.3125000000000000000, 0.7499999999999998890, 0.000000000000000000 ) ) ;
#4 = CARTESIAN_POINT ( 'NONE',  ( 0.3125000000000002220, 3.000000000000000444, 3.827021247335477078E-17 ) ) ;
#5 =( GEOMETRIC_REPRESENTATION_CONTEXT ( 3 ) GLOBAL_UNCERTAINTY_ASSIGNED_CONTEXT ( ( #251 ) ) GLOBAL_UNIT_ASSIGNED_CONTEXT ( ( #69, #35, #79 ) ) REPRESENTATION_CONTEXT ( 'NONE', 'WORKASPACE' ) );
#6 =( LENGTH_UNIT ( ) NAMED_UNIT ( * ) SI_UNIT ( $, .METRE. ) );
#7 = ORIENTED_EDGE ( 'NONE', *, *, #273, .F. ) ;
#8 = EDGE_CURVE ( 'NONE', #257, #307, #54, .T. ) ;
#9 = DIMENSIONAL_EXPONENTS ( 1.000000000000000000, 0.000000000000000000, 0.000000000000000000, 0.000000000000000000, 0.000000000000000000, 0.000000000000000000, 0.000000000000000000 ) ;
#10 =( LENGTH_UNIT ( ) NAMED_UNIT ( * ) SI_UNIT ( $, .METRE. ) );
#11 = DIRECTION ( 'NONE',  ( 0.000000000000000000, 0.000000000000000000, -1.000000000000000000 ) ) ;
#12 = VERTEX_POINT ( 'NONE', #57 ) ;
#13 = CIRCLE ( 'NONE', #68, 0.3125000000000000000 ) ;
#14 = DIRECTION ( 'NONE',  ( 0.000000000000000000, -0.000000000000000000, 1.000000000000000000 ) ) ;
#15 = DIRECTION ( 'NONE',  ( -0.000000000000000000, -1.000000000000000000, -0.000000000000000000 ) ) ;
#16 = STYLED_ITEM ( 'NONE', ( #201 ), #34 ) ;
#17 = MECHANICAL_DESIGN_GEOMETRIC_PRESENTATION_REPRESENTATION (  '', ( #110 ), #286 ) ;
#18 = EDGE_CURVE ( 'NONE', #104, #276, #183, .T. ) ;
#19 = SURFACE_STYLE_USAGE ( .BOTH. , #279 ) ;
#20 = CARTESIAN_POINT ( 'NONE',  ( 3.673940397442060361E-16, 3.000000000000000444, 0.000000000000000000 ) ) ;
#21 = FACE_OUTER_BOUND ( 'NONE', #217, .T. ) ;
#22 = CARTESIAN_POINT ( 'NONE',  ( 3.827021247335478926E-17, 0.7499999999999998890, 0.3125000000000000000 ) ) ;
#23 = AXIS2_PLACEMENT_3D ( 'NONE', #119, #24, #102 ) ;
#24 = DIRECTION ( 'NONE',  ( -0.000000000000000000, -1.000000000000000000, -0.000000000000000000 ) ) ;
#25 = FACE_OUTER_BOUND ( 'NONE', #96, .T. ) ;
#26 = CARTESIAN_POINT ( 'NONE',  ( 0.000000000000000000, 0.7499999999999998890, 0.000000000000000000 ) ) ;
#27 =( CONVERSION_BASED_UNIT ( 'INCH', #292 ) LENGTH_UNIT ( ) NAMED_UNIT ( #9 ) );
#28 = DIMENSIONAL_EXPONENTS ( 1.000000000000000000, 0.000000000000000000, 0.000000000000000000, 0.000000000000000000, 0.000000000000000000, 0.000000000000000000, 0.000000000000000000 ) ;
#29 = AXIS2_PLACEMENT_3D ( 'NONE', #210, #256, #118 ) ;
#30 = EDGE_CURVE ( 'NONE', #235, #218, #164, .T. ) ;
#31 = PRESENTATION_STYLE_ASSIGNMENT (( #212 ) ) ;
#32 = UNCERTAINTY_MEASURE_WITH_UNIT (LENGTH_MEASURE( 1.000000000000000082E-05 ), #27, 'distance_accuracy_value', 'NONE');
#33 = FILL_AREA_STYLE_COLOUR ( '', #267 ) ;
#34 = ADVANCED_FACE ( 'NONE', ( #80 ), #84, .T. ) ;
#35 =( NAMED_UNIT ( * ) PLANE_ANGLE_UNIT ( ) SI_UNIT ( $, .RADIAN. ) );
#36 =( NAMED_UNIT ( * ) PLANE_ANGLE_UNIT ( ) SI_UNIT ( $, .RADIAN. ) );
#37 =( LENGTH_UNIT ( ) NAMED_UNIT ( * ) SI_UNIT ( $, .METRE. ) );
#38 = PRODUCT_DEFINITION_SHAPE ( 'NONE', 'NONE',  #61 ) ;
#39 = LENGTH_MEASURE_WITH_UNIT ( LENGTH_MEASURE( 0.02539999999999999897 ), #278 );
#40 = PRESENTATION_STYLE_ASSIGNMENT (( #253 ) ) ;
#41 = MANIFOLD_SOLID_BREP ( 'Revolve - Cutting Edge', #177 ) ;
#42 =( NAMED_UNIT ( * ) PLANE_ANGLE_UNIT ( ) SI_UNIT ( $, .RADIAN. ) );
#43 = AXIS2_PLACEMENT_3D ( 'NONE', #83, #175, #280 ) ;
#44 = DIRECTION ( 'NONE',  ( 1.632862398863137774E-16, 1.000000000000000000, -0.000000000000000000 ) ) ;
#45 = CARTESIAN_POINT ( 'NONE',  ( 4.165999396282938712E-33, 0.7499999999999998890, 0.000000000000000000 ) ) ;
#46 = PLANE ( 'NONE',  #254 ) ;
#47 = DIRECTION ( 'NONE',  ( -0.000000000000000000, -1.000000000000000000, -0.000000000000000000 ) ) ;
#48 = DIRECTION ( 'NONE',  ( -1.000000000000000000, 0.000000000000000000, 0.000000000000000000 ) ) ;
#49 = LENGTH_MEASURE_WITH_UNIT ( LENGTH_MEASURE( 0.02539999999999999897 ), #10 );
#50 = DIRECTION ( 'NONE',  ( -0.000000000000000000, -1.000000000000000000, -0.000000000000000000 ) ) ;
#51 = DIRECTION ( 'NONE',  ( 1.632862398863137774E-16, 1.000000000000000000, -0.000000000000000000 ) ) ;
#52 =( CONVERSION_BASED_UNIT ( 'INCH', #111 ) LENGTH_UNIT ( ) NAMED_UNIT ( #28 ) );
#53 = CYLINDRICAL_SURFACE ( 'NONE', #172, 0.3125000000000000000 ) ;
#54 = LINE ( 'NONE', #171, #149 ) ;
#55 =( GEOMETRIC_REPRESENTATION_CONTEXT ( 3 ) GLOBAL_UNCERTAINTY_ASSIGNED_CONTEXT ( ( #306 ) ) GLOBAL_UNIT_ASSIGNED_CONTEXT ( ( #222, #36, #151 ) ) REPRESENTATION_CONTEXT ( 'NONE', 'WORKASPACE' ) );
#56 = AXIS2_PLACEMENT_3D ( 'NONE', #144, #99, #127 ) ;
#57 = CARTESIAN_POINT ( 'NONE',  ( 0.3125000000000000000, 3.000000000000000444, 3.827021247335477694E-17 ) ) ;
#58 = ADVANCED_FACE ( 'NONE', ( #85 ), #53, .T. ) ;
#59 = UNCERTAINTY_MEASURE_WITH_UNIT (LENGTH_MEASURE( 1.000000000000000082E-05 ), #52, 'distance_accuracy_value', 'NONE');
#60 = DIRECTION ( 'NONE',  ( 1.632862398863137774E-16, 1.000000000000000000, -0.000000000000000000 ) ) ;
#61 = PRODUCT_DEFINITION ( 'UNKNOWN', '', #178, #263 ) ;
#62 = SURFACE_STYLE_FILL_AREA ( #281 ) ;
#63 = CIRCLE ( 'NONE', #43, 0.3125000000000000000 ) ;
#64 = EDGE_LOOP ( 'NONE', ( #176, #191, #241, #284 ) ) ;
#65 = FILL_AREA_STYLE_COLOUR ( '', #258 ) ;
#66 = LINE ( 'NONE', #159, #173 ) ;
#67 = MECHANICAL_DESIGN_GEOMETRIC_PRESENTATION_REPRESENTATION (  '', ( #132 ), #208 ) ;
#68 = AXIS2_PLACEMENT_3D ( 'NONE', #271, #290, #48 ) ;
#69 =( CONVERSION_BASED_UNIT ( 'INCH', #288 ) LENGTH_UNIT ( ) NAMED_UNIT ( #213 ) );
#70 = ORIENTED_EDGE ( 'NONE', *, *, #30, .F. ) ;
#71 = COLOUR_RGB ( '',0.7921568627450980005, 0.8196078431372548767, 0.9333333333333333481 ) ;
#72 = FACE_OUTER_BOUND ( 'NONE', #64, .T. ) ;
#73 = ORIENTED_EDGE ( 'NONE', *, *, #152, .T. ) ;
#74 = DIMENSIONAL_EXPONENTS ( 1.000000000000000000, 0.000000000000000000, 0.000000000000000000, 0.000000000000000000, 0.000000000000000000, 0.000000000000000000, 0.000000000000000000 ) ;
#75 =( NAMED_UNIT ( * ) SI_UNIT ( $, .STERADIAN. ) SOLID_ANGLE_UNIT ( ) );
#76 = AXIS2_PLACEMENT_3D ( 'NONE', #163, #179, #204 ) ;
#77 =( CONVERSION_BASED_UNIT ( 'INCH', #240 ) LENGTH_UNIT ( ) NAMED_UNIT ( #293 ) );
#78 = ORIENTED_EDGE ( 'NONE', *, *, #88, .T. ) ;
#79 =( NAMED_UNIT ( * ) SI_UNIT ( $, .STERADIAN. ) SOLID_ANGLE_UNIT ( ) );
#80 = FACE_OUTER_BOUND ( 'NONE', #272, .T. ) ;
#81 = EDGE_CURVE ( 'NONE', #218, #276, #162, .T. ) ;
#82 = VECTOR ( 'NONE', #211, 39.37007874015748143 ) ;
#83 = CARTESIAN_POINT ( 'NONE',  ( 0.000000000000000000, 0.000000000000000000, 0.000000000000000000 ) ) ;
#84 = PLANE ( 'NONE',  #308 ) ;
#85 = FACE_OUTER_BOUND ( 'NONE', #294, .T. ) ;
#86 = ORIENTED_EDGE ( 'NONE', *, *, #249, .F. ) ;
#87 = DIRECTION ( 'NONE',  ( 1.632862398863137774E-16, 1.000000000000000000, -0.000000000000000000 ) ) ;
#88 = EDGE_CURVE ( 'NONE', #12, #307, #155, .T. ) ;
#89 = DIRECTION ( 'NONE',  ( -1.000000000000000000, 0.000000000000000000, 0.000000000000000000 ) ) ;
#90 = MECHANICAL_DESIGN_GEOMETRIC_PRESENTATION_REPRESENTATION (  '', ( #291 ), #260 ) ;
#91 = DIRECTION ( 'NONE',  ( 1.632862398863137774E-16, 1.000000000000000000, -0.000000000000000000 ) ) ;
#92 = SURFACE_SIDE_STYLE ('',( #168 ) ) ;
#93 = EDGE_LOOP ( 'NONE', ( #73, #78 ) ) ;
#94 = DIRECTION ( 'NONE',  ( 0.000000000000000000, 0.000000000000000000, -1.000000000000000000 ) ) ;
#95 = STYLED_ITEM ( 'NONE', ( #198 ), #41 ) ;
#96 = EDGE_LOOP ( 'NONE', ( #197, #156, #304, #7 ) ) ;
#97 =( CONVERSION_BASED_UNIT ( 'INCH', #49 ) LENGTH_UNIT ( ) NAMED_UNIT ( #274 ) );
#98 = CYLINDRICAL_SURFACE ( 'NONE', #121, 0.3124999999999998890 ) ;
#99 = DIRECTION ( 'NONE',  ( 0.000000000000000000, 0.000000000000000000, 1.000000000000000000 ) ) ;
#100 = SHAPE_DEFINITION_REPRESENTATION ( #38, #117 ) ;
#101 = ORIENTED_EDGE ( 'NONE', *, *, #300, .F. ) ;
#102 = DIRECTION ( 'NONE',  ( 0.000000000000000000, 0.000000000000000000, -1.000000000000000000 ) ) ;
#103 = DIRECTION ( 'NONE',  ( 0.000000000000000000, 1.000000000000000000, 0.000000000000000000 ) ) ;
#104 = VERTEX_POINT ( 'NONE', #227 ) ;
#105 = UNCERTAINTY_MEASURE_WITH_UNIT (LENGTH_MEASURE( 1.000000000000000082E-05 ), #226, 'distance_accuracy_value', 'NONE');
#106 = SURFACE_STYLE_USAGE ( .BOTH. , #131 ) ;
#107 = DIRECTION ( 'NONE',  ( -1.000000000000000000, 0.000000000000000000, 0.000000000000000000 ) ) ;
#108 = DIRECTION ( 'NONE',  ( 0.000000000000000000, 0.000000000000000000, -1.000000000000000000 ) ) ;
#109 =( GEOMETRIC_REPRESENTATION_CONTEXT ( 3 ) GLOBAL_UNCERTAINTY_ASSIGNED_CONTEXT ( ( #59 ) ) GLOBAL_UNIT_ASSIGNED_CONTEXT ( ( #52, #169, #145 ) ) REPRESENTATION_CONTEXT ( 'NONE', 'WORKASPACE' ) );
#110 = STYLED_ITEM ( 'NONE', ( #147 ), #219 ) ;
#111 = LENGTH_MEASURE_WITH_UNIT ( LENGTH_MEASURE( 0.02539999999999999897 ), #37 );
#112 = ORIENTED_EDGE ( 'NONE', *, *, #18, .T. ) ;
#113 = CLOSED_SHELL ( 'NONE', ( #261, #206, #142, #135 ) ) ;
#114 = PLANE ( 'NONE',  #150 ) ;
#115 = AXIS2_PLACEMENT_3D ( 'NONE', #297, #15, #11 ) ;
#116 = PRESENTATION_LAYER_ASSIGNMENT (  '', '', ( #95 ) ) ;
#117 = ADVANCED_BREP_SHAPE_REPRESENTATION ( '01555', ( #41, #248, #56 ), #186 ) ;
#118 = DIRECTION ( 'NONE',  ( -1.000000000000000000, 0.000000000000000000, 0.000000000000000000 ) ) ;
#119 = CARTESIAN_POINT ( 'NONE',  ( 0.000000000000000000, 0.000000000000000000, 0.000000000000000000 ) ) ;
#120 = MECHANICAL_DESIGN_GEOMETRIC_PRESENTATION_REPRESENTATION (  '', ( #95 ), #109 ) ;
#121 = AXIS2_PLACEMENT_3D ( 'NONE', #190, #214, #107 ) ;
#122 = ADVANCED_FACE ( 'NONE', ( #134 ), #262, .T. ) ;
#123 = CARTESIAN_POINT ( 'NONE',  ( 0.000000000000000000, 0.7499999999999998890, -0.3125000000000000000 ) ) ;
#124 = SURFACE_STYLE_FILL_AREA ( #250 ) ;
#125 = FILL_AREA_STYLE_COLOUR ( '', #239 ) ;
#126 = CARTESIAN_POINT ( 'NONE',  ( 3.827021247335478926E-17, 0.000000000000000000, 0.3125000000000000000 ) ) ;
#127 = DIRECTION ( 'NONE',  ( 1.000000000000000000, 0.000000000000000000, 0.000000000000000000 ) ) ;
#128 = VECTOR ( 'NONE', #51, 39.37007874015748143 ) ;
#129 = FILL_AREA_STYLE_COLOUR ( '', #277 ) ;
#130 = APPLICATION_CONTEXT ( 'automotive_design' ) ;
#131 = SURFACE_SIDE_STYLE ('',( #252 ) ) ;
#132 = STYLED_ITEM ( 'NONE', ( #259 ), #122 ) ;
#133 = ORIENTED_EDGE ( 'NONE', *, *, #30, .T. ) ;
#134 = FACE_OUTER_BOUND ( 'NONE', #232, .T. ) ;
#135 = ADVANCED_FACE ( 'NONE', ( #1 ), #46, .F. ) ;
#136 = FACE_OUTER_BOUND ( 'NONE', #184, .T. ) ;
#137 = DIRECTION ( 'NONE',  ( 1.632862398863137774E-16, 1.000000000000000000, -0.000000000000000000 ) ) ;
#138 = CARTESIAN_POINT ( 'NONE',  ( 3.827021247335478926E-17, 0.000000000000000000, 0.3125000000000000000 ) ) ;
#139 = AXIS2_PLACEMENT_3D ( 'NONE', #26, #187, #94 ) ;
#140 =( NAMED_UNIT ( * ) PLANE_ANGLE_UNIT ( ) SI_UNIT ( $, .RADIAN. ) );
#141 = DIRECTION ( 'NONE',  ( -1.000000000000000000, 1.632862398863137774E-16, 0.000000000000000000 ) ) ;
#142 = ADVANCED_FACE ( 'NONE', ( #21 ), #229, .T. ) ;
#143 = CARTESIAN_POINT ( 'NONE',  ( -0.3124999999999993339, 3.000000000000000444, 0.000000000000000000 ) ) ;
#144 = CARTESIAN_POINT ( 'NONE',  ( 0.000000000000000000, 0.000000000000000000, 0.000000000000000000 ) ) ;
#145 =( NAMED_UNIT ( * ) SI_UNIT ( $, .STERADIAN. ) SOLID_ANGLE_UNIT ( ) );
#146 = CARTESIAN_POINT ( 'NONE',  ( 0.000000000000000000, 0.000000000000000000, 0.000000000000000000 ) ) ;
#147 = PRESENTATION_STYLE_ASSIGNMENT (( #236 ) ) ;
#148 = CARTESIAN_POINT ( 'NONE',  ( 0.000000000000000000, 0.000000000000000000, 0.000000000000000000 ) ) ;
#149 = VECTOR ( 'NONE', #60, 39.37007874015748143 ) ;
#150 = AXIS2_PLACEMENT_3D ( 'NONE', #45, #137, #141 ) ;
#151 =( NAMED_UNIT ( * ) SI_UNIT ( $, .STERADIAN. ) SOLID_ANGLE_UNIT ( ) );
#152 = EDGE_CURVE ( 'NONE', #307, #12, #296, .T. ) ;
#153 = UNCERTAINTY_MEASURE_WITH_UNIT (LENGTH_MEASURE( 1.000000000000000082E-05 ), #97, 'distance_accuracy_value', 'NONE');
#154 = SURFACE_SIDE_STYLE ('',( #62 ) ) ;
#155 = CIRCLE ( 'NONE', #29, 0.3124999999999996669 ) ;
#156 = ORIENTED_EDGE ( 'NONE', *, *, #249, .T. ) ;
#157 = DIRECTION ( 'NONE',  ( 0.000000000000000000, 0.000000000000000000, -1.000000000000000000 ) ) ;
#158 = ORIENTED_EDGE ( 'NONE', *, *, #18, .F. ) ;
#159 = CARTESIAN_POINT ( 'NONE',  ( 0.000000000000000000, 0.000000000000000000, -0.3125000000000000000 ) ) ;
#160 = STYLED_ITEM ( 'NONE', ( #40 ), #58 ) ;
#161 = SURFACE_SIDE_STYLE ('',( #289 ) ) ;
#162 = LINE ( 'NONE', #138, #82 ) ;
#163 = CARTESIAN_POINT ( 'NONE',  ( 0.000000000000000000, 0.000000000000000000, 0.000000000000000000 ) ) ;
#164 = CIRCLE ( 'NONE', #115, 0.3125000000000000000 ) ;
#165 =( NAMED_UNIT ( * ) SI_UNIT ( $, .STERADIAN. ) SOLID_ANGLE_UNIT ( ) );
#166 = ORIENTED_EDGE ( 'NONE', *, *, #273, .T. ) ;
#167 = SURFACE_STYLE_FILL_AREA ( #298 ) ;
#168 = SURFACE_STYLE_FILL_AREA ( #194 ) ;
#169 =( NAMED_UNIT ( * ) PLANE_ANGLE_UNIT ( ) SI_UNIT ( $, .RADIAN. ) );
#170 = ORIENTED_EDGE ( 'NONE', *, *, #189, .F. ) ;
#171 = CARTESIAN_POINT ( 'NONE',  ( -0.3124999999999995559, 3.000000000000000444, 0.000000000000000000 ) ) ;
#172 = AXIS2_PLACEMENT_3D ( 'NONE', #148, #246, #157 ) ;
#173 = VECTOR ( 'NONE', #47, 39.37007874015748143 ) ;
#174 = EDGE_CURVE ( 'NONE', #235, #104, #66, .T. ) ;
#175 = DIRECTION ( 'NONE',  ( -0.000000000000000000, -1.000000000000000000, -0.000000000000000000 ) ) ;
#176 = ORIENTED_EDGE ( 'NONE', *, *, #228, .T. ) ;
#177 = CLOSED_SHELL ( 'NONE', ( #58, #34, #219, #122 ) ) ;
#178 = PRODUCT_DEFINITION_FORMATION_WITH_SPECIFIED_SOURCE ( 'ANY', '', #205, .NOT_KNOWN. ) ;
#179 = DIRECTION ( 'NONE',  ( 0.000000000000000000, -1.000000000000000000, -0.000000000000000000 ) ) ;
#180 = UNCERTAINTY_MEASURE_WITH_UNIT (LENGTH_MEASURE( 1.000000000000000082E-05 ), #77, 'distance_accuracy_value', 'NONE');
#181 = FILL_AREA_STYLE ('',( #65 ) ) ;
#182 =( NAMED_UNIT ( * ) SI_UNIT ( $, .STERADIAN. ) SOLID_ANGLE_UNIT ( ) );
#183 = CIRCLE ( 'NONE', #301, 0.3125000000000000000 ) ;
#184 = EDGE_LOOP ( 'NONE', ( #209, #170 ) ) ;
#185 = DIRECTION ( 'NONE',  ( -1.000000000000000000, 0.000000000000000000, 0.000000000000000000 ) ) ;
#186 =( GEOMETRIC_REPRESENTATION_CONTEXT ( 3 ) GLOBAL_UNCERTAINTY_ASSIGNED_CONTEXT ( ( #32 ) ) GLOBAL_UNIT_ASSIGNED_CONTEXT ( ( #27, #243, #165 ) ) REPRESENTATION_CONTEXT ( 'NONE', 'WORKASPACE' ) );
#187 = DIRECTION ( 'NONE',  ( -0.000000000000000000, -1.000000000000000000, -0.000000000000000000 ) ) ;
#188 = ORIENTED_EDGE ( 'NONE', *, *, #189, .T. ) ;
#189 = EDGE_CURVE ( 'NONE', #225, #257, #268, .T. ) ;
#190 = CARTESIAN_POINT ( 'NONE',  ( 3.673940397442060361E-16, 3.000000000000000444, 0.000000000000000000 ) ) ;
#191 = ORIENTED_EDGE ( 'NONE', *, *, #300, .T. ) ;
#192 = ORIENTED_EDGE ( 'NONE', *, *, #88, .F. ) ;
#193 = PRESENTATION_LAYER_ASSIGNMENT (  '', '', ( #16 ) ) ;
#194 = FILL_AREA_STYLE ('',( #275 ) ) ;
#195 = PRESENTATION_LAYER_ASSIGNMENT (  '', '', ( #110 ) ) ;
#196 = APPLICATION_PROTOCOL_DEFINITION ( 'draft international standard', 'automotive_design', 1998, #130 ) ;
#197 = ORIENTED_EDGE ( 'NONE', *, *, #81, .F. ) ;
#198 = PRESENTATION_STYLE_ASSIGNMENT (( #19 ) ) ;
#199 = PRESENTATION_LAYER_ASSIGNMENT (  '', '', ( #132 ) ) ;
#200 = AXIS2_PLACEMENT_3D ( 'NONE', #309, #87, #285 ) ;
#201 = PRESENTATION_STYLE_ASSIGNMENT (( #106 ) ) ;
#202 = ORIENTED_EDGE ( 'NONE', *, *, #8, .T. ) ;
#203 = MECHANICAL_DESIGN_GEOMETRIC_PRESENTATION_REPRESENTATION (  '', ( #160 ), #5 ) ;
#204 = DIRECTION ( 'NONE',  ( 0.000000000000000000, 0.000000000000000000, -1.000000000000000000 ) ) ;
#205 = PRODUCT ( '01555', '01555', '', ( #215 ) ) ;
#206 = ADVANCED_FACE ( 'NONE', ( #136 ), #114, .F. ) ;
#207 = CARTESIAN_POINT ( 'NONE',  ( 0.3125000000000000000, 3.000000000000000444, 0.000000000000000000 ) ) ;
#208 =( GEOMETRIC_REPRESENTATION_CONTEXT ( 3 ) GLOBAL_UNCERTAINTY_ASSIGNED_CONTEXT ( ( #105 ) ) GLOBAL_UNIT_ASSIGNED_CONTEXT ( ( #226, #42, #182 ) ) REPRESENTATION_CONTEXT ( 'NONE', 'WORKASPACE' ) );
#209 = ORIENTED_EDGE ( 'NONE', *, *, #228, .F. ) ;
#210 = CARTESIAN_POINT ( 'NONE',  ( 3.673940397442060361E-16, 3.000000000000000444, 0.000000000000000000 ) ) ;
#211 = DIRECTION ( 'NONE',  ( -0.000000000000000000, -1.000000000000000000, -0.000000000000000000 ) ) ;
#212 = SURFACE_STYLE_USAGE ( .BOTH. , #92 ) ;
#213 = DIMENSIONAL_EXPONENTS ( 1.000000000000000000, 0.000000000000000000, 0.000000000000000000, 0.000000000000000000, 0.000000000000000000, 0.000000000000000000, 0.000000000000000000 ) ;
#214 = DIRECTION ( 'NONE',  ( 1.632862398863137774E-16, 1.000000000000000000, -0.000000000000000000 ) ) ;
#215 = PRODUCT_CONTEXT ( 'NONE', #242, 'mechanical' ) ;
#216 = SURFACE_SIDE_STYLE ('',( #167 ) ) ;
#217 = EDGE_LOOP ( 'NONE', ( #101, #188, #202, #192 ) ) ;
#218 = VERTEX_POINT ( 'NONE', #22 ) ;
#219 = ADVANCED_FACE ( 'NONE', ( #25 ), #244, .T. ) ;
#220 = MECHANICAL_DESIGN_GEOMETRIC_PRESENTATION_REPRESENTATION (  '', ( #16 ), #55 ) ;
#221 = FILL_AREA_STYLE_COLOUR ( '', #238 ) ;
#222 =( CONVERSION_BASED_UNIT ( 'INCH', #39 ) LENGTH_UNIT ( ) NAMED_UNIT ( #245 ) );
#223 = PRESENTATION_LAYER_ASSIGNMENT (  '', '', ( #160 ) ) ;
#224 = PRESENTATION_LAYER_ASSIGNMENT (  '', '', ( #291 ) ) ;
#225 = VERTEX_POINT ( 'NONE', #295 ) ;
#226 =( CONVERSION_BASED_UNIT ( 'INCH', #264 ) LENGTH_UNIT ( ) NAMED_UNIT ( #74 ) );
#227 = CARTESIAN_POINT ( 'NONE',  ( 0.000000000000000000, 0.000000000000000000, -0.3125000000000000000 ) ) ;
#228 = EDGE_CURVE ( 'NONE', #257, #225, #13, .T. ) ;
#229 = CYLINDRICAL_SURFACE ( 'NONE', #282, 0.3124999999999998890 ) ;
#230 = DIRECTION ( 'NONE',  ( -1.632862398863137774E-16, -1.000000000000000000, 0.000000000000000000 ) ) ;
#231 = AXIS2_PLACEMENT_3D ( 'NONE', #233, #44, #185 ) ;
#232 = EDGE_LOOP ( 'NONE', ( #112, #166 ) ) ;
#233 = CARTESIAN_POINT ( 'NONE',  ( 0.000000000000000000, 0.7499999999999998890, 0.000000000000000000 ) ) ;
#234 =( LENGTH_UNIT ( ) NAMED_UNIT ( * ) SI_UNIT ( $, .METRE. ) );
#235 = VERTEX_POINT ( 'NONE', #123 ) ;
#236 = SURFACE_STYLE_USAGE ( .BOTH. , #216 ) ;
#237 =( NAMED_UNIT ( * ) PLANE_ANGLE_UNIT ( ) SI_UNIT ( $, .RADIAN. ) );
#238 = COLOUR_RGB ( '',0.7921568627450980005, 0.8196078431372548767, 0.9333333333333333481 ) ;
#239 = COLOUR_RGB ( '',1.000000000000000000, 0.000000000000000000, 0.000000000000000000 ) ;
#240 = LENGTH_MEASURE_WITH_UNIT ( LENGTH_MEASURE( 0.02539999999999999897 ), #6 );
#241 = ORIENTED_EDGE ( 'NONE', *, *, #152, .F. ) ;
#242 = APPLICATION_CONTEXT ( 'automotive_design' ) ;
#243 =( NAMED_UNIT ( * ) PLANE_ANGLE_UNIT ( ) SI_UNIT ( $, .RADIAN. ) );
#244 = CYLINDRICAL_SURFACE ( 'NONE', #23, 0.3125000000000000000 ) ;
#245 = DIMENSIONAL_EXPONENTS ( 1.000000000000000000, 0.000000000000000000, 0.000000000000000000, 0.000000000000000000, 0.000000000000000000, 0.000000000000000000, 0.000000000000000000 ) ;
#246 = DIRECTION ( 'NONE',  ( -0.000000000000000000, -1.000000000000000000, -0.000000000000000000 ) ) ;
#247 = CARTESIAN_POINT ( 'NONE',  ( 0.000000000000000000, 0.7499999999999998890, 0.000000000000000000 ) ) ;
#248 = MANIFOLD_SOLID_BREP ( 'Revolve - Tool Body (Straight Shanked)', #113 ) ;
#249 = EDGE_CURVE ( 'NONE', #218, #235, #305, .T. ) ;
#250 = FILL_AREA_STYLE ('',( #221 ) ) ;
#251 = UNCERTAINTY_MEASURE_WITH_UNIT (LENGTH_MEASURE( 1.000000000000000082E-05 ), #69, 'distance_accuracy_value', 'NONE');
#252 = SURFACE_STYLE_FILL_AREA ( #302 ) ;
#253 = SURFACE_STYLE_USAGE ( .BOTH. , #154 ) ;
#254 = AXIS2_PLACEMENT_3D ( 'NONE', #207, #230, #266 ) ;
#255 = ORIENTED_EDGE ( 'NONE', *, *, #81, .T. ) ;
#256 = DIRECTION ( 'NONE',  ( 1.632862398863137774E-16, 1.000000000000000000, -0.000000000000000000 ) ) ;
#257 = VERTEX_POINT ( 'NONE', #3 ) ;
#258 = COLOUR_RGB ( '',1.000000000000000000, 0.000000000000000000, 0.000000000000000000 ) ;
#259 = PRESENTATION_STYLE_ASSIGNMENT (( #283 ) ) ;
#260 =( GEOMETRIC_REPRESENTATION_CONTEXT ( 3 ) GLOBAL_UNCERTAINTY_ASSIGNED_CONTEXT ( ( #180 ) ) GLOBAL_UNIT_ASSIGNED_CONTEXT ( ( #77, #140, #270 ) ) REPRESENTATION_CONTEXT ( 'NONE', 'WORKASPACE' ) );
#261 = ADVANCED_FACE ( 'NONE', ( #72 ), #98, .T. ) ;
#262 = PLANE ( 'NONE',  #76 ) ;
#263 = PRODUCT_DEFINITION_CONTEXT ( 'detailed design', #130, 'design' ) ;
#264 = LENGTH_MEASURE_WITH_UNIT ( LENGTH_MEASURE( 0.02539999999999999897 ), #2 );
#265 = ORIENTED_EDGE ( 'NONE', *, *, #174, .F. ) ;
#266 = DIRECTION ( 'NONE',  ( 1.000000000000000000, -1.632862398863137774E-16, 0.000000000000000000 ) ) ;
#267 = COLOUR_RGB ( '',1.000000000000000000, 0.000000000000000000, 0.000000000000000000 ) ;
#268 = CIRCLE ( 'NONE', #231, 0.3125000000000000000 ) ;
#269 = APPLICATION_PROTOCOL_DEFINITION ( 'draft international standard', 'automotive_design', 1998, #242 ) ;
#270 =( NAMED_UNIT ( * ) SI_UNIT ( $, .STERADIAN. ) SOLID_ANGLE_UNIT ( ) );
#271 = CARTESIAN_POINT ( 'NONE',  ( 0.000000000000000000, 0.7499999999999998890, 0.000000000000000000 ) ) ;
#272 = EDGE_LOOP ( 'NONE', ( #70, #86 ) ) ;
#273 = EDGE_CURVE ( 'NONE', #276, #104, #63, .T. ) ;
#274 = DIMENSIONAL_EXPONENTS ( 1.000000000000000000, 0.000000000000000000, 0.000000000000000000, 0.000000000000000000, 0.000000000000000000, 0.000000000000000000, 0.000000000000000000 ) ;
#275 = FILL_AREA_STYLE_COLOUR ( '', #71 ) ;
#276 = VERTEX_POINT ( 'NONE', #126 ) ;
#277 = COLOUR_RGB ( '',1.000000000000000000, 0.000000000000000000, 0.000000000000000000 ) ;
#278 =( LENGTH_UNIT ( ) NAMED_UNIT ( * ) SI_UNIT ( $, .METRE. ) );
#279 = SURFACE_SIDE_STYLE ('',( #124 ) ) ;
#280 = DIRECTION ( 'NONE',  ( 0.000000000000000000, 0.000000000000000000, -1.000000000000000000 ) ) ;
#281 = FILL_AREA_STYLE ('',( #129 ) ) ;
#282 = AXIS2_PLACEMENT_3D ( 'NONE', #20, #91, #89 ) ;
#283 = SURFACE_STYLE_USAGE ( .BOTH. , #161 ) ;
#284 = ORIENTED_EDGE ( 'NONE', *, *, #8, .F. ) ;
#285 = DIRECTION ( 'NONE',  ( -1.000000000000000000, 0.000000000000000000, 0.000000000000000000 ) ) ;
#286 =( GEOMETRIC_REPRESENTATION_CONTEXT ( 3 ) GLOBAL_UNCERTAINTY_ASSIGNED_CONTEXT ( ( #153 ) ) GLOBAL_UNIT_ASSIGNED_CONTEXT ( ( #97, #237, #75 ) ) REPRESENTATION_CONTEXT ( 'NONE', 'WORKASPACE' ) );
#287 = PRODUCT_RELATED_PRODUCT_CATEGORY ( 'part', '', ( #205 ) ) ;
#288 = LENGTH_MEASURE_WITH_UNIT ( LENGTH_MEASURE( 0.02539999999999999897 ), #303 );
#289 = SURFACE_STYLE_FILL_AREA ( #181 ) ;
#290 = DIRECTION ( 'NONE',  ( 1.632862398863137774E-16, 1.000000000000000000, -0.000000000000000000 ) ) ;
#291 = STYLED_ITEM ( 'NONE', ( #31 ), #248 ) ;
#292 = LENGTH_MEASURE_WITH_UNIT ( LENGTH_MEASURE( 0.02539999999999999897 ), #234 );
#293 = DIMENSIONAL_EXPONENTS ( 1.000000000000000000, 0.000000000000000000, 0.000000000000000000, 0.000000000000000000, 0.000000000000000000, 0.000000000000000000, 0.000000000000000000 ) ;
#294 = EDGE_LOOP ( 'NONE', ( #133, #255, #158, #265 ) ) ;
#295 = CARTESIAN_POINT ( 'NONE',  ( 0.3125000000000000000, 0.7499999999999998890, 3.827021247335477694E-17 ) ) ;
#296 = CIRCLE ( 'NONE', #200, 0.3124999999999996669 ) ;
#297 = CARTESIAN_POINT ( 'NONE',  ( 0.000000000000000000, 0.7499999999999998890, 0.000000000000000000 ) ) ;
#298 = FILL_AREA_STYLE ('',( #125 ) ) ;
#299 = LINE ( 'NONE', #4, #128 ) ;
#300 = EDGE_CURVE ( 'NONE', #225, #12, #299, .T. ) ;
#301 = AXIS2_PLACEMENT_3D ( 'NONE', #146, #50, #108 ) ;
#302 = FILL_AREA_STYLE ('',( #33 ) ) ;
#303 =( LENGTH_UNIT ( ) NAMED_UNIT ( * ) SI_UNIT ( $, .METRE. ) );
#304 = ORIENTED_EDGE ( 'NONE', *, *, #174, .T. ) ;
#305 = CIRCLE ( 'NONE', #139, 0.3125000000000000000 ) ;
#306 = UNCERTAINTY_MEASURE_WITH_UNIT (LENGTH_MEASURE( 1.000000000000000082E-05 ), #222, 'distance_accuracy_value', 'NONE');
#307 = VERTEX_POINT ( 'NONE', #143 ) ;
#308 = AXIS2_PLACEMENT_3D ( 'NONE', #247, #103, #14 ) ;
#309 = CARTESIAN_POINT ( 'NONE',  ( 3.673940397442060361E-16, 3.000000000000000444, 0.000000000000000000 ) ) ;
ENDSEC;
END-ISO-10303-21;
