ISO-10303-21;
HEADER;
FILE_DESCRIPTION (( 'STEP AP214' ),
    '1' );
FILE_NAME ('83277.STEP',
    '2023-06-30T22:51:33',
    ( '' ),
    ( '' ),
    'SwSTEP 2.0',
    'SolidWorks 2023',
    '' );
FILE_SCHEMA (( 'AUTOMOTIVE_DESIGN' ));
ENDSEC;

DATA;
#1 = VERTEX_POINT ( 'NONE', #115 ) ;
#2 = DIRECTION ( 'NONE',  ( 0.000000000000000000, -0.000000000000000000, 1.000000000000000000 ) ) ;
#3 = PRODUCT_RELATED_PRODUCT_CATEGORY ( 'part', '', ( #336 ) ) ;
#4 = ORIENTED_EDGE ( 'NONE', *, *, #329, .T. ) ;
#5 = LENGTH_MEASURE_WITH_UNIT ( LENGTH_MEASURE( 0.02539999999999999897 ), #11 );
#6 = ORIENTED_EDGE ( 'NONE', *, *, #155, .T. ) ;
#7 = AXIS2_PLACEMENT_3D ( 'NONE', #50, #362, #229 ) ;
#8 = ORIENTED_EDGE ( 'NONE', *, *, #329, .F. ) ;
#9 =( NAMED_UNIT ( * ) SI_UNIT ( $, .STERADIAN. ) SOLID_ANGLE_UNIT ( ) );
#10 = VERTEX_POINT ( 'NONE', #342 ) ;
#11 =( LENGTH_UNIT ( ) NAMED_UNIT ( * ) SI_UNIT ( $, .METRE. ) );
#12 = SURFACE_SIDE_STYLE ('',( #237 ) ) ;
#13 = AXIS2_PLACEMENT_3D ( 'NONE', #123, #189, #162 ) ;
#14 = COLOUR_RGB ( '',1.000000000000000000, 0.000000000000000000, 0.000000000000000000 ) ;
#15 = DIRECTION ( 'NONE',  ( 0.000000000000000000, 0.000000000000000000, 1.000000000000000000 ) ) ;
#16 = PRESENTATION_STYLE_ASSIGNMENT (( #158 ) ) ;
#17 =( CONVERSION_BASED_UNIT ( 'INCH', #276 ) LENGTH_UNIT ( ) NAMED_UNIT ( #71 ) );
#18 = DIRECTION ( 'NONE',  ( -1.224646799147352961E-16, 1.000000000000000000, -0.000000000000000000 ) ) ;
#19 = DIRECTION ( 'NONE',  ( -0.000000000000000000, -1.000000000000000000, -0.000000000000000000 ) ) ;
#20 = ADVANCED_FACE ( 'NONE', ( #87 ), #108, .F. ) ;
#21 = DIRECTION ( 'NONE',  ( -0.000000000000000000, -1.000000000000000000, -0.000000000000000000 ) ) ;
#22 = FILL_AREA_STYLE ('',( #327 ) ) ;
#23 = EDGE_CURVE ( 'NONE', #176, #268, #254, .T. ) ;
#24 = MECHANICAL_DESIGN_GEOMETRIC_PRESENTATION_REPRESENTATION (  '', ( #25 ), #57 ) ;
#25 = STYLED_ITEM ( 'NONE', ( #339 ), #201 ) ;
#26 = COLOUR_RGB ( '',1.000000000000000000, 0.000000000000000000, 0.000000000000000000 ) ;
#27 = CARTESIAN_POINT ( 'NONE',  ( 0.000000000000000000, 0.06250000000000005551, -0.06250000000000005551 ) ) ;
#28 = DIRECTION ( 'NONE',  ( 0.000000000000000000, 0.000000000000000000, -1.000000000000000000 ) ) ;
#29 = UNCERTAINTY_MEASURE_WITH_UNIT (LENGTH_MEASURE( 1.000000000000000082E-05 ), #65, 'distance_accuracy_value', 'NONE');
#30 = EDGE_CURVE ( 'NONE', #33, #340, #220, .T. ) ;
#31 = SURFACE_SIDE_STYLE ('',( #261 ) ) ;
#32 = UNCERTAINTY_MEASURE_WITH_UNIT (LENGTH_MEASURE( 1.000000000000000082E-05 ), #48, 'distance_accuracy_value', 'NONE');
#33 = VERTEX_POINT ( 'NONE', #302 ) ;
#34 = AXIS2_PLACEMENT_3D ( 'NONE', #138, #256, #227 ) ;
#35 = SHAPE_DEFINITION_REPRESENTATION ( #197, #355 ) ;
#36 =( GEOMETRIC_REPRESENTATION_CONTEXT ( 3 ) GLOBAL_UNCERTAINTY_ASSIGNED_CONTEXT ( ( #195 ) ) GLOBAL_UNIT_ASSIGNED_CONTEXT ( ( #370, #337, #304 ) ) REPRESENTATION_CONTEXT ( 'NONE', 'WORKASPACE' ) );
#37 = ORIENTED_EDGE ( 'NONE', *, *, #23, .F. ) ;
#38 = ORIENTED_EDGE ( 'NONE', *, *, #139, .F. ) ;
#39 = APPLICATION_CONTEXT ( 'automotive_design' ) ;
#40 = ORIENTED_EDGE ( 'NONE', *, *, #225, .T. ) ;
#41 = PRESENTATION_LAYER_ASSIGNMENT (  '', '', ( #324 ) ) ;
#42 =( GEOMETRIC_REPRESENTATION_CONTEXT ( 3 ) GLOBAL_UNCERTAINTY_ASSIGNED_CONTEXT ( ( #191 ) ) GLOBAL_UNIT_ASSIGNED_CONTEXT ( ( #264, #238, #93 ) ) REPRESENTATION_CONTEXT ( 'NONE', 'WORKASPACE' ) );
#43 = SURFACE_STYLE_FILL_AREA ( #67 ) ;
#44 = ORIENTED_EDGE ( 'NONE', *, *, #265, .T. ) ;
#45 = CARTESIAN_POINT ( 'NONE',  ( 0.000000000000000000, 0.5000000000000000000, -0.06249999999999993755 ) ) ;
#46 = CARTESIAN_POINT ( 'NONE',  ( 0.06249999999999981959, 2.500000000000000000, 7.654042494670943678E-18 ) ) ;
#47 = PRESENTATION_LAYER_ASSIGNMENT (  '', '', ( #301 ) ) ;
#48 =( CONVERSION_BASED_UNIT ( 'INCH', #365 ) LENGTH_UNIT ( ) NAMED_UNIT ( #357 ) );
#49 = SURFACE_SIDE_STYLE ('',( #330 ) ) ;
#50 = CARTESIAN_POINT ( 'NONE',  ( 0.000000000000000000, 0.06250000000000005551, 0.000000000000000000 ) ) ;
#51 = AXIS2_PLACEMENT_3D ( 'NONE', #164, #21, #81 ) ;
#52 = COLOUR_RGB ( '',0.7921568627450980005, 0.8196078431372548767, 0.9333333333333333481 ) ;
#53 = DIRECTION ( 'NONE',  ( 0.000000000000000000, 0.000000000000000000, -1.000000000000000000 ) ) ;
#54 = CARTESIAN_POINT ( 'NONE',  ( 1.836970198721029194E-16, 0.5000000000000001110, 0.000000000000000000 ) ) ;
#55 = CARTESIAN_POINT ( 'NONE',  ( 1.836970198721029194E-16, 0.5000000000000001110, 0.000000000000000000 ) ) ;
#56 = SURFACE_STYLE_FILL_AREA ( #111 ) ;
#57 =( GEOMETRIC_REPRESENTATION_CONTEXT ( 3 ) GLOBAL_UNCERTAINTY_ASSIGNED_CONTEXT ( ( #364 ) ) GLOBAL_UNIT_ASSIGNED_CONTEXT ( ( #134, #258, #259 ) ) REPRESENTATION_CONTEXT ( 'NONE', 'WORKASPACE' ) );
#58 = FACE_OUTER_BOUND ( 'NONE', #309, .T. ) ;
#59 = ORIENTED_EDGE ( 'NONE', *, *, #130, .F. ) ;
#60 = CYLINDRICAL_SURFACE ( 'NONE', #205, 0.06250000000000000000 ) ;
#61 = VERTEX_POINT ( 'NONE', #222 ) ;
#62 = PRESENTATION_LAYER_ASSIGNMENT (  '', '', ( #221 ) ) ;
#63 = FILL_AREA_STYLE_COLOUR ( '', #52 ) ;
#64 = EDGE_LOOP ( 'NONE', ( #234, #267, #37, #203 ) ) ;
#65 =( CONVERSION_BASED_UNIT ( 'INCH', #5 ) LENGTH_UNIT ( ) NAMED_UNIT ( #274 ) );
#66 = VECTOR ( 'NONE', #296, 39.37007874015748143 ) ;
#67 = FILL_AREA_STYLE ('',( #356 ) ) ;
#68 = DIRECTION ( 'NONE',  ( -1.224646799147352961E-16, 1.000000000000000000, -0.000000000000000000 ) ) ;
#69 = PRESENTATION_STYLE_ASSIGNMENT (( #350 ) ) ;
#70 = FACE_OUTER_BOUND ( 'NONE', #236, .T. ) ;
#71 = DIMENSIONAL_EXPONENTS ( 1.000000000000000000, 0.000000000000000000, 0.000000000000000000, 0.000000000000000000, 0.000000000000000000, 0.000000000000000000, 0.000000000000000000 ) ;
#72 = CIRCLE ( 'NONE', #119, 0.06250000000000002776 ) ;
#73 = AXIS2_PLACEMENT_3D ( 'NONE', #127, #15, #246 ) ;
#74 = DIRECTION ( 'NONE',  ( 1.224646799147353207E-16, -0.000000000000000000, 1.000000000000000000 ) ) ;
#75 = FACE_OUTER_BOUND ( 'NONE', #200, .T. ) ;
#76 = CYLINDRICAL_SURFACE ( 'NONE', #91, 0.06249999999999988204 ) ;
#77 = EDGE_CURVE ( 'NONE', #1, #61, #140, .T. ) ;
#78 = SURFACE_SIDE_STYLE ('',( #326 ) ) ;
#79 = APPLICATION_CONTEXT ( 'automotive_design' ) ;
#80 = DIRECTION ( 'NONE',  ( 1.000000000000000000, 0.000000000000000000, -1.224646799147353207E-16 ) ) ;
#81 = DIRECTION ( 'NONE',  ( 0.000000000000000000, 0.000000000000000000, -1.000000000000000000 ) ) ;
#82 = PRESENTATION_STYLE_ASSIGNMENT (( #335 ) ) ;
#83 = AXIS2_PLACEMENT_3D ( 'NONE', #170, #112, #84 ) ;
#84 = DIRECTION ( 'NONE',  ( 1.000000000000000000, 0.000000000000000000, 0.000000000000000000 ) ) ;
#85 = ORIENTED_EDGE ( 'NONE', *, *, #196, .T. ) ;
#86 = CARTESIAN_POINT ( 'NONE',  ( 0.000000000000000000, 0.5000000000000000000, 0.000000000000000000 ) ) ;
#87 = FACE_OUTER_BOUND ( 'NONE', #263, .T. ) ;
#88 = LINE ( 'NONE', #194, #241 ) ;
#89 = VERTEX_POINT ( 'NONE', #154 ) ;
#90 = EDGE_CURVE ( 'NONE', #89, #10, #190, .T. ) ;
#91 = AXIS2_PLACEMENT_3D ( 'NONE', #363, #165, #219 ) ;
#92 = AXIS2_PLACEMENT_3D ( 'NONE', #105, #74, #80 ) ;
#93 =( NAMED_UNIT ( * ) SI_UNIT ( $, .STERADIAN. ) SOLID_ANGLE_UNIT ( ) );
#94 = ORIENTED_EDGE ( 'NONE', *, *, #30, .T. ) ;
#95 = ORIENTED_EDGE ( 'NONE', *, *, #196, .F. ) ;
#96 = FACE_OUTER_BOUND ( 'NONE', #141, .T. ) ;
#97 = AXIS2_PLACEMENT_3D ( 'NONE', #54, #18, #277 ) ;
#98 = AXIS2_PLACEMENT_3D ( 'NONE', #160, #19, #53 ) ;
#99 = CARTESIAN_POINT ( 'NONE',  ( 0.000000000000000000, 0.06250000000000005551, 0.000000000000000000 ) ) ;
#100 = FACE_OUTER_BOUND ( 'NONE', #346, .T. ) ;
#101 = EDGE_CURVE ( 'NONE', #61, #268, #252, .T. ) ;
#102 = DIRECTION ( 'NONE',  ( 0.000000000000000000, 0.000000000000000000, -1.000000000000000000 ) ) ;
#103 =( NAMED_UNIT ( * ) PLANE_ANGLE_UNIT ( ) SI_UNIT ( $, .RADIAN. ) );
#104 = DIRECTION ( 'NONE',  ( -1.224646799147352961E-16, 1.000000000000000000, -0.000000000000000000 ) ) ;
#105 = CARTESIAN_POINT ( 'NONE',  ( -7.654042494670957545E-18, 0.06250000000000001388, 0.000000000000000000 ) ) ;
#106 = DIRECTION ( 'NONE',  ( -1.000000000000000000, 0.000000000000000000, 0.000000000000000000 ) ) ;
#107 = CARTESIAN_POINT ( 'NONE',  ( -6.123233995736766036E-17, 2.500000000000000000, 0.000000000000000000 ) ) ;
#108 = PLANE ( 'NONE',  #13 ) ;
#109 = MECHANICAL_DESIGN_GEOMETRIC_PRESENTATION_REPRESENTATION (  '', ( #324 ), #292 ) ;
#110 = MECHANICAL_DESIGN_GEOMETRIC_PRESENTATION_REPRESENTATION (  '', ( #221 ), #133 ) ;
#111 = FILL_AREA_STYLE ('',( #63 ) ) ;
#112 = DIRECTION ( 'NONE',  ( 0.000000000000000000, 0.000000000000000000, 1.000000000000000000 ) ) ;
#113 = CIRCLE ( 'NONE', #92, 0.06250000000000002776 ) ;
#114 = DIRECTION ( 'NONE',  ( 0.000000000000000000, 1.000000000000000000, 0.000000000000000000 ) ) ;
#115 = CARTESIAN_POINT ( 'NONE',  ( -0.06249999999999956285, 0.5000000000000001110, 0.000000000000000000 ) ) ;
#116 = ADVANCED_FACE ( 'NONE', ( #96 ), #354, .F. ) ;
#117 = DIMENSIONAL_EXPONENTS ( 1.000000000000000000, 0.000000000000000000, 0.000000000000000000, 0.000000000000000000, 0.000000000000000000, 0.000000000000000000, 0.000000000000000000 ) ;
#118 = ORIENTED_EDGE ( 'NONE', *, *, #328, .F. ) ;
#119 = AXIS2_PLACEMENT_3D ( 'NONE', #358, #102, #247 ) ;
#120 = SURFACE_STYLE_USAGE ( .BOTH. , #151 ) ;
#121 = PRESENTATION_STYLE_ASSIGNMENT (( #120 ) ) ;
#122 = CARTESIAN_POINT ( 'NONE',  ( 0.000000000000000000, 0.000000000000000000, -0.06250000000000000000 ) ) ;
#123 = CARTESIAN_POINT ( 'NONE',  ( 1.836970198721029441E-16, 0.5000000000000000000, 0.000000000000000000 ) ) ;
#124 = COLOUR_RGB ( '',1.000000000000000000, 0.000000000000000000, 0.000000000000000000 ) ;
#125 = CARTESIAN_POINT ( 'NONE',  ( 0.06249999999999993755, 2.500000000000000000, 7.654042494670949841E-18 ) ) ;
#126 = DIMENSIONAL_EXPONENTS ( 1.000000000000000000, 0.000000000000000000, 0.000000000000000000, 0.000000000000000000, 0.000000000000000000, 0.000000000000000000, 0.000000000000000000 ) ;
#127 = CARTESIAN_POINT ( 'NONE',  ( -7.654042494670957545E-18, 0.06250000000000001388, 0.000000000000000000 ) ) ;
#128 = FILL_AREA_STYLE ('',( #163 ) ) ;
#129 = DIRECTION ( 'NONE',  ( 1.224646799147352961E-16, -1.000000000000000000, 0.000000000000000000 ) ) ;
#130 = EDGE_CURVE ( 'NONE', #152, #89, #300, .T. ) ;
#131 = DIRECTION ( 'NONE',  ( -0.000000000000000000, -1.000000000000000000, -0.000000000000000000 ) ) ;
#132 = AXIS2_PLACEMENT_3D ( 'NONE', #86, #114, #2 ) ;
#133 =( GEOMETRIC_REPRESENTATION_CONTEXT ( 3 ) GLOBAL_UNCERTAINTY_ASSIGNED_CONTEXT ( ( #167 ) ) GLOBAL_UNIT_ASSIGNED_CONTEXT ( ( #17, #103, #333 ) ) REPRESENTATION_CONTEXT ( 'NONE', 'WORKASPACE' ) );
#134 =( CONVERSION_BASED_UNIT ( 'INCH', #199 ) LENGTH_UNIT ( ) NAMED_UNIT ( #314 ) );
#135 = LENGTH_MEASURE_WITH_UNIT ( LENGTH_MEASURE( 0.02539999999999999897 ), #305 );
#136 = PRODUCT_DEFINITION_CONTEXT ( 'detailed design', #79, 'design' ) ;
#137 = DIRECTION ( 'NONE',  ( 0.000000000000000000, 0.000000000000000000, 1.000000000000000000 ) ) ;
#138 = CARTESIAN_POINT ( 'NONE',  ( -6.123233995736766036E-17, 2.500000000000000000, 0.000000000000000000 ) ) ;
#139 = EDGE_CURVE ( 'NONE', #206, #10, #332, .T. ) ;
#140 = CIRCLE ( 'NONE', #97, 0.06249999999999975020 ) ;
#141 = EDGE_LOOP ( 'NONE', ( #288, #290 ) ) ;
#142 = SURFACE_STYLE_USAGE ( .BOTH. , #31 ) ;
#143 = ORIENTED_EDGE ( 'NONE', *, *, #139, .T. ) ;
#144 = CYLINDRICAL_SURFACE ( 'NONE', #98, 0.06250000000000000000 ) ;
#145 = VERTEX_POINT ( 'NONE', #179 ) ;
#146 = FILL_AREA_STYLE ('',( #212 ) ) ;
#147 = AXIS2_PLACEMENT_3D ( 'NONE', #303, #68, #250 ) ;
#148 = ORIENTED_EDGE ( 'NONE', *, *, #321, .T. ) ;
#149 = PRESENTATION_LAYER_ASSIGNMENT (  '', '', ( #161 ) ) ;
#150 = AXIS2_PLACEMENT_3D ( 'NONE', #198, #137, #192 ) ;
#151 = SURFACE_SIDE_STYLE ('',( #43 ) ) ;
#152 = VERTEX_POINT ( 'NONE', #45 ) ;
#153 = LENGTH_MEASURE_WITH_UNIT ( LENGTH_MEASURE( 0.02539999999999999897 ), #211 );
#154 = CARTESIAN_POINT ( 'NONE',  ( 7.654042494670954463E-18, 0.5000000000000000000, 0.06249999999999993755 ) ) ;
#155 = EDGE_CURVE ( 'NONE', #61, #1, #188, .T. ) ;
#156 = DIRECTION ( 'NONE',  ( 0.000000000000000000, 0.000000000000000000, -1.000000000000000000 ) ) ;
#157 = ADVANCED_FACE ( 'NONE', ( #272 ), #76, .T. ) ;
#158 = SURFACE_STYLE_USAGE ( .BOTH. , #78 ) ;
#159 = VECTOR ( 'NONE', #104, 39.37007874015748143 ) ;
#160 = CARTESIAN_POINT ( 'NONE',  ( 0.000000000000000000, 0.000000000000000000, 0.000000000000000000 ) ) ;
#161 = STYLED_ITEM ( 'NONE', ( #316 ), #244 ) ;
#162 = DIRECTION ( 'NONE',  ( -1.000000000000000000, -1.224646799147352961E-16, 0.000000000000000000 ) ) ;
#163 = FILL_AREA_STYLE_COLOUR ( '', #26 ) ;
#164 = CARTESIAN_POINT ( 'NONE',  ( 0.000000000000000000, 0.06250000000000005551, 0.000000000000000000 ) ) ;
#165 = DIRECTION ( 'NONE',  ( -1.224646799147352961E-16, 1.000000000000000000, -0.000000000000000000 ) ) ;
#166 =( LENGTH_UNIT ( ) NAMED_UNIT ( * ) SI_UNIT ( $, .METRE. ) );
#167 = UNCERTAINTY_MEASURE_WITH_UNIT (LENGTH_MEASURE( 1.000000000000000082E-05 ), #17, 'distance_accuracy_value', 'NONE');
#168 = FILL_AREA_STYLE_COLOUR ( '', #183 ) ;
#169 = ADVANCED_FACE ( 'NONE', ( #280 ), #271, .T. ) ;
#170 = CARTESIAN_POINT ( 'NONE',  ( -7.654042494670957545E-18, 0.06250000000000001388, 0.000000000000000000 ) ) ;
#171 = ORIENTED_EDGE ( 'NONE', *, *, #101, .F. ) ;
#172 = FILL_AREA_STYLE ('',( #168 ) ) ;
#173 = CIRCLE ( 'NONE', #248, 0.06249999999999993755 ) ;
#174 = ORIENTED_EDGE ( 'NONE', *, *, #77, .F. ) ;
#175 = DIRECTION ( 'NONE',  ( -1.224646799147352961E-16, 1.000000000000000000, -0.000000000000000000 ) ) ;
#176 = VERTEX_POINT ( 'NONE', #285 ) ;
#177 = CLOSED_SHELL ( 'NONE', ( #201, #253, #169, #270, #323 ) ) ;
#178 = ORIENTED_EDGE ( 'NONE', *, *, #321, .F. ) ;
#179 = CARTESIAN_POINT ( 'NONE',  ( -3.827021247335477232E-18, -1.707404996040164512E-17, 0.000000000000000000 ) ) ;
#180 = CARTESIAN_POINT ( 'NONE',  ( 0.000000000000000000, 0.000000000000000000, 0.000000000000000000 ) ) ;
#181 = LENGTH_MEASURE_WITH_UNIT ( LENGTH_MEASURE( 0.02539999999999999897 ), #209 );
#182 = PRESENTATION_LAYER_ASSIGNMENT (  '', '', ( #25 ) ) ;
#183 = COLOUR_RGB ( '',1.000000000000000000, 0.000000000000000000, 0.000000000000000000 ) ;
#184 = PRODUCT_DEFINITION ( 'UNKNOWN', '', #242, #136 ) ;
#185 = DIRECTION ( 'NONE',  ( -1.000000000000000000, 0.000000000000000000, 0.000000000000000000 ) ) ;
#186 = FILL_AREA_STYLE ('',( #216 ) ) ;
#187 =( CONVERSION_BASED_UNIT ( 'INCH', #181 ) LENGTH_UNIT ( ) NAMED_UNIT ( #322 ) );
#188 = CIRCLE ( 'NONE', #193, 0.06249999999999975020 ) ;
#189 = DIRECTION ( 'NONE',  ( -1.224646799147352961E-16, 1.000000000000000000, 0.000000000000000000 ) ) ;
#190 = LINE ( 'NONE', #279, #359 ) ;
#191 = UNCERTAINTY_MEASURE_WITH_UNIT (LENGTH_MEASURE( 1.000000000000000082E-05 ), #264, 'distance_accuracy_value', 'NONE');
#192 = DIRECTION ( 'NONE',  ( 1.000000000000000000, 0.000000000000000000, 0.000000000000000000 ) ) ;
#193 = AXIS2_PLACEMENT_3D ( 'NONE', #55, #217, #106 ) ;
#194 = CARTESIAN_POINT ( 'NONE',  ( -0.06249999999999993755, 2.500000000000000000, 0.000000000000000000 ) ) ;
#195 = UNCERTAINTY_MEASURE_WITH_UNIT (LENGTH_MEASURE( 1.000000000000000082E-05 ), #370, 'distance_accuracy_value', 'NONE');
#196 = EDGE_CURVE ( 'NONE', #89, #152, #173, .T. ) ;
#197 = PRODUCT_DEFINITION_SHAPE ( 'NONE', 'NONE',  #184 ) ;
#198 = CARTESIAN_POINT ( 'NONE',  ( 0.000000000000000000, 0.000000000000000000, 0.000000000000000000 ) ) ;
#199 = LENGTH_MEASURE_WITH_UNIT ( LENGTH_MEASURE( 0.02539999999999999897 ), #166 );
#200 = EDGE_LOOP ( 'NONE', ( #178, #94, #40, #348 ) ) ;
#201 = ADVANCED_FACE ( 'NONE', ( #58 ), #371, .T. ) ;
#202 = CARTESIAN_POINT ( 'NONE',  ( 0.000000000000000000, 0.06250000000000005551, 0.000000000000000000 ) ) ;
#203 = ORIENTED_EDGE ( 'NONE', *, *, #210, .F. ) ;
#204 = CYLINDRICAL_SURFACE ( 'NONE', #34, 0.06249999999999988204 ) ;
#205 = AXIS2_PLACEMENT_3D ( 'NONE', #180, #349, #318 ) ;
#206 = VERTEX_POINT ( 'NONE', #230 ) ;
#207 = ORIENTED_EDGE ( 'NONE', *, *, #130, .T. ) ;
#208 = SURFACE_SIDE_STYLE ('',( #351 ) ) ;
#209 =( LENGTH_UNIT ( ) NAMED_UNIT ( * ) SI_UNIT ( $, .METRE. ) );
#210 = EDGE_CURVE ( 'NONE', #1, #176, #88, .T. ) ;
#211 =( LENGTH_UNIT ( ) NAMED_UNIT ( * ) SI_UNIT ( $, .METRE. ) );
#212 = FILL_AREA_STYLE_COLOUR ( '', #308 ) ;
#213 =( LENGTH_UNIT ( ) NAMED_UNIT ( * ) SI_UNIT ( $, .METRE. ) );
#214 = CIRCLE ( 'NONE', #266, 0.06250000000000005551 ) ;
#215 =( NAMED_UNIT ( * ) PLANE_ANGLE_UNIT ( ) SI_UNIT ( $, .RADIAN. ) );
#216 = FILL_AREA_STYLE_COLOUR ( '', #14 ) ;
#217 = DIRECTION ( 'NONE',  ( -1.224646799147352961E-16, 1.000000000000000000, -0.000000000000000000 ) ) ;
#218 = SURFACE_STYLE_USAGE ( .BOTH. , #49 ) ;
#219 = DIRECTION ( 'NONE',  ( -1.000000000000000000, 0.000000000000000000, 0.000000000000000000 ) ) ;
#220 = CIRCLE ( 'NONE', #51, 0.06250000000000005551 ) ;
#221 = STYLED_ITEM ( 'NONE', ( #298 ), #323 ) ;
#222 = CARTESIAN_POINT ( 'NONE',  ( 0.06249999999999993755, 0.5000000000000001110, 7.654042494670949841E-18 ) ) ;
#223 = ADVANCED_FACE ( 'NONE', ( #228 ), #204, .T. ) ;
#224 = SURFACE_SIDE_STYLE ('',( #56 ) ) ;
#225 = EDGE_CURVE ( 'NONE', #340, #206, #214, .T. ) ;
#226 = LENGTH_MEASURE_WITH_UNIT ( LENGTH_MEASURE( 0.02539999999999999897 ), #257 );
#227 = DIRECTION ( 'NONE',  ( -1.000000000000000000, 0.000000000000000000, 0.000000000000000000 ) ) ;
#228 = FACE_OUTER_BOUND ( 'NONE', #64, .T. ) ;
#229 = DIRECTION ( 'NONE',  ( 0.000000000000000000, 0.000000000000000000, -1.000000000000000000 ) ) ;
#230 = CARTESIAN_POINT ( 'NONE',  ( 0.06250000000000002776, 0.06250000000000005551, 0.000000000000000000 ) ) ;
#231 = ORIENTED_EDGE ( 'NONE', *, *, #265, .F. ) ;
#232 = EDGE_LOOP ( 'NONE', ( #171, #6, #315, #286 ) ) ;
#233 = STYLED_ITEM ( 'NONE', ( #121 ), #253 ) ;
#234 = ORIENTED_EDGE ( 'NONE', *, *, #77, .T. ) ;
#235 = SURFACE_STYLE_USAGE ( .BOTH. , #208 ) ;
#236 = EDGE_LOOP ( 'NONE', ( #207, #313, #38, #317, #231 ) ) ;
#237 = SURFACE_STYLE_FILL_AREA ( #22 ) ;
#238 =( NAMED_UNIT ( * ) PLANE_ANGLE_UNIT ( ) SI_UNIT ( $, .RADIAN. ) );
#239 = COLOUR_RGB ( '',1.000000000000000000, 0.000000000000000000, 0.000000000000000000 ) ;
#240 = DIRECTION ( 'NONE',  ( -0.000000000000000000, -1.000000000000000000, -0.000000000000000000 ) ) ;
#241 = VECTOR ( 'NONE', #175, 39.37007874015748143 ) ;
#242 = PRODUCT_DEFINITION_FORMATION_WITH_SPECIFIED_SOURCE ( 'ANY', '', #336, .NOT_KNOWN. ) ;
#243 = MANIFOLD_SOLID_BREP ( 'Revolve - Tool Body (Straight Shanked)', #260 ) ;
#244 = MANIFOLD_SOLID_BREP ( 'Revolve - Cutting Edge', #177 ) ;
#245 = DIRECTION ( 'NONE',  ( 1.000000000000000000, 1.224646799147352961E-16, 0.000000000000000000 ) ) ;
#246 = DIRECTION ( 'NONE',  ( 1.000000000000000000, 0.000000000000000000, 0.000000000000000000 ) ) ;
#247 = DIRECTION ( 'NONE',  ( -1.000000000000000000, 0.000000000000000000, 0.000000000000000000 ) ) ;
#248 = AXIS2_PLACEMENT_3D ( 'NONE', #341, #369, #28 ) ;
#249 =( GEOMETRIC_REPRESENTATION_CONTEXT ( 3 ) GLOBAL_UNCERTAINTY_ASSIGNED_CONTEXT ( ( #281 ) ) GLOBAL_UNIT_ASSIGNED_CONTEXT ( ( #269, #347, #9 ) ) REPRESENTATION_CONTEXT ( 'NONE', 'WORKASPACE' ) );
#250 = DIRECTION ( 'NONE',  ( -1.000000000000000000, 0.000000000000000000, 0.000000000000000000 ) ) ;
#251 =( LENGTH_UNIT ( ) NAMED_UNIT ( * ) SI_UNIT ( $, .METRE. ) );
#252 = LINE ( 'NONE', #46, #159 ) ;
#253 = ADVANCED_FACE ( 'NONE', ( #70 ), #60, .T. ) ;
#254 = CIRCLE ( 'NONE', #147, 0.06250000000000000000 ) ;
#255 = AXIS2_PLACEMENT_3D ( 'NONE', #107, #278, #185 ) ;
#256 = DIRECTION ( 'NONE',  ( -1.224646799147352961E-16, 1.000000000000000000, -0.000000000000000000 ) ) ;
#257 =( LENGTH_UNIT ( ) NAMED_UNIT ( * ) SI_UNIT ( $, .METRE. ) );
#258 =( NAMED_UNIT ( * ) PLANE_ANGLE_UNIT ( ) SI_UNIT ( $, .RADIAN. ) );
#259 =( NAMED_UNIT ( * ) SI_UNIT ( $, .STERADIAN. ) SOLID_ANGLE_UNIT ( ) );
#260 = CLOSED_SHELL ( 'NONE', ( #223, #20, #157, #116 ) ) ;
#261 = SURFACE_STYLE_FILL_AREA ( #172 ) ;
#262 = EDGE_LOOP ( 'NONE', ( #59, #95 ) ) ;
#263 = EDGE_LOOP ( 'NONE', ( #174, #310 ) ) ;
#264 =( CONVERSION_BASED_UNIT ( 'INCH', #135 ) LENGTH_UNIT ( ) NAMED_UNIT ( #126 ) );
#265 = EDGE_CURVE ( 'NONE', #152, #340, #295, .T. ) ;
#266 = AXIS2_PLACEMENT_3D ( 'NONE', #202, #311, #368 ) ;
#267 = ORIENTED_EDGE ( 'NONE', *, *, #101, .T. ) ;
#268 = VERTEX_POINT ( 'NONE', #125 ) ;
#269 =( CONVERSION_BASED_UNIT ( 'INCH', #153 ) LENGTH_UNIT ( ) NAMED_UNIT ( #297 ) );
#270 = ADVANCED_FACE ( 'NONE', ( #100 ), #144, .T. ) ;
#271 = PLANE ( 'NONE',  #132 ) ;
#272 = FACE_OUTER_BOUND ( 'NONE', #232, .T. ) ;
#273 = MECHANICAL_DESIGN_GEOMETRIC_PRESENTATION_REPRESENTATION (  '', ( #301 ), #312 ) ;
#274 = DIMENSIONAL_EXPONENTS ( 1.000000000000000000, 0.000000000000000000, 0.000000000000000000, 0.000000000000000000, 0.000000000000000000, 0.000000000000000000, 0.000000000000000000 ) ;
#275 = SPHERICAL_SURFACE ( 'NONE', #73, 0.06250000000000002776 ) ;
#276 = LENGTH_MEASURE_WITH_UNIT ( LENGTH_MEASURE( 0.02539999999999999897 ), #251 );
#277 = DIRECTION ( 'NONE',  ( -1.000000000000000000, 0.000000000000000000, 0.000000000000000000 ) ) ;
#278 = DIRECTION ( 'NONE',  ( -1.224646799147352961E-16, 1.000000000000000000, -0.000000000000000000 ) ) ;
#279 = CARTESIAN_POINT ( 'NONE',  ( 7.654042494670957545E-18, 0.000000000000000000, 0.06250000000000000000 ) ) ;
#280 = FACE_OUTER_BOUND ( 'NONE', #262, .T. ) ;
#281 = UNCERTAINTY_MEASURE_WITH_UNIT (LENGTH_MEASURE( 1.000000000000000082E-05 ), #269, 'distance_accuracy_value', 'NONE');
#282 = AXIS2_PLACEMENT_3D ( 'NONE', #99, #240, #156 ) ;
#283 = PRESENTATION_LAYER_ASSIGNMENT (  '', '', ( #233 ) ) ;
#284 = APPLICATION_PROTOCOL_DEFINITION ( 'draft international standard', 'automotive_design', 1998, #79 ) ;
#285 = CARTESIAN_POINT ( 'NONE',  ( -0.06250000000000005551, 2.500000000000000000, 0.000000000000000000 ) ) ;
#286 = ORIENTED_EDGE ( 'NONE', *, *, #307, .F. ) ;
#287 = PRESENTATION_LAYER_ASSIGNMENT (  '', '', ( #360 ) ) ;
#288 = ORIENTED_EDGE ( 'NONE', *, *, #23, .T. ) ;
#289 =( NAMED_UNIT ( * ) PLANE_ANGLE_UNIT ( ) SI_UNIT ( $, .RADIAN. ) );
#290 = ORIENTED_EDGE ( 'NONE', *, *, #307, .T. ) ;
#291 =( NAMED_UNIT ( * ) SI_UNIT ( $, .STERADIAN. ) SOLID_ANGLE_UNIT ( ) );
#292 =( GEOMETRIC_REPRESENTATION_CONTEXT ( 3 ) GLOBAL_UNCERTAINTY_ASSIGNED_CONTEXT ( ( #306 ) ) GLOBAL_UNIT_ASSIGNED_CONTEXT ( ( #187, #361, #373 ) ) REPRESENTATION_CONTEXT ( 'NONE', 'WORKASPACE' ) );
#293 =( GEOMETRIC_REPRESENTATION_CONTEXT ( 3 ) GLOBAL_UNCERTAINTY_ASSIGNED_CONTEXT ( ( #29 ) ) GLOBAL_UNIT_ASSIGNED_CONTEXT ( ( #65, #289, #291 ) ) REPRESENTATION_CONTEXT ( 'NONE', 'WORKASPACE' ) );
#294 = ORIENTED_EDGE ( 'NONE', *, *, #90, .F. ) ;
#295 = LINE ( 'NONE', #122, #66 ) ;
#296 = DIRECTION ( 'NONE',  ( -0.000000000000000000, -1.000000000000000000, -0.000000000000000000 ) ) ;
#297 = DIMENSIONAL_EXPONENTS ( 1.000000000000000000, 0.000000000000000000, 0.000000000000000000, 0.000000000000000000, 0.000000000000000000, 0.000000000000000000, 0.000000000000000000 ) ;
#298 = PRESENTATION_STYLE_ASSIGNMENT (( #218 ) ) ;
#299 =( NAMED_UNIT ( * ) SI_UNIT ( $, .STERADIAN. ) SOLID_ANGLE_UNIT ( ) );
#300 = CIRCLE ( 'NONE', #352, 0.06249999999999993755 ) ;
#301 = STYLED_ITEM ( 'NONE', ( #16 ), #270 ) ;
#302 = CARTESIAN_POINT ( 'NONE',  ( -0.06250000000000005551, 0.06250000000000005551, 7.654042494670963708E-18 ) ) ;
#303 = CARTESIAN_POINT ( 'NONE',  ( -6.123233995736766036E-17, 2.500000000000000000, 0.000000000000000000 ) ) ;
#304 =( NAMED_UNIT ( * ) SI_UNIT ( $, .STERADIAN. ) SOLID_ANGLE_UNIT ( ) );
#305 =( LENGTH_UNIT ( ) NAMED_UNIT ( * ) SI_UNIT ( $, .METRE. ) );
#306 = UNCERTAINTY_MEASURE_WITH_UNIT (LENGTH_MEASURE( 1.000000000000000082E-05 ), #187, 'distance_accuracy_value', 'NONE');
#307 = EDGE_CURVE ( 'NONE', #268, #176, #353, .T. ) ;
#308 = COLOUR_RGB ( '',0.7921568627450980005, 0.8196078431372548767, 0.9333333333333333481 ) ;
#309 = EDGE_LOOP ( 'NONE', ( #4, #148, #118, #143 ) ) ;
#310 = ORIENTED_EDGE ( 'NONE', *, *, #155, .F. ) ;
#311 = DIRECTION ( 'NONE',  ( -0.000000000000000000, -1.000000000000000000, -0.000000000000000000 ) ) ;
#312 =( GEOMETRIC_REPRESENTATION_CONTEXT ( 3 ) GLOBAL_UNCERTAINTY_ASSIGNED_CONTEXT ( ( #32 ) ) GLOBAL_UNIT_ASSIGNED_CONTEXT ( ( #48, #215, #299 ) ) REPRESENTATION_CONTEXT ( 'NONE', 'WORKASPACE' ) );
#313 = ORIENTED_EDGE ( 'NONE', *, *, #90, .T. ) ;
#314 = DIMENSIONAL_EXPONENTS ( 1.000000000000000000, 0.000000000000000000, 0.000000000000000000, 0.000000000000000000, 0.000000000000000000, 0.000000000000000000, 0.000000000000000000 ) ;
#315 = ORIENTED_EDGE ( 'NONE', *, *, #210, .T. ) ;
#316 = PRESENTATION_STYLE_ASSIGNMENT (( #235 ) ) ;
#317 = ORIENTED_EDGE ( 'NONE', *, *, #225, .F. ) ;
#318 = DIRECTION ( 'NONE',  ( 0.000000000000000000, 0.000000000000000000, -1.000000000000000000 ) ) ;
#319 = MECHANICAL_DESIGN_GEOMETRIC_PRESENTATION_REPRESENTATION (  '', ( #161 ), #293 ) ;
#320 = DIRECTION ( 'NONE',  ( -0.000000000000000000, -1.000000000000000000, -0.000000000000000000 ) ) ;
#321 = EDGE_CURVE ( 'NONE', #33, #145, #113, .T. ) ;
#322 = DIMENSIONAL_EXPONENTS ( 1.000000000000000000, 0.000000000000000000, 0.000000000000000000, 0.000000000000000000, 0.000000000000000000, 0.000000000000000000, 0.000000000000000000 ) ;
#323 = ADVANCED_FACE ( 'NONE', ( #75 ), #275, .T. ) ;
#324 = STYLED_ITEM ( 'NONE', ( #69 ), #169 ) ;
#325 = CIRCLE ( 'NONE', #7, 0.06250000000000005551 ) ;
#326 = SURFACE_STYLE_FILL_AREA ( #186 ) ;
#327 = FILL_AREA_STYLE_COLOUR ( '', #239 ) ;
#328 = EDGE_CURVE ( 'NONE', #206, #145, #72, .T. ) ;
#329 = EDGE_CURVE ( 'NONE', #10, #33, #325, .T. ) ;
#330 = SURFACE_STYLE_FILL_AREA ( #128 ) ;
#331 = CARTESIAN_POINT ( 'NONE',  ( 0.06249999999999993755, 2.500000000000000000, 0.000000000000000000 ) ) ;
#332 = CIRCLE ( 'NONE', #282, 0.06250000000000005551 ) ;
#333 =( NAMED_UNIT ( * ) SI_UNIT ( $, .STERADIAN. ) SOLID_ANGLE_UNIT ( ) );
#334 = DIRECTION ( 'NONE',  ( 0.000000000000000000, 0.000000000000000000, -1.000000000000000000 ) ) ;
#335 = SURFACE_STYLE_USAGE ( .BOTH. , #224 ) ;
#336 = PRODUCT ( '83277', '83277', '', ( #338 ) ) ;
#337 =( NAMED_UNIT ( * ) PLANE_ANGLE_UNIT ( ) SI_UNIT ( $, .RADIAN. ) );
#338 = PRODUCT_CONTEXT ( 'NONE', #39, 'mechanical' ) ;
#339 = PRESENTATION_STYLE_ASSIGNMENT (( #142 ) ) ;
#340 = VERTEX_POINT ( 'NONE', #27 ) ;
#341 = CARTESIAN_POINT ( 'NONE',  ( 0.000000000000000000, 0.5000000000000000000, 0.000000000000000000 ) ) ;
#342 = CARTESIAN_POINT ( 'NONE',  ( 7.654042494670963708E-18, 0.06250000000000005551, 0.06250000000000005551 ) ) ;
#343 = ORIENTED_EDGE ( 'NONE', *, *, #30, .F. ) ;
#344 = AXIS2_PLACEMENT_3D ( 'NONE', #331, #129, #245 ) ;
#345 = MECHANICAL_DESIGN_GEOMETRIC_PRESENTATION_REPRESENTATION (  '', ( #360 ), #42 ) ;
#346 = EDGE_LOOP ( 'NONE', ( #294, #85, #44, #343, #8 ) ) ;
#347 =( NAMED_UNIT ( * ) PLANE_ANGLE_UNIT ( ) SI_UNIT ( $, .RADIAN. ) );
#348 = ORIENTED_EDGE ( 'NONE', *, *, #328, .T. ) ;
#349 = DIRECTION ( 'NONE',  ( -0.000000000000000000, -1.000000000000000000, -0.000000000000000000 ) ) ;
#350 = SURFACE_STYLE_USAGE ( .BOTH. , #12 ) ;
#351 = SURFACE_STYLE_FILL_AREA ( #146 ) ;
#352 = AXIS2_PLACEMENT_3D ( 'NONE', #366, #320, #334 ) ;
#353 = CIRCLE ( 'NONE', #255, 0.06250000000000000000 ) ;
#354 = PLANE ( 'NONE',  #344 ) ;
#355 = ADVANCED_BREP_SHAPE_REPRESENTATION ( '83277', ( #244, #243, #150 ), #36 ) ;
#356 = FILL_AREA_STYLE_COLOUR ( '', #124 ) ;
#357 = DIMENSIONAL_EXPONENTS ( 1.000000000000000000, 0.000000000000000000, 0.000000000000000000, 0.000000000000000000, 0.000000000000000000, 0.000000000000000000, 0.000000000000000000 ) ;
#358 = CARTESIAN_POINT ( 'NONE',  ( -7.654042494670957545E-18, 0.06250000000000001388, 0.000000000000000000 ) ) ;
#359 = VECTOR ( 'NONE', #131, 39.37007874015748143 ) ;
#360 = STYLED_ITEM ( 'NONE', ( #82 ), #243 ) ;
#361 =( NAMED_UNIT ( * ) PLANE_ANGLE_UNIT ( ) SI_UNIT ( $, .RADIAN. ) );
#362 = DIRECTION ( 'NONE',  ( -0.000000000000000000, -1.000000000000000000, -0.000000000000000000 ) ) ;
#363 = CARTESIAN_POINT ( 'NONE',  ( -6.123233995736766036E-17, 2.500000000000000000, 0.000000000000000000 ) ) ;
#364 = UNCERTAINTY_MEASURE_WITH_UNIT (LENGTH_MEASURE( 1.000000000000000082E-05 ), #134, 'distance_accuracy_value', 'NONE');
#365 = LENGTH_MEASURE_WITH_UNIT ( LENGTH_MEASURE( 0.02539999999999999897 ), #213 );
#366 = CARTESIAN_POINT ( 'NONE',  ( 0.000000000000000000, 0.5000000000000000000, 0.000000000000000000 ) ) ;
#367 = APPLICATION_PROTOCOL_DEFINITION ( 'draft international standard', 'automotive_design', 1998, #39 ) ;
#368 = DIRECTION ( 'NONE',  ( 0.000000000000000000, 0.000000000000000000, -1.000000000000000000 ) ) ;
#369 = DIRECTION ( 'NONE',  ( -0.000000000000000000, -1.000000000000000000, -0.000000000000000000 ) ) ;
#370 =( CONVERSION_BASED_UNIT ( 'INCH', #226 ) LENGTH_UNIT ( ) NAMED_UNIT ( #117 ) );
#371 = SPHERICAL_SURFACE ( 'NONE', #83, 0.06250000000000002776 ) ;
#372 = MECHANICAL_DESIGN_GEOMETRIC_PRESENTATION_REPRESENTATION (  '', ( #233 ), #249 ) ;
#373 =( NAMED_UNIT ( * ) SI_UNIT ( $, .STERADIAN. ) SOLID_ANGLE_UNIT ( ) );
ENDSEC;
END-ISO-10303-21;
