ISO-10303-21;
HEADER;
FILE_DESCRIPTION (( 'STEP AP214' ),
    '1' );
FILE_NAME ('05157.STEP',
    '2023-06-22T15:54:41',
    ( '' ),
    ( '' ),
    'SwSTEP 2.0',
    'SolidWorks 2023',
    '' );
FILE_SCHEMA (( 'AUTOMOTIVE_DESIGN' ));
ENDSEC;

DATA;
#1 = COLOUR_RGB ( '',1.000000000000000000, 0.000000000000000000, 0.000000000000000000 ) ;
#2 =( GEOMETRIC_REPRESENTATION_CONTEXT ( 3 ) GLOBAL_UNCERTAINTY_ASSIGNED_CONTEXT ( ( #129 ) ) GLOBAL_UNIT_ASSIGNED_CONTEXT ( ( #92, #211, #181 ) ) REPRESENTATION_CONTEXT ( 'NONE', 'WORKASPACE' ) );
#3 = ADVANCED_FACE ( 'NONE', ( #17 ), #58, .T. ) ;
#4 = FILL_AREA_STYLE ('',( #50 ) ) ;
#5 = DIRECTION ( 'NONE',  ( 0.000000000000000000, 0.000000000000000000, -1.000000000000000000 ) ) ;
#6 =( NAMED_UNIT ( * ) PLANE_ANGLE_UNIT ( ) SI_UNIT ( $, .RADIAN. ) );
#7 = AXIS2_PLACEMENT_3D ( 'NONE', #156, #284, #119 ) ;
#8 = FACE_OUTER_BOUND ( 'NONE', #32, .T. ) ;
#9 = EDGE_LOOP ( 'NONE', ( #96, #183, #124, #41 ) ) ;
#10 = DIRECTION ( 'NONE',  ( -3.061616997868386099E-17, 1.000000000000000000, -0.000000000000000000 ) ) ;
#11 = VERTEX_POINT ( 'NONE', #81 ) ;
#12 = DIRECTION ( 'NONE',  ( -1.000000000000000000, 0.000000000000000000, 0.000000000000000000 ) ) ;
#13 = PRESENTATION_STYLE_ASSIGNMENT (( #39 ) ) ;
#14 = PLANE ( 'NONE',  #217 ) ;
#15 = EDGE_CURVE ( 'NONE', #126, #160, #69, .T. ) ;
#16 = CIRCLE ( 'NONE', #116, 0.1249999999999999861 ) ;
#17 = FACE_OUTER_BOUND ( 'NONE', #155, .T. ) ;
#18 = AXIS2_PLACEMENT_3D ( 'NONE', #62, #144, #37 ) ;
#19 = MANIFOLD_SOLID_BREP ( 'Revolve - Tool Body (Straight Shanked)', #189 ) ;
#20 = CARTESIAN_POINT ( 'NONE',  ( 1.530808498934191201E-17, 1.000000000000000000, 0.1249999999999999861 ) ) ;
#21 = CLOSED_SHELL ( 'NONE', ( #45, #3, #157, #246 ) ) ;
#22 = UNCERTAINTY_MEASURE_WITH_UNIT (LENGTH_MEASURE( 1.000000000000000082E-05 ), #61, 'distance_accuracy_value', 'NONE');
#23 =( GEOMETRIC_REPRESENTATION_CONTEXT ( 3 ) GLOBAL_UNCERTAINTY_ASSIGNED_CONTEXT ( ( #206 ) ) GLOBAL_UNIT_ASSIGNED_CONTEXT ( ( #24, #213, #137 ) ) REPRESENTATION_CONTEXT ( 'NONE', 'WORKASPACE' ) );
#24 =( CONVERSION_BASED_UNIT ( 'INCH', #184 ) LENGTH_UNIT ( ) NAMED_UNIT ( #205 ) );
#25 = CARTESIAN_POINT ( 'NONE',  ( 0.000000000000000000, 0.000000000000000000, 0.000000000000000000 ) ) ;
#26 =( LENGTH_UNIT ( ) NAMED_UNIT ( * ) SI_UNIT ( $, .METRE. ) );
#27 = AXIS2_PLACEMENT_3D ( 'NONE', #271, #195, #145 ) ;
#28 = APPLICATION_CONTEXT ( 'automotive_design' ) ;
#29 = DIRECTION ( 'NONE',  ( -0.000000000000000000, -1.000000000000000000, -0.000000000000000000 ) ) ;
#30 =( LENGTH_UNIT ( ) NAMED_UNIT ( * ) SI_UNIT ( $, .METRE. ) );
#31 = SURFACE_STYLE_USAGE ( .BOTH. , #162 ) ;
#32 = EDGE_LOOP ( 'NONE', ( #226, #277, #194, #53 ) ) ;
#33 = PRESENTATION_STYLE_ASSIGNMENT (( #31 ) ) ;
#34 = AXIS2_PLACEMENT_3D ( 'NONE', #164, #46, #12 ) ;
#35 = ORIENTED_EDGE ( 'NONE', *, *, #199, .T. ) ;
#36 = CARTESIAN_POINT ( 'NONE',  ( 0.000000000000000000, 0.000000000000000000, 0.000000000000000000 ) ) ;
#37 = DIRECTION ( 'NONE',  ( -1.000000000000000000, -3.061616997868386099E-17, 0.000000000000000000 ) ) ;
#38 = ADVANCED_FACE ( 'NONE', ( #8 ), #107, .T. ) ;
#39 = SURFACE_STYLE_USAGE ( .BOTH. , #252 ) ;
#40 = CARTESIAN_POINT ( 'NONE',  ( 0.000000000000000000, 1.000000000000000000, -0.1249999999999999861 ) ) ;
#41 = ORIENTED_EDGE ( 'NONE', *, *, #15, .F. ) ;
#42 = FACE_OUTER_BOUND ( 'NONE', #148, .T. ) ;
#43 = AXIS2_PLACEMENT_3D ( 'NONE', #99, #293, #5 ) ;
#44 = AXIS2_PLACEMENT_3D ( 'NONE', #186, #73, #94 ) ;
#45 = ADVANCED_FACE ( 'NONE', ( #294 ), #197, .T. ) ;
#46 = DIRECTION ( 'NONE',  ( -3.061616997868386099E-17, 1.000000000000000000, -0.000000000000000000 ) ) ;
#47 = SURFACE_STYLE_USAGE ( .BOTH. , #172 ) ;
#48 = VECTOR ( 'NONE', #253, 39.37007874015748143 ) ;
#49 = ADVANCED_FACE ( 'NONE', ( #191 ), #289, .T. ) ;
#50 = FILL_AREA_STYLE_COLOUR ( '', #133 ) ;
#51 = AXIS2_PLACEMENT_3D ( 'NONE', #85, #170, #249 ) ;
#52 = VECTOR ( 'NONE', #117, 39.37007874015748143 ) ;
#53 = ORIENTED_EDGE ( 'NONE', *, *, #303, .F. ) ;
#54 = SHAPE_DEFINITION_REPRESENTATION ( #180, #78 ) ;
#55 = EDGE_LOOP ( 'NONE', ( #97, #254 ) ) ;
#56 = APPLICATION_PROTOCOL_DEFINITION ( 'draft international standard', 'automotive_design', 1998, #177 ) ;
#57 =( LENGTH_UNIT ( ) NAMED_UNIT ( * ) SI_UNIT ( $, .METRE. ) );
#58 = PLANE ( 'NONE',  #51 ) ;
#59 = FACE_OUTER_BOUND ( 'NONE', #102, .T. ) ;
#60 = DIRECTION ( 'NONE',  ( 0.000000000000000000, 0.000000000000000000, -1.000000000000000000 ) ) ;
#61 =( CONVERSION_BASED_UNIT ( 'INCH', #301 ) LENGTH_UNIT ( ) NAMED_UNIT ( #66 ) );
#62 = CARTESIAN_POINT ( 'NONE',  ( 5.858436651022893041E-35, 1.000000000000000000, 0.000000000000000000 ) ) ;
#63 = STYLED_ITEM ( 'NONE', ( #33 ), #157 ) ;
#64 = SURFACE_STYLE_FILL_AREA ( #273 ) ;
#65 = LINE ( 'NONE', #146, #48 ) ;
#66 = DIMENSIONAL_EXPONENTS ( 1.000000000000000000, 0.000000000000000000, 0.000000000000000000, 0.000000000000000000, 0.000000000000000000, 0.000000000000000000, 0.000000000000000000 ) ;
#67 = CARTESIAN_POINT ( 'NONE',  ( -0.1250000000000000833, 3.000000000000000444, 0.000000000000000000 ) ) ;
#68 =( LENGTH_UNIT ( ) NAMED_UNIT ( * ) SI_UNIT ( $, .METRE. ) );
#69 = CIRCLE ( 'NONE', #234, 0.1250000000000000000 ) ;
#70 = VECTOR ( 'NONE', #168, 39.37007874015748143 ) ;
#71 = PRESENTATION_LAYER_ASSIGNMENT (  '', '', ( #159 ) ) ;
#72 = AXIS2_PLACEMENT_3D ( 'NONE', #25, #29, #282 ) ;
#73 = DIRECTION ( 'NONE',  ( -3.061616997868386099E-17, 1.000000000000000000, -0.000000000000000000 ) ) ;
#74 = PRESENTATION_LAYER_ASSIGNMENT (  '', '', ( #207 ) ) ;
#75 = MECHANICAL_DESIGN_GEOMETRIC_PRESENTATION_REPRESENTATION (  '', ( #143 ), #2 ) ;
#76 = APPLICATION_PROTOCOL_DEFINITION ( 'draft international standard', 'automotive_design', 1998, #28 ) ;
#77 = PRESENTATION_STYLE_ASSIGNMENT (( #153 ) ) ;
#78 = ADVANCED_BREP_SHAPE_REPRESENTATION ( '05157', ( #115, #19, #114 ), #23 ) ;
#79 = PRESENTATION_STYLE_ASSIGNMENT (( #101 ) ) ;
#80 = DIRECTION ( 'NONE',  ( 0.000000000000000000, 0.000000000000000000, -1.000000000000000000 ) ) ;
#81 = CARTESIAN_POINT ( 'NONE',  ( 0.1250000000000000000, 3.000000000000000444, 1.530808498934192125E-17 ) ) ;
#82 = DIRECTION ( 'NONE',  ( -1.000000000000000000, 0.000000000000000000, 0.000000000000000000 ) ) ;
#83 = CIRCLE ( 'NONE', #7, 0.1250000000000000555 ) ;
#84 = ORIENTED_EDGE ( 'NONE', *, *, #279, .F. ) ;
#85 = CARTESIAN_POINT ( 'NONE',  ( 0.000000000000000000, 1.000000000000000000, 0.000000000000000000 ) ) ;
#86 = DIRECTION ( 'NONE',  ( 0.000000000000000000, 0.000000000000000000, -1.000000000000000000 ) ) ;
#87 = SURFACE_STYLE_FILL_AREA ( #4 ) ;
#88 = ORIENTED_EDGE ( 'NONE', *, *, #199, .F. ) ;
#89 = FILL_AREA_STYLE ('',( #113 ) ) ;
#90 = PRODUCT_RELATED_PRODUCT_CATEGORY ( 'part', '', ( #231 ) ) ;
#91 = EDGE_CURVE ( 'NONE', #251, #98, #305, .T. ) ;
#92 =( CONVERSION_BASED_UNIT ( 'INCH', #210 ) LENGTH_UNIT ( ) NAMED_UNIT ( #173 ) );
#93 = AXIS2_PLACEMENT_3D ( 'NONE', #198, #297, #82 ) ;
#94 = DIRECTION ( 'NONE',  ( -1.000000000000000000, 0.000000000000000000, 0.000000000000000000 ) ) ;
#95 = FILL_AREA_STYLE ('',( #179 ) ) ;
#96 = ORIENTED_EDGE ( 'NONE', *, *, #190, .F. ) ;
#97 = ORIENTED_EDGE ( 'NONE', *, *, #235, .F. ) ;
#98 = VERTEX_POINT ( 'NONE', #307 ) ;
#99 = CARTESIAN_POINT ( 'NONE',  ( 0.000000000000000000, 0.000000000000000000, 0.000000000000000000 ) ) ;
#100 =( NAMED_UNIT ( * ) PLANE_ANGLE_UNIT ( ) SI_UNIT ( $, .RADIAN. ) );
#101 = SURFACE_STYLE_USAGE ( .BOTH. , #262 ) ;
#102 = EDGE_LOOP ( 'NONE', ( #35, #166 ) ) ;
#103 = STYLED_ITEM ( 'NONE', ( #13 ), #45 ) ;
#104 =( GEOMETRIC_REPRESENTATION_CONTEXT ( 3 ) GLOBAL_UNCERTAINTY_ASSIGNED_CONTEXT ( ( #151 ) ) GLOBAL_UNIT_ASSIGNED_CONTEXT ( ( #123, #6, #106 ) ) REPRESENTATION_CONTEXT ( 'NONE', 'WORKASPACE' ) );
#105 = FILL_AREA_STYLE ('',( #121 ) ) ;
#106 =( NAMED_UNIT ( * ) SI_UNIT ( $, .STERADIAN. ) SOLID_ANGLE_UNIT ( ) );
#107 = CYLINDRICAL_SURFACE ( 'NONE', #27, 0.1250000000000000278 ) ;
#108 = DIRECTION ( 'NONE',  ( 1.000000000000000000, 3.061616997868386099E-17, 0.000000000000000000 ) ) ;
#109 = VERTEX_POINT ( 'NONE', #20 ) ;
#110 =( NAMED_UNIT ( * ) PLANE_ANGLE_UNIT ( ) SI_UNIT ( $, .RADIAN. ) );
#111 = DIRECTION ( 'NONE',  ( -1.000000000000000000, 0.000000000000000000, 0.000000000000000000 ) ) ;
#112 = PRESENTATION_LAYER_ASSIGNMENT (  '', '', ( #143 ) ) ;
#113 = FILL_AREA_STYLE_COLOUR ( '', #281 ) ;
#114 = AXIS2_PLACEMENT_3D ( 'NONE', #158, #140, #216 ) ;
#115 = MANIFOLD_SOLID_BREP ( 'Revolve - Cutting Edge', #21 ) ;
#116 = AXIS2_PLACEMENT_3D ( 'NONE', #227, #161, #267 ) ;
#117 = DIRECTION ( 'NONE',  ( -3.061616997868386099E-17, 1.000000000000000000, -0.000000000000000000 ) ) ;
#118 = ORIENTED_EDGE ( 'NONE', *, *, #235, .T. ) ;
#119 = DIRECTION ( 'NONE',  ( -1.000000000000000000, 0.000000000000000000, 0.000000000000000000 ) ) ;
#120 = DIRECTION ( 'NONE',  ( 0.000000000000000000, -1.000000000000000000, -0.000000000000000000 ) ) ;
#121 = FILL_AREA_STYLE_COLOUR ( '', #132 ) ;
#122 = SURFACE_STYLE_FILL_AREA ( #105 ) ;
#123 =( CONVERSION_BASED_UNIT ( 'INCH', #130 ) LENGTH_UNIT ( ) NAMED_UNIT ( #255 ) );
#124 = ORIENTED_EDGE ( 'NONE', *, *, #214, .T. ) ;
#125 = CYLINDRICAL_SURFACE ( 'NONE', #266, 0.1250000000000000000 ) ;
#126 = VERTEX_POINT ( 'NONE', #171 ) ;
#127 = LINE ( 'NONE', #223, #70 ) ;
#128 = ORIENTED_EDGE ( 'NONE', *, *, #243, .F. ) ;
#129 = UNCERTAINTY_MEASURE_WITH_UNIT (LENGTH_MEASURE( 1.000000000000000082E-05 ), #92, 'distance_accuracy_value', 'NONE');
#130 = LENGTH_MEASURE_WITH_UNIT ( LENGTH_MEASURE( 0.02539999999999999897 ), #222 );
#131 = AXIS2_PLACEMENT_3D ( 'NONE', #204, #302, #86 ) ;
#132 = COLOUR_RGB ( '',0.7921568627450980005, 0.8196078431372548767, 0.9333333333333333481 ) ;
#133 = COLOUR_RGB ( '',1.000000000000000000, 0.000000000000000000, 0.000000000000000000 ) ;
#134 = LENGTH_MEASURE_WITH_UNIT ( LENGTH_MEASURE( 0.02539999999999999897 ), #232 );
#135 = CARTESIAN_POINT ( 'NONE',  ( 0.1249999999999999445, 3.000000000000000444, 1.530808498934191817E-17 ) ) ;
#136 = EDGE_CURVE ( 'NONE', #109, #215, #16, .T. ) ;
#137 =( NAMED_UNIT ( * ) SI_UNIT ( $, .STERADIAN. ) SOLID_ANGLE_UNIT ( ) );
#138 = LENGTH_MEASURE_WITH_UNIT ( LENGTH_MEASURE( 0.02539999999999999897 ), #57 );
#139 = MECHANICAL_DESIGN_GEOMETRIC_PRESENTATION_REPRESENTATION (  '', ( #280 ), #200 ) ;
#140 = DIRECTION ( 'NONE',  ( 0.000000000000000000, 0.000000000000000000, 1.000000000000000000 ) ) ;
#141 = FACE_OUTER_BOUND ( 'NONE', #9, .T. ) ;
#142 = CARTESIAN_POINT ( 'NONE',  ( 0.000000000000000000, 0.000000000000000000, -0.1250000000000000000 ) ) ;
#143 = STYLED_ITEM ( 'NONE', ( #259 ), #246 ) ;
#144 = DIRECTION ( 'NONE',  ( -3.061616997868386099E-17, 1.000000000000000000, 0.000000000000000000 ) ) ;
#145 = DIRECTION ( 'NONE',  ( -1.000000000000000000, 0.000000000000000000, 0.000000000000000000 ) ) ;
#146 = CARTESIAN_POINT ( 'NONE',  ( 0.000000000000000000, 0.000000000000000000, -0.1250000000000000000 ) ) ;
#147 = SURFACE_STYLE_FILL_AREA ( #295 ) ;
#148 = EDGE_LOOP ( 'NONE', ( #292, #257 ) ) ;
#149 = AXIS2_PLACEMENT_3D ( 'NONE', #276, #196, #108 ) ;
#150 = ADVANCED_FACE ( 'NONE', ( #59 ), #165, .F. ) ;
#151 = UNCERTAINTY_MEASURE_WITH_UNIT (LENGTH_MEASURE( 1.000000000000000082E-05 ), #123, 'distance_accuracy_value', 'NONE');
#152 = SURFACE_STYLE_FILL_AREA ( #89 ) ;
#153 = SURFACE_STYLE_USAGE ( .BOTH. , #209 ) ;
#154 =( CONVERSION_BASED_UNIT ( 'INCH', #134 ) LENGTH_UNIT ( ) NAMED_UNIT ( #178 ) );
#155 = EDGE_LOOP ( 'NONE', ( #128, #248 ) ) ;
#156 = CARTESIAN_POINT ( 'NONE',  ( -6.123233995736772199E-17, 3.000000000000000444, 0.000000000000000000 ) ) ;
#157 = ADVANCED_FACE ( 'NONE', ( #141 ), #125, .T. ) ;
#158 = CARTESIAN_POINT ( 'NONE',  ( 0.000000000000000000, 0.000000000000000000, 0.000000000000000000 ) ) ;
#159 = STYLED_ITEM ( 'NONE', ( #291 ), #19 ) ;
#160 = VERTEX_POINT ( 'NONE', #142 ) ;
#161 = DIRECTION ( 'NONE',  ( -0.000000000000000000, -1.000000000000000000, -0.000000000000000000 ) ) ;
#162 = SURFACE_SIDE_STYLE ('',( #147 ) ) ;
#163 = ORIENTED_EDGE ( 'NONE', *, *, #290, .T. ) ;
#164 = CARTESIAN_POINT ( 'NONE',  ( -6.123233995736772199E-17, 3.000000000000000444, 0.000000000000000000 ) ) ;
#165 = PLANE ( 'NONE',  #149 ) ;
#166 = ORIENTED_EDGE ( 'NONE', *, *, #303, .T. ) ;
#167 = FILL_AREA_STYLE_COLOUR ( '', #1 ) ;
#168 = DIRECTION ( 'NONE',  ( -0.000000000000000000, -1.000000000000000000, -0.000000000000000000 ) ) ;
#169 = ADVANCED_FACE ( 'NONE', ( #244 ), #272, .F. ) ;
#170 = DIRECTION ( 'NONE',  ( 0.000000000000000000, 1.000000000000000000, 0.000000000000000000 ) ) ;
#171 = CARTESIAN_POINT ( 'NONE',  ( 1.530808498934191509E-17, 0.000000000000000000, 0.1250000000000000000 ) ) ;
#172 = SURFACE_SIDE_STYLE ('',( #152 ) ) ;
#173 = DIMENSIONAL_EXPONENTS ( 1.000000000000000000, 0.000000000000000000, 0.000000000000000000, 0.000000000000000000, 0.000000000000000000, 0.000000000000000000, 0.000000000000000000 ) ;
#174 = UNCERTAINTY_MEASURE_WITH_UNIT (LENGTH_MEASURE( 1.000000000000000082E-05 ), #154, 'distance_accuracy_value', 'NONE');
#175 = PRODUCT_DEFINITION ( 'UNKNOWN', '', #208, #263 ) ;
#176 = CIRCLE ( 'NONE', #72, 0.1250000000000000000 ) ;
#177 = APPLICATION_CONTEXT ( 'automotive_design' ) ;
#178 = DIMENSIONAL_EXPONENTS ( 1.000000000000000000, 0.000000000000000000, 0.000000000000000000, 0.000000000000000000, 0.000000000000000000, 0.000000000000000000, 0.000000000000000000 ) ;
#179 = FILL_AREA_STYLE_COLOUR ( '', #212 ) ;
#180 = PRODUCT_DEFINITION_SHAPE ( 'NONE', 'NONE',  #175 ) ;
#181 =( NAMED_UNIT ( * ) SI_UNIT ( $, .STERADIAN. ) SOLID_ANGLE_UNIT ( ) );
#182 = SURFACE_STYLE_FILL_AREA ( #95 ) ;
#183 = ORIENTED_EDGE ( 'NONE', *, *, #136, .T. ) ;
#184 = LENGTH_MEASURE_WITH_UNIT ( LENGTH_MEASURE( 0.02539999999999999897 ), #237 );
#185 = COLOUR_RGB ( '',1.000000000000000000, 0.000000000000000000, 0.000000000000000000 ) ;
#186 = CARTESIAN_POINT ( 'NONE',  ( 7.582401355855259480E-33, 1.000000000000000000, 0.000000000000000000 ) ) ;
#187 = CARTESIAN_POINT ( 'NONE',  ( -0.1249999999999999861, 1.000000000000000000, 0.000000000000000000 ) ) ;
#188 = SURFACE_STYLE_USAGE ( .BOTH. , #275 ) ;
#189 = CLOSED_SHELL ( 'NONE', ( #49, #169, #38, #150 ) ) ;
#190 = EDGE_CURVE ( 'NONE', #109, #126, #127, .T. ) ;
#191 = FACE_OUTER_BOUND ( 'NONE', #300, .T. ) ;
#192 =( NAMED_UNIT ( * ) SI_UNIT ( $, .STERADIAN. ) SOLID_ANGLE_UNIT ( ) );
#193 = FILL_AREA_STYLE_COLOUR ( '', #185 ) ;
#194 = ORIENTED_EDGE ( 'NONE', *, *, #91, .T. ) ;
#195 = DIRECTION ( 'NONE',  ( -3.061616997868386099E-17, 1.000000000000000000, -0.000000000000000000 ) ) ;
#196 = DIRECTION ( 'NONE',  ( 3.061616997868386099E-17, -1.000000000000000000, 0.000000000000000000 ) ) ;
#197 = CYLINDRICAL_SURFACE ( 'NONE', #43, 0.1250000000000000000 ) ;
#198 = CARTESIAN_POINT ( 'NONE',  ( -6.123233995736772199E-17, 3.000000000000000444, 0.000000000000000000 ) ) ;
#199 = EDGE_CURVE ( 'NONE', #98, #11, #258, .T. ) ;
#200 =( GEOMETRIC_REPRESENTATION_CONTEXT ( 3 ) GLOBAL_UNCERTAINTY_ASSIGNED_CONTEXT ( ( #22 ) ) GLOBAL_UNIT_ASSIGNED_CONTEXT ( ( #61, #110, #203 ) ) REPRESENTATION_CONTEXT ( 'NONE', 'WORKASPACE' ) );
#201 = VERTEX_POINT ( 'NONE', #274 ) ;
#202 = CIRCLE ( 'NONE', #131, 0.1249999999999999861 ) ;
#203 =( NAMED_UNIT ( * ) SI_UNIT ( $, .STERADIAN. ) SOLID_ANGLE_UNIT ( ) );
#204 = CARTESIAN_POINT ( 'NONE',  ( 0.000000000000000000, 1.000000000000000000, 0.000000000000000000 ) ) ;
#205 = DIMENSIONAL_EXPONENTS ( 1.000000000000000000, 0.000000000000000000, 0.000000000000000000, 0.000000000000000000, 0.000000000000000000, 0.000000000000000000, 0.000000000000000000 ) ;
#206 = UNCERTAINTY_MEASURE_WITH_UNIT (LENGTH_MEASURE( 1.000000000000000082E-05 ), #24, 'distance_accuracy_value', 'NONE');
#207 = STYLED_ITEM ( 'NONE', ( #79 ), #115 ) ;
#208 = PRODUCT_DEFINITION_FORMATION_WITH_SPECIFIED_SOURCE ( 'ANY', '', #231, .NOT_KNOWN. ) ;
#209 = SURFACE_SIDE_STYLE ('',( #87 ) ) ;
#210 = LENGTH_MEASURE_WITH_UNIT ( LENGTH_MEASURE( 0.02539999999999999897 ), #68 );
#211 =( NAMED_UNIT ( * ) PLANE_ANGLE_UNIT ( ) SI_UNIT ( $, .RADIAN. ) );
#212 = COLOUR_RGB ( '',0.7921568627450980005, 0.8196078431372548767, 0.9333333333333333481 ) ;
#213 =( NAMED_UNIT ( * ) PLANE_ANGLE_UNIT ( ) SI_UNIT ( $, .RADIAN. ) );
#214 = EDGE_CURVE ( 'NONE', #215, #160, #65, .T. ) ;
#215 = VERTEX_POINT ( 'NONE', #40 ) ;
#216 = DIRECTION ( 'NONE',  ( 1.000000000000000000, 0.000000000000000000, 0.000000000000000000 ) ) ;
#217 = AXIS2_PLACEMENT_3D ( 'NONE', #233, #120, #287 ) ;
#218 =( CONVERSION_BASED_UNIT ( 'INCH', #138 ) LENGTH_UNIT ( ) NAMED_UNIT ( #306 ) );
#219 = ORIENTED_EDGE ( 'NONE', *, *, #214, .F. ) ;
#220 =( NAMED_UNIT ( * ) PLANE_ANGLE_UNIT ( ) SI_UNIT ( $, .RADIAN. ) );
#221 = LENGTH_MEASURE_WITH_UNIT ( LENGTH_MEASURE( 0.02539999999999999897 ), #30 );
#222 =( LENGTH_UNIT ( ) NAMED_UNIT ( * ) SI_UNIT ( $, .METRE. ) );
#223 = CARTESIAN_POINT ( 'NONE',  ( 1.530808498934191509E-17, 0.000000000000000000, 0.1250000000000000000 ) ) ;
#224 = CARTESIAN_POINT ( 'NONE',  ( 7.582401355855259480E-33, 1.000000000000000000, 0.000000000000000000 ) ) ;
#225 =( GEOMETRIC_REPRESENTATION_CONTEXT ( 3 ) GLOBAL_UNCERTAINTY_ASSIGNED_CONTEXT ( ( #174 ) ) GLOBAL_UNIT_ASSIGNED_CONTEXT ( ( #154, #220, #241 ) ) REPRESENTATION_CONTEXT ( 'NONE', 'WORKASPACE' ) );
#226 = ORIENTED_EDGE ( 'NONE', *, *, #290, .F. ) ;
#227 = CARTESIAN_POINT ( 'NONE',  ( 0.000000000000000000, 1.000000000000000000, 0.000000000000000000 ) ) ;
#228 = DIRECTION ( 'NONE',  ( -3.061616997868386099E-17, 1.000000000000000000, -0.000000000000000000 ) ) ;
#229 = PRESENTATION_LAYER_ASSIGNMENT (  '', '', ( #63 ) ) ;
#230 = MECHANICAL_DESIGN_GEOMETRIC_PRESENTATION_REPRESENTATION (  '', ( #63 ), #104 ) ;
#231 = PRODUCT ( '05157', '05157', '', ( #242 ) ) ;
#232 =( LENGTH_UNIT ( ) NAMED_UNIT ( * ) SI_UNIT ( $, .METRE. ) );
#233 = CARTESIAN_POINT ( 'NONE',  ( 0.000000000000000000, 0.000000000000000000, 0.000000000000000000 ) ) ;
#234 = AXIS2_PLACEMENT_3D ( 'NONE', #36, #268, #80 ) ;
#235 = EDGE_CURVE ( 'NONE', #251, #201, #309, .T. ) ;
#236 = ORIENTED_EDGE ( 'NONE', *, *, #190, .T. ) ;
#237 =( LENGTH_UNIT ( ) NAMED_UNIT ( * ) SI_UNIT ( $, .METRE. ) );
#238 =( NAMED_UNIT ( * ) SI_UNIT ( $, .STERADIAN. ) SOLID_ANGLE_UNIT ( ) );
#239 = ORIENTED_EDGE ( 'NONE', *, *, #91, .F. ) ;
#240 =( GEOMETRIC_REPRESENTATION_CONTEXT ( 3 ) GLOBAL_UNCERTAINTY_ASSIGNED_CONTEXT ( ( #286 ) ) GLOBAL_UNIT_ASSIGNED_CONTEXT ( ( #296, #100, #192 ) ) REPRESENTATION_CONTEXT ( 'NONE', 'WORKASPACE' ) );
#241 =( NAMED_UNIT ( * ) SI_UNIT ( $, .STERADIAN. ) SOLID_ANGLE_UNIT ( ) );
#242 = PRODUCT_CONTEXT ( 'NONE', #177, 'mechanical' ) ;
#243 = EDGE_CURVE ( 'NONE', #215, #109, #202, .T. ) ;
#244 = FACE_OUTER_BOUND ( 'NONE', #55, .T. ) ;
#245 = MECHANICAL_DESIGN_GEOMETRIC_PRESENTATION_REPRESENTATION (  '', ( #207 ), #256 ) ;
#246 = ADVANCED_FACE ( 'NONE', ( #42 ), #14, .T. ) ;
#247 = CIRCLE ( 'NONE', #44, 0.1249999999999999861 ) ;
#248 = ORIENTED_EDGE ( 'NONE', *, *, #136, .F. ) ;
#249 = DIRECTION ( 'NONE',  ( 0.000000000000000000, -0.000000000000000000, 1.000000000000000000 ) ) ;
#250 = CARTESIAN_POINT ( 'NONE',  ( 0.000000000000000000, 0.000000000000000000, 0.000000000000000000 ) ) ;
#251 = VERTEX_POINT ( 'NONE', #187 ) ;
#252 = SURFACE_SIDE_STYLE ('',( #64 ) ) ;
#253 = DIRECTION ( 'NONE',  ( -0.000000000000000000, -1.000000000000000000, -0.000000000000000000 ) ) ;
#254 = ORIENTED_EDGE ( 'NONE', *, *, #264, .F. ) ;
#255 = DIMENSIONAL_EXPONENTS ( 1.000000000000000000, 0.000000000000000000, 0.000000000000000000, 0.000000000000000000, 0.000000000000000000, 0.000000000000000000, 0.000000000000000000 ) ;
#256 =( GEOMETRIC_REPRESENTATION_CONTEXT ( 3 ) GLOBAL_UNCERTAINTY_ASSIGNED_CONTEXT ( ( #283 ) ) GLOBAL_UNIT_ASSIGNED_CONTEXT ( ( #218, #265, #238 ) ) REPRESENTATION_CONTEXT ( 'NONE', 'WORKASPACE' ) );
#257 = ORIENTED_EDGE ( 'NONE', *, *, #15, .T. ) ;
#258 = CIRCLE ( 'NONE', #93, 0.1250000000000000555 ) ;
#259 = PRESENTATION_STYLE_ASSIGNMENT (( #47 ) ) ;
#260 = ORIENTED_EDGE ( 'NONE', *, *, #243, .T. ) ;
#261 = MECHANICAL_DESIGN_GEOMETRIC_PRESENTATION_REPRESENTATION (  '', ( #159 ), #240 ) ;
#262 = SURFACE_SIDE_STYLE ('',( #182 ) ) ;
#263 = PRODUCT_DEFINITION_CONTEXT ( 'detailed design', #28, 'design' ) ;
#264 = EDGE_CURVE ( 'NONE', #201, #251, #247, .T. ) ;
#265 =( NAMED_UNIT ( * ) PLANE_ANGLE_UNIT ( ) SI_UNIT ( $, .RADIAN. ) );
#266 = AXIS2_PLACEMENT_3D ( 'NONE', #250, #269, #60 ) ;
#267 = DIRECTION ( 'NONE',  ( 0.000000000000000000, 0.000000000000000000, -1.000000000000000000 ) ) ;
#268 = DIRECTION ( 'NONE',  ( -0.000000000000000000, -1.000000000000000000, -0.000000000000000000 ) ) ;
#269 = DIRECTION ( 'NONE',  ( -0.000000000000000000, -1.000000000000000000, -0.000000000000000000 ) ) ;
#270 = EDGE_LOOP ( 'NONE', ( #260, #236, #84, #219 ) ) ;
#271 = CARTESIAN_POINT ( 'NONE',  ( -6.123233995736772199E-17, 3.000000000000000444, 0.000000000000000000 ) ) ;
#272 = PLANE ( 'NONE',  #18 ) ;
#273 = FILL_AREA_STYLE ('',( #167 ) ) ;
#274 = CARTESIAN_POINT ( 'NONE',  ( 0.1250000000000000000, 1.000000000000000000, 1.530808498934192125E-17 ) ) ;
#275 = SURFACE_SIDE_STYLE ('',( #122 ) ) ;
#276 = CARTESIAN_POINT ( 'NONE',  ( 0.1249999999999999861, 3.000000000000000444, 0.000000000000000000 ) ) ;
#277 = ORIENTED_EDGE ( 'NONE', *, *, #264, .T. ) ;
#278 = VECTOR ( 'NONE', #228, 39.37007874015748143 ) ;
#279 = EDGE_CURVE ( 'NONE', #160, #126, #176, .T. ) ;
#280 = STYLED_ITEM ( 'NONE', ( #77 ), #3 ) ;
#281 = COLOUR_RGB ( '',1.000000000000000000, 0.000000000000000000, 0.000000000000000000 ) ;
#282 = DIRECTION ( 'NONE',  ( 0.000000000000000000, 0.000000000000000000, -1.000000000000000000 ) ) ;
#283 = UNCERTAINTY_MEASURE_WITH_UNIT (LENGTH_MEASURE( 1.000000000000000082E-05 ), #218, 'distance_accuracy_value', 'NONE');
#284 = DIRECTION ( 'NONE',  ( -3.061616997868386099E-17, 1.000000000000000000, -0.000000000000000000 ) ) ;
#285 = LINE ( 'NONE', #135, #52 ) ;
#286 = UNCERTAINTY_MEASURE_WITH_UNIT (LENGTH_MEASURE( 1.000000000000000082E-05 ), #296, 'distance_accuracy_value', 'NONE');
#287 = DIRECTION ( 'NONE',  ( 0.000000000000000000, 0.000000000000000000, -1.000000000000000000 ) ) ;
#288 = PRESENTATION_LAYER_ASSIGNMENT (  '', '', ( #103 ) ) ;
#289 = CYLINDRICAL_SURFACE ( 'NONE', #34, 0.1250000000000000278 ) ;
#290 = EDGE_CURVE ( 'NONE', #201, #11, #285, .T. ) ;
#291 = PRESENTATION_STYLE_ASSIGNMENT (( #188 ) ) ;
#292 = ORIENTED_EDGE ( 'NONE', *, *, #279, .T. ) ;
#293 = DIRECTION ( 'NONE',  ( -0.000000000000000000, -1.000000000000000000, -0.000000000000000000 ) ) ;
#294 = FACE_OUTER_BOUND ( 'NONE', #270, .T. ) ;
#295 = FILL_AREA_STYLE ('',( #193 ) ) ;
#296 =( CONVERSION_BASED_UNIT ( 'INCH', #221 ) LENGTH_UNIT ( ) NAMED_UNIT ( #304 ) );
#297 = DIRECTION ( 'NONE',  ( -3.061616997868386099E-17, 1.000000000000000000, -0.000000000000000000 ) ) ;
#298 = PRESENTATION_LAYER_ASSIGNMENT (  '', '', ( #280 ) ) ;
#299 = AXIS2_PLACEMENT_3D ( 'NONE', #224, #10, #111 ) ;
#300 = EDGE_LOOP ( 'NONE', ( #118, #163, #88, #239 ) ) ;
#301 = LENGTH_MEASURE_WITH_UNIT ( LENGTH_MEASURE( 0.02539999999999999897 ), #26 );
#302 = DIRECTION ( 'NONE',  ( -0.000000000000000000, -1.000000000000000000, -0.000000000000000000 ) ) ;
#303 = EDGE_CURVE ( 'NONE', #11, #98, #83, .T. ) ;
#304 = DIMENSIONAL_EXPONENTS ( 1.000000000000000000, 0.000000000000000000, 0.000000000000000000, 0.000000000000000000, 0.000000000000000000, 0.000000000000000000, 0.000000000000000000 ) ;
#305 = LINE ( 'NONE', #67, #278 ) ;
#306 = DIMENSIONAL_EXPONENTS ( 1.000000000000000000, 0.000000000000000000, 0.000000000000000000, 0.000000000000000000, 0.000000000000000000, 0.000000000000000000, 0.000000000000000000 ) ;
#307 = CARTESIAN_POINT ( 'NONE',  ( -0.1250000000000001110, 3.000000000000000444, 0.000000000000000000 ) ) ;
#308 = MECHANICAL_DESIGN_GEOMETRIC_PRESENTATION_REPRESENTATION (  '', ( #103 ), #225 ) ;
#309 = CIRCLE ( 'NONE', #299, 0.1249999999999999861 ) ;
ENDSEC;
END-ISO-10303-21;
