ISO-10303-21;
HEADER;
FILE_DESCRIPTION (( 'STEP AP214' ),
    '1' );
FILE_NAME ('48311.STEP',
    '2023-06-22T21:23:58',
    ( '' ),
    ( '' ),
    'SwSTEP 2.0',
    'SolidWorks 2023',
    '' );
FILE_SCHEMA (( 'AUTOMOTIVE_DESIGN' ));
ENDSEC;

DATA;
#1 = UNCERTAINTY_MEASURE_WITH_UNIT (LENGTH_MEASURE( 1.000000000000000082E-05 ), #64, 'distance_accuracy_value', 'NONE');
#2 = DIRECTION ( 'NONE',  ( -0.000000000000000000, -1.000000000000000000, -0.000000000000000000 ) ) ;
#3 = PRESENTATION_LAYER_ASSIGNMENT (  '', '', ( #216 ) ) ;
#4 = CYLINDRICAL_SURFACE ( 'NONE', #280, 0.1875000000000001110 ) ;
#5 = DIRECTION ( 'NONE',  ( 0.000000000000000000, 0.000000000000000000, -1.000000000000000000 ) ) ;
#6 = EDGE_CURVE ( 'NONE', #99, #241, #79, .T. ) ;
#7 = DIRECTION ( 'NONE',  ( 0.000000000000000000, 0.000000000000000000, -1.000000000000000000 ) ) ;
#8 = ORIENTED_EDGE ( 'NONE', *, *, #152, .F. ) ;
#9 = COLOUR_RGB ( '',1.000000000000000000, 0.000000000000000000, 0.000000000000000000 ) ;
#10 = COLOUR_RGB ( '',1.000000000000000000, 0.000000000000000000, 0.000000000000000000 ) ;
#11 = UNCERTAINTY_MEASURE_WITH_UNIT (LENGTH_MEASURE( 1.000000000000000082E-05 ), #61, 'distance_accuracy_value', 'NONE');
#12 =( NAMED_UNIT ( * ) SI_UNIT ( $, .STERADIAN. ) SOLID_ANGLE_UNIT ( ) );
#13 = AXIS2_PLACEMENT_3D ( 'NONE', #292, #2, #104 ) ;
#14 = FILL_AREA_STYLE_COLOUR ( '', #9 ) ;
#15 = FILL_AREA_STYLE ('',( #106 ) ) ;
#16 = CYLINDRICAL_SURFACE ( 'NONE', #259, 0.1875000000000000555 ) ;
#17 = DIRECTION ( 'NONE',  ( 0.000000000000000000, 0.000000000000000000, -1.000000000000000000 ) ) ;
#18 = CARTESIAN_POINT ( 'NONE',  ( 0.000000000000000000, 1.500000000000000222, 0.000000000000000000 ) ) ;
#19 =( NAMED_UNIT ( * ) PLANE_ANGLE_UNIT ( ) SI_UNIT ( $, .RADIAN. ) );
#20 = PRESENTATION_LAYER_ASSIGNMENT (  '', '', ( #23 ) ) ;
#21 = LENGTH_MEASURE_WITH_UNIT ( LENGTH_MEASURE( 0.02539999999999999897 ), #215 );
#22 = VERTEX_POINT ( 'NONE', #50 ) ;
#23 = STYLED_ITEM ( 'NONE', ( #114 ), #63 ) ;
#24 = CARTESIAN_POINT ( 'NONE',  ( 0.1875000000000000555, 3.500000000000000000, 0.000000000000000000 ) ) ;
#25 = EDGE_CURVE ( 'NONE', #241, #99, #69, .T. ) ;
#26 = ADVANCED_FACE ( 'NONE', ( #299 ), #262, .T. ) ;
#27 = AXIS2_PLACEMENT_3D ( 'NONE', #126, #177, #147 ) ;
#28 = LENGTH_MEASURE_WITH_UNIT ( LENGTH_MEASURE( 0.02539999999999999897 ), #162 );
#29 = DIMENSIONAL_EXPONENTS ( 1.000000000000000000, 0.000000000000000000, 0.000000000000000000, 0.000000000000000000, 0.000000000000000000, 0.000000000000000000, 0.000000000000000000 ) ;
#30 = UNCERTAINTY_MEASURE_WITH_UNIT (LENGTH_MEASURE( 1.000000000000000082E-05 ), #257, 'distance_accuracy_value', 'NONE');
#31 = MECHANICAL_DESIGN_GEOMETRIC_PRESENTATION_REPRESENTATION (  '', ( #23 ), #52 ) ;
#32 = DIMENSIONAL_EXPONENTS ( 1.000000000000000000, 0.000000000000000000, 0.000000000000000000, 0.000000000000000000, 0.000000000000000000, 0.000000000000000000, 0.000000000000000000 ) ;
#33 = DIRECTION ( 'NONE',  ( -1.000000000000000000, 0.000000000000000000, 0.000000000000000000 ) ) ;
#34 = CARTESIAN_POINT ( 'NONE',  ( 0.000000000000000000, 0.000000000000000000, -0.1875000000000000555 ) ) ;
#35 = CARTESIAN_POINT ( 'NONE',  ( 0.000000000000000000, 0.000000000000000000, -0.1875000000000000278 ) ) ;
#36 = PRESENTATION_STYLE_ASSIGNMENT (( #260 ) ) ;
#37 =( NAMED_UNIT ( * ) SI_UNIT ( $, .STERADIAN. ) SOLID_ANGLE_UNIT ( ) );
#38 = CARTESIAN_POINT ( 'NONE',  ( 0.000000000000000000, 0.000000000000000000, 0.000000000000000000 ) ) ;
#39 = DIRECTION ( 'NONE',  ( -1.000000000000000000, 0.000000000000000000, 0.000000000000000000 ) ) ;
#40 =( GEOMETRIC_REPRESENTATION_CONTEXT ( 3 ) GLOBAL_UNCERTAINTY_ASSIGNED_CONTEXT ( ( #160 ) ) GLOBAL_UNIT_ASSIGNED_CONTEXT ( ( #202, #149, #75 ) ) REPRESENTATION_CONTEXT ( 'NONE', 'WORKASPACE' ) );
#41 = LENGTH_MEASURE_WITH_UNIT ( LENGTH_MEASURE( 0.02539999999999999897 ), #146 );
#42 = ORIENTED_EDGE ( 'NONE', *, *, #227, .T. ) ;
#43 = CARTESIAN_POINT ( 'NONE',  ( 0.1874999999999999722, 3.500000000000000000, 2.296212748401288650E-17 ) ) ;
#44 = ADVANCED_FACE ( 'NONE', ( #174 ), #283, .T. ) ;
#45 = STYLED_ITEM ( 'NONE', ( #267 ), #197 ) ;
#46 = VERTEX_POINT ( 'NONE', #141 ) ;
#47 = DIRECTION ( 'NONE',  ( -1.000000000000000000, 0.000000000000000000, 0.000000000000000000 ) ) ;
#48 = EDGE_CURVE ( 'NONE', #249, #99, #233, .T. ) ;
#49 = SURFACE_STYLE_FILL_AREA ( #305 ) ;
#50 = CARTESIAN_POINT ( 'NONE',  ( 2.296212748401288034E-17, 1.500000000000000222, 0.1875000000000000555 ) ) ;
#51 = EDGE_CURVE ( 'NONE', #22, #249, #84, .T. ) ;
#52 =( GEOMETRIC_REPRESENTATION_CONTEXT ( 3 ) GLOBAL_UNCERTAINTY_ASSIGNED_CONTEXT ( ( #1 ) ) GLOBAL_UNIT_ASSIGNED_CONTEXT ( ( #64, #293, #134 ) ) REPRESENTATION_CONTEXT ( 'NONE', 'WORKASPACE' ) );
#53 = CARTESIAN_POINT ( 'NONE',  ( 0.000000000000000000, 0.000000000000000000, 0.000000000000000000 ) ) ;
#54 = CARTESIAN_POINT ( 'NONE',  ( 0.000000000000000000, 0.000000000000000000, 0.000000000000000000 ) ) ;
#55 = DIRECTION ( 'NONE',  ( -0.000000000000000000, -1.000000000000000000, -0.000000000000000000 ) ) ;
#56 = DIRECTION ( 'NONE',  ( -6.123233995736767268E-17, 1.000000000000000000, -0.000000000000000000 ) ) ;
#57 = DIRECTION ( 'NONE',  ( 1.000000000000000000, 0.000000000000000000, 0.000000000000000000 ) ) ;
#58 = SURFACE_SIDE_STYLE ('',( #66 ) ) ;
#59 = SURFACE_SIDE_STYLE ('',( #263 ) ) ;
#60 = COLOUR_RGB ( '',0.7921568627450980005, 0.8196078431372548767, 0.9333333333333333481 ) ;
#61 =( CONVERSION_BASED_UNIT ( 'INCH', #234 ) LENGTH_UNIT ( ) NAMED_UNIT ( #100 ) );
#62 = CARTESIAN_POINT ( 'NONE',  ( 0.1875000000000000555, 3.500000000000000000, 2.296212748401289266E-17 ) ) ;
#63 = ADVANCED_FACE ( 'NONE', ( #143 ), #285, .T. ) ;
#64 =( CONVERSION_BASED_UNIT ( 'INCH', #92 ) LENGTH_UNIT ( ) NAMED_UNIT ( #271 ) );
#65 = SURFACE_STYLE_USAGE ( .BOTH. , #297 ) ;
#66 = SURFACE_STYLE_FILL_AREA ( #192 ) ;
#67 = PLANE ( 'NONE',  #27 ) ;
#68 = EDGE_LOOP ( 'NONE', ( #8, #273, #77, #250 ) ) ;
#69 = CIRCLE ( 'NONE', #151, 0.1875000000000000278 ) ;
#70 = DIRECTION ( 'NONE',  ( -0.000000000000000000, -1.000000000000000000, -0.000000000000000000 ) ) ;
#71 = COLOUR_RGB ( '',0.7921568627450980005, 0.8196078431372548767, 0.9333333333333333481 ) ;
#72 = FILL_AREA_STYLE_COLOUR ( '', #235 ) ;
#73 = ORIENTED_EDGE ( 'NONE', *, *, #51, .F. ) ;
#74 = AXIS2_PLACEMENT_3D ( 'NONE', #136, #190, #5 ) ;
#75 =( NAMED_UNIT ( * ) SI_UNIT ( $, .STERADIAN. ) SOLID_ANGLE_UNIT ( ) );
#76 = EDGE_CURVE ( 'NONE', #105, #291, #98, .T. ) ;
#77 = ORIENTED_EDGE ( 'NONE', *, *, #48, .T. ) ;
#78 = DIMENSIONAL_EXPONENTS ( 1.000000000000000000, 0.000000000000000000, 0.000000000000000000, 0.000000000000000000, 0.000000000000000000, 0.000000000000000000, 0.000000000000000000 ) ;
#79 = CIRCLE ( 'NONE', #206, 0.1875000000000000278 ) ;
#80 = AXIS2_PLACEMENT_3D ( 'NONE', #163, #139, #39 ) ;
#81 = ORIENTED_EDGE ( 'NONE', *, *, #218, .T. ) ;
#82 = DIRECTION ( 'NONE',  ( -1.000000000000000000, 0.000000000000000000, 0.000000000000000000 ) ) ;
#83 = EDGE_LOOP ( 'NONE', ( #272, #73 ) ) ;
#84 = CIRCLE ( 'NONE', #308, 0.1875000000000000555 ) ;
#85 = CYLINDRICAL_SURFACE ( 'NONE', #153, 0.1875000000000001110 ) ;
#86 = MANIFOLD_SOLID_BREP ( 'Revolve - Cutting Edge', #229 ) ;
#87 = PRESENTATION_STYLE_ASSIGNMENT (( #304 ) ) ;
#88 =( NAMED_UNIT ( * ) SI_UNIT ( $, .STERADIAN. ) SOLID_ANGLE_UNIT ( ) );
#89 = PRODUCT_RELATED_PRODUCT_CATEGORY ( 'part', '', ( #184 ) ) ;
#90 = VECTOR ( 'NONE', #140, 39.37007874015748143 ) ;
#91 = APPLICATION_PROTOCOL_DEFINITION ( 'draft international standard', 'automotive_design', 1998, #188 ) ;
#92 = LENGTH_MEASURE_WITH_UNIT ( LENGTH_MEASURE( 0.02539999999999999897 ), #170 );
#93 = SURFACE_SIDE_STYLE ('',( #230 ) ) ;
#94 =( CONVERSION_BASED_UNIT ( 'INCH', #41 ) LENGTH_UNIT ( ) NAMED_UNIT ( #32 ) );
#95 = DIRECTION ( 'NONE',  ( -6.123233995736767268E-17, 1.000000000000000000, -0.000000000000000000 ) ) ;
#96 = CARTESIAN_POINT ( 'NONE',  ( 0.000000000000000000, 0.000000000000000000, 0.000000000000000000 ) ) ;
#97 = LINE ( 'NONE', #306, #130 ) ;
#98 = CIRCLE ( 'NONE', #264, 0.1875000000000001943 ) ;
#99 = VERTEX_POINT ( 'NONE', #35 ) ;
#100 = DIMENSIONAL_EXPONENTS ( 1.000000000000000000, 0.000000000000000000, 0.000000000000000000, 0.000000000000000000, 0.000000000000000000, 0.000000000000000000, 0.000000000000000000 ) ;
#101 = FILL_AREA_STYLE ('',( #175 ) ) ;
#102 = EDGE_LOOP ( 'NONE', ( #222, #181, #81, #125 ) ) ;
#103 = PRESENTATION_LAYER_ASSIGNMENT (  '', '', ( #245 ) ) ;
#104 = DIRECTION ( 'NONE',  ( 0.000000000000000000, 0.000000000000000000, -1.000000000000000000 ) ) ;
#105 = VERTEX_POINT ( 'NONE', #62 ) ;
#106 = FILL_AREA_STYLE_COLOUR ( '', #60 ) ;
#107 = EDGE_LOOP ( 'NONE', ( #296, #217 ) ) ;
#108 = AXIS2_PLACEMENT_3D ( 'NONE', #239, #124, #266 ) ;
#109 = ORIENTED_EDGE ( 'NONE', *, *, #211, .F. ) ;
#110 = ADVANCED_FACE ( 'NONE', ( #261 ), #4, .T. ) ;
#111 = CIRCLE ( 'NONE', #289, 0.1875000000000001943 ) ;
#112 = DIRECTION ( 'NONE',  ( -1.000000000000000000, 0.000000000000000000, 0.000000000000000000 ) ) ;
#113 = SURFACE_STYLE_USAGE ( .BOTH. , #93 ) ;
#114 = PRESENTATION_STYLE_ASSIGNMENT (( #117 ) ) ;
#115 = DIRECTION ( 'NONE',  ( -0.000000000000000000, -1.000000000000000000, -0.000000000000000000 ) ) ;
#116 = PRODUCT_CONTEXT ( 'NONE', #188, 'mechanical' ) ;
#117 = SURFACE_STYLE_USAGE ( .BOTH. , #58 ) ;
#118 = ADVANCED_FACE ( 'NONE', ( #120 ), #85, .T. ) ;
#119 = DIRECTION ( 'NONE',  ( 0.000000000000000000, 1.000000000000000000, 0.000000000000000000 ) ) ;
#120 = FACE_OUTER_BOUND ( 'NONE', #205, .T. ) ;
#121 = AXIS2_PLACEMENT_3D ( 'NONE', #18, #119, #303 ) ;
#122 = AXIS2_PLACEMENT_3D ( 'NONE', #24, #178, #243 ) ;
#123 = SURFACE_STYLE_FILL_AREA ( #101 ) ;
#124 = DIRECTION ( 'NONE',  ( -6.123233995736767268E-17, 1.000000000000000000, -0.000000000000000000 ) ) ;
#125 = ORIENTED_EDGE ( 'NONE', *, *, #76, .F. ) ;
#126 = CARTESIAN_POINT ( 'NONE',  ( 3.515061990613731334E-34, 1.500000000000000222, 0.000000000000000000 ) ) ;
#127 = CLOSED_SHELL ( 'NONE', ( #118, #185, #110, #195 ) ) ;
#128 = PRESENTATION_LAYER_ASSIGNMENT (  '', '', ( #45 ) ) ;
#129 = ORIENTED_EDGE ( 'NONE', *, *, #152, .T. ) ;
#130 = VECTOR ( 'NONE', #95, 39.37007874015748143 ) ;
#131 = PRODUCT_DEFINITION_FORMATION_WITH_SPECIFIED_SOURCE ( 'ANY', '', #184, .NOT_KNOWN. ) ;
#132 = ORIENTED_EDGE ( 'NONE', *, *, #218, .F. ) ;
#133 = CARTESIAN_POINT ( 'NONE',  ( -1.224646799147353207E-16, 3.500000000000000000, 0.000000000000000000 ) ) ;
#134 =( NAMED_UNIT ( * ) SI_UNIT ( $, .STERADIAN. ) SOLID_ANGLE_UNIT ( ) );
#135 =( GEOMETRIC_REPRESENTATION_CONTEXT ( 3 ) GLOBAL_UNCERTAINTY_ASSIGNED_CONTEXT ( ( #183 ) ) GLOBAL_UNIT_ASSIGNED_CONTEXT ( ( #278, #193, #37 ) ) REPRESENTATION_CONTEXT ( 'NONE', 'WORKASPACE' ) );
#136 = CARTESIAN_POINT ( 'NONE',  ( 0.000000000000000000, 0.000000000000000000, 0.000000000000000000 ) ) ;
#137 = FACE_OUTER_BOUND ( 'NONE', #148, .T. ) ;
#138 = APPLICATION_PROTOCOL_DEFINITION ( 'draft international standard', 'automotive_design', 1998, #255 ) ;
#139 = DIRECTION ( 'NONE',  ( -6.123233995736767268E-17, 1.000000000000000000, -0.000000000000000000 ) ) ;
#140 = DIRECTION ( 'NONE',  ( -0.000000000000000000, -1.000000000000000000, -0.000000000000000000 ) ) ;
#141 = CARTESIAN_POINT ( 'NONE',  ( 0.1875000000000000555, 1.500000000000000222, 2.296212748401289266E-17 ) ) ;
#142 = DIRECTION ( 'NONE',  ( -6.123233995736767268E-17, 1.000000000000000000, -0.000000000000000000 ) ) ;
#143 = FACE_OUTER_BOUND ( 'NONE', #107, .T. ) ;
#144 = MECHANICAL_DESIGN_GEOMETRIC_PRESENTATION_REPRESENTATION (  '', ( #245 ), #182 ) ;
#145 = PRESENTATION_LAYER_ASSIGNMENT (  '', '', ( #276 ) ) ;
#146 =( LENGTH_UNIT ( ) NAMED_UNIT ( * ) SI_UNIT ( $, .METRE. ) );
#147 = DIRECTION ( 'NONE',  ( -1.000000000000000000, -6.123233995736767268E-17, 0.000000000000000000 ) ) ;
#148 = EDGE_LOOP ( 'NONE', ( #156, #129, #189, #201 ) ) ;
#149 =( NAMED_UNIT ( * ) PLANE_ANGLE_UNIT ( ) SI_UNIT ( $, .RADIAN. ) );
#150 = PLANE ( 'NONE',  #122 ) ;
#151 = AXIS2_PLACEMENT_3D ( 'NONE', #96, #164, #169 ) ;
#152 = EDGE_CURVE ( 'NONE', #22, #241, #213, .T. ) ;
#153 = AXIS2_PLACEMENT_3D ( 'NONE', #279, #142, #33 ) ;
#154 = CARTESIAN_POINT ( 'NONE',  ( 0.000000000000000000, 1.500000000000000222, -0.1875000000000000555 ) ) ;
#155 = CIRCLE ( 'NONE', #13, 0.1875000000000000555 ) ;
#156 = ORIENTED_EDGE ( 'NONE', *, *, #232, .T. ) ;
#157 = UNCERTAINTY_MEASURE_WITH_UNIT (LENGTH_MEASURE( 1.000000000000000082E-05 ), #94, 'distance_accuracy_value', 'NONE');
#158 = MECHANICAL_DESIGN_GEOMETRIC_PRESENTATION_REPRESENTATION (  '', ( #302 ), #251 ) ;
#159 = CIRCLE ( 'NONE', #108, 0.1875000000000000555 ) ;
#160 = UNCERTAINTY_MEASURE_WITH_UNIT (LENGTH_MEASURE( 1.000000000000000082E-05 ), #202, 'distance_accuracy_value', 'NONE');
#161 = AXIS2_PLACEMENT_3D ( 'NONE', #172, #254, #57 ) ;
#162 =( LENGTH_UNIT ( ) NAMED_UNIT ( * ) SI_UNIT ( $, .METRE. ) );
#163 = CARTESIAN_POINT ( 'NONE',  ( 0.000000000000000000, 1.500000000000000222, 0.000000000000000000 ) ) ;
#164 = DIRECTION ( 'NONE',  ( -0.000000000000000000, -1.000000000000000000, -0.000000000000000000 ) ) ;
#165 = DIRECTION ( 'NONE',  ( -0.000000000000000000, -1.000000000000000000, -0.000000000000000000 ) ) ;
#166 =( NAMED_UNIT ( * ) PLANE_ANGLE_UNIT ( ) SI_UNIT ( $, .RADIAN. ) );
#167 = SURFACE_SIDE_STYLE ('',( #176 ) ) ;
#168 =( NAMED_UNIT ( * ) SI_UNIT ( $, .STERADIAN. ) SOLID_ANGLE_UNIT ( ) );
#169 = DIRECTION ( 'NONE',  ( 0.000000000000000000, 0.000000000000000000, -1.000000000000000000 ) ) ;
#170 =( LENGTH_UNIT ( ) NAMED_UNIT ( * ) SI_UNIT ( $, .METRE. ) );
#171 =( NAMED_UNIT ( * ) SI_UNIT ( $, .STERADIAN. ) SOLID_ANGLE_UNIT ( ) );
#172 = CARTESIAN_POINT ( 'NONE',  ( 0.000000000000000000, 0.000000000000000000, 0.000000000000000000 ) ) ;
#173 = ADVANCED_FACE ( 'NONE', ( #137 ), #16, .T. ) ;
#174 = FACE_OUTER_BOUND ( 'NONE', #68, .T. ) ;
#175 = FILL_AREA_STYLE_COLOUR ( '', #71 ) ;
#176 = SURFACE_STYLE_FILL_AREA ( #237 ) ;
#177 = DIRECTION ( 'NONE',  ( -6.123233995736767268E-17, 1.000000000000000000, 0.000000000000000000 ) ) ;
#178 = DIRECTION ( 'NONE',  ( 6.123233995736767268E-17, -1.000000000000000000, 0.000000000000000000 ) ) ;
#179 = DIRECTION ( 'NONE',  ( -6.123233995736767268E-17, 1.000000000000000000, -0.000000000000000000 ) ) ;
#180 = EDGE_CURVE ( 'NONE', #198, #46, #298, .T. ) ;
#181 = ORIENTED_EDGE ( 'NONE', *, *, #211, .T. ) ;
#182 =( GEOMETRIC_REPRESENTATION_CONTEXT ( 3 ) GLOBAL_UNCERTAINTY_ASSIGNED_CONTEXT ( ( #157 ) ) GLOBAL_UNIT_ASSIGNED_CONTEXT ( ( #94, #214, #88 ) ) REPRESENTATION_CONTEXT ( 'NONE', 'WORKASPACE' ) );
#183 = UNCERTAINTY_MEASURE_WITH_UNIT (LENGTH_MEASURE( 1.000000000000000082E-05 ), #278, 'distance_accuracy_value', 'NONE');
#184 = PRODUCT ( '48311', '48311', '', ( #116 ) ) ;
#185 = ADVANCED_FACE ( 'NONE', ( #290 ), #67, .F. ) ;
#186 =( GEOMETRIC_REPRESENTATION_CONTEXT ( 3 ) GLOBAL_UNCERTAINTY_ASSIGNED_CONTEXT ( ( #30 ) ) GLOBAL_UNIT_ASSIGNED_CONTEXT ( ( #257, #19, #12 ) ) REPRESENTATION_CONTEXT ( 'NONE', 'WORKASPACE' ) );
#187 = UNCERTAINTY_MEASURE_WITH_UNIT (LENGTH_MEASURE( 1.000000000000000082E-05 ), #248, 'distance_accuracy_value', 'NONE');
#188 = APPLICATION_CONTEXT ( 'automotive_design' ) ;
#189 = ORIENTED_EDGE ( 'NONE', *, *, #6, .F. ) ;
#190 = DIRECTION ( 'NONE',  ( 0.000000000000000000, -1.000000000000000000, -0.000000000000000000 ) ) ;
#191 = CARTESIAN_POINT ( 'NONE',  ( -1.224646799147353207E-16, 3.500000000000000000, 0.000000000000000000 ) ) ;
#192 = FILL_AREA_STYLE ('',( #282 ) ) ;
#193 =( NAMED_UNIT ( * ) PLANE_ANGLE_UNIT ( ) SI_UNIT ( $, .RADIAN. ) );
#194 = DIRECTION ( 'NONE',  ( -0.000000000000000000, -1.000000000000000000, -0.000000000000000000 ) ) ;
#195 = ADVANCED_FACE ( 'NONE', ( #240 ), #150, .F. ) ;
#196 = DIRECTION ( 'NONE',  ( 0.000000000000000000, 0.000000000000000000, -1.000000000000000000 ) ) ;
#197 = MANIFOLD_SOLID_BREP ( 'Revolve - Tool Body (Straight Shanked)', #127 ) ;
#198 = VERTEX_POINT ( 'NONE', #265 ) ;
#199 = LINE ( 'NONE', #43, #247 ) ;
#200 = EDGE_LOOP ( 'NONE', ( #42, #204 ) ) ;
#201 = ORIENTED_EDGE ( 'NONE', *, *, #48, .F. ) ;
#202 =( CONVERSION_BASED_UNIT ( 'INCH', #21 ) LENGTH_UNIT ( ) NAMED_UNIT ( #78 ) );
#203 = CARTESIAN_POINT ( 'NONE',  ( -1.224646799147353207E-16, 3.500000000000000000, 0.000000000000000000 ) ) ;
#204 = ORIENTED_EDGE ( 'NONE', *, *, #76, .T. ) ;
#205 = EDGE_LOOP ( 'NONE', ( #307, #270, #220, #132 ) ) ;
#206 = AXIS2_PLACEMENT_3D ( 'NONE', #53, #55, #7 ) ;
#207 = VECTOR ( 'NONE', #165, 39.37007874015748143 ) ;
#208 = CARTESIAN_POINT ( 'NONE',  ( 2.296212748401288034E-17, 0.000000000000000000, 0.1875000000000000555 ) ) ;
#209 = CARTESIAN_POINT ( 'NONE',  ( 0.000000000000000000, 1.500000000000000222, 0.000000000000000000 ) ) ;
#210 = PRESENTATION_STYLE_ASSIGNMENT (( #113 ) ) ;
#211 = EDGE_CURVE ( 'NONE', #46, #198, #159, .T. ) ;
#212 = AXIS2_PLACEMENT_3D ( 'NONE', #38, #70, #196 ) ;
#213 = LINE ( 'NONE', #208, #207 ) ;
#214 =( NAMED_UNIT ( * ) PLANE_ANGLE_UNIT ( ) SI_UNIT ( $, .RADIAN. ) );
#215 =( LENGTH_UNIT ( ) NAMED_UNIT ( * ) SI_UNIT ( $, .METRE. ) );
#216 = STYLED_ITEM ( 'NONE', ( #87 ), #86 ) ;
#217 = ORIENTED_EDGE ( 'NONE', *, *, #25, .T. ) ;
#218 = EDGE_CURVE ( 'NONE', #198, #291, #97, .T. ) ;
#219 = DIRECTION ( 'NONE',  ( -6.123233995736767268E-17, 1.000000000000000000, -0.000000000000000000 ) ) ;
#220 = ORIENTED_EDGE ( 'NONE', *, *, #227, .F. ) ;
#221 = PRODUCT_DEFINITION_CONTEXT ( 'detailed design', #255, 'design' ) ;
#222 = ORIENTED_EDGE ( 'NONE', *, *, #223, .F. ) ;
#223 = EDGE_CURVE ( 'NONE', #46, #105, #199, .T. ) ;
#224 =( GEOMETRIC_REPRESENTATION_CONTEXT ( 3 ) GLOBAL_UNCERTAINTY_ASSIGNED_CONTEXT ( ( #11 ) ) GLOBAL_UNIT_ASSIGNED_CONTEXT ( ( #61, #166, #168 ) ) REPRESENTATION_CONTEXT ( 'NONE', 'WORKASPACE' ) );
#225 = EDGE_LOOP ( 'NONE', ( #286, #109 ) ) ;
#226 = LENGTH_MEASURE_WITH_UNIT ( LENGTH_MEASURE( 0.02539999999999999897 ), #300 );
#227 = EDGE_CURVE ( 'NONE', #291, #105, #111, .T. ) ;
#228 =( LENGTH_UNIT ( ) NAMED_UNIT ( * ) SI_UNIT ( $, .METRE. ) );
#229 = CLOSED_SHELL ( 'NONE', ( #173, #26, #44, #63 ) ) ;
#230 = SURFACE_STYLE_FILL_AREA ( #301 ) ;
#231 = LENGTH_MEASURE_WITH_UNIT ( LENGTH_MEASURE( 0.02539999999999999897 ), #228 );
#232 = EDGE_CURVE ( 'NONE', #249, #22, #155, .T. ) ;
#233 = LINE ( 'NONE', #34, #90 ) ;
#234 = LENGTH_MEASURE_WITH_UNIT ( LENGTH_MEASURE( 0.02539999999999999897 ), #258 );
#235 = COLOUR_RGB ( '',1.000000000000000000, 0.000000000000000000, 0.000000000000000000 ) ;
#236 = MECHANICAL_DESIGN_GEOMETRIC_PRESENTATION_REPRESENTATION (  '', ( #216 ), #186 ) ;
#237 = FILL_AREA_STYLE ('',( #72 ) ) ;
#238 = SURFACE_SIDE_STYLE ('',( #123 ) ) ;
#239 = CARTESIAN_POINT ( 'NONE',  ( 0.000000000000000000, 1.500000000000000222, 0.000000000000000000 ) ) ;
#240 = FACE_OUTER_BOUND ( 'NONE', #200, .T. ) ;
#241 = VERTEX_POINT ( 'NONE', #269 ) ;
#242 = PRODUCT_DEFINITION_SHAPE ( 'NONE', 'NONE',  #287 ) ;
#243 = DIRECTION ( 'NONE',  ( 1.000000000000000000, 6.123233995736767268E-17, 0.000000000000000000 ) ) ;
#244 = CARTESIAN_POINT ( 'NONE',  ( -0.1875000000000003331, 3.500000000000000000, 0.000000000000000000 ) ) ;
#245 = STYLED_ITEM ( 'NONE', ( #36 ), #44 ) ;
#246 = DIMENSIONAL_EXPONENTS ( 1.000000000000000000, 0.000000000000000000, 0.000000000000000000, 0.000000000000000000, 0.000000000000000000, 0.000000000000000000, 0.000000000000000000 ) ;
#247 = VECTOR ( 'NONE', #179, 39.37007874015748143 ) ;
#248 =( CONVERSION_BASED_UNIT ( 'INCH', #28 ) LENGTH_UNIT ( ) NAMED_UNIT ( #246 ) );
#249 = VERTEX_POINT ( 'NONE', #154 ) ;
#250 = ORIENTED_EDGE ( 'NONE', *, *, #25, .F. ) ;
#251 =( GEOMETRIC_REPRESENTATION_CONTEXT ( 3 ) GLOBAL_UNCERTAINTY_ASSIGNED_CONTEXT ( ( #187 ) ) GLOBAL_UNIT_ASSIGNED_CONTEXT ( ( #248, #288, #171 ) ) REPRESENTATION_CONTEXT ( 'NONE', 'WORKASPACE' ) );
#252 = MECHANICAL_DESIGN_GEOMETRIC_PRESENTATION_REPRESENTATION (  '', ( #276 ), #135 ) ;
#253 = DIRECTION ( 'NONE',  ( 0.000000000000000000, 0.000000000000000000, -1.000000000000000000 ) ) ;
#254 = DIRECTION ( 'NONE',  ( 0.000000000000000000, 0.000000000000000000, 1.000000000000000000 ) ) ;
#255 = APPLICATION_CONTEXT ( 'automotive_design' ) ;
#256 = ADVANCED_BREP_SHAPE_REPRESENTATION ( '48311', ( #86, #197, #161 ), #224 ) ;
#257 =( CONVERSION_BASED_UNIT ( 'INCH', #231 ) LENGTH_UNIT ( ) NAMED_UNIT ( #294 ) );
#258 =( LENGTH_UNIT ( ) NAMED_UNIT ( * ) SI_UNIT ( $, .METRE. ) );
#259 = AXIS2_PLACEMENT_3D ( 'NONE', #54, #115, #253 ) ;
#260 = SURFACE_STYLE_USAGE ( .BOTH. , #167 ) ;
#261 = FACE_OUTER_BOUND ( 'NONE', #102, .T. ) ;
#262 = PLANE ( 'NONE',  #121 ) ;
#263 = SURFACE_STYLE_FILL_AREA ( #15 ) ;
#264 = AXIS2_PLACEMENT_3D ( 'NONE', #133, #274, #82 ) ;
#265 = CARTESIAN_POINT ( 'NONE',  ( -0.1875000000000000555, 1.500000000000000222, 0.000000000000000000 ) ) ;
#266 = DIRECTION ( 'NONE',  ( -1.000000000000000000, 0.000000000000000000, 0.000000000000000000 ) ) ;
#267 = PRESENTATION_STYLE_ASSIGNMENT (( #309 ) ) ;
#268 = COLOUR_RGB ( '',1.000000000000000000, 0.000000000000000000, 0.000000000000000000 ) ;
#269 = CARTESIAN_POINT ( 'NONE',  ( 2.296212748401287726E-17, 0.000000000000000000, 0.1875000000000000278 ) ) ;
#270 = ORIENTED_EDGE ( 'NONE', *, *, #223, .T. ) ;
#271 = DIMENSIONAL_EXPONENTS ( 1.000000000000000000, 0.000000000000000000, 0.000000000000000000, 0.000000000000000000, 0.000000000000000000, 0.000000000000000000, 0.000000000000000000 ) ;
#272 = ORIENTED_EDGE ( 'NONE', *, *, #232, .F. ) ;
#273 = ORIENTED_EDGE ( 'NONE', *, *, #51, .T. ) ;
#274 = DIRECTION ( 'NONE',  ( -6.123233995736767268E-17, 1.000000000000000000, -0.000000000000000000 ) ) ;
#275 = PRESENTATION_LAYER_ASSIGNMENT (  '', '', ( #302 ) ) ;
#276 = STYLED_ITEM ( 'NONE', ( #210 ), #173 ) ;
#277 = PRESENTATION_STYLE_ASSIGNMENT (( #65 ) ) ;
#278 =( CONVERSION_BASED_UNIT ( 'INCH', #226 ) LENGTH_UNIT ( ) NAMED_UNIT ( #29 ) );
#279 = CARTESIAN_POINT ( 'NONE',  ( -1.224646799147353207E-16, 3.500000000000000000, 0.000000000000000000 ) ) ;
#280 = AXIS2_PLACEMENT_3D ( 'NONE', #191, #56, #112 ) ;
#281 = FILL_AREA_STYLE_COLOUR ( '', #268 ) ;
#282 = FILL_AREA_STYLE_COLOUR ( '', #10 ) ;
#283 = CYLINDRICAL_SURFACE ( 'NONE', #212, 0.1875000000000000555 ) ;
#284 = SHAPE_DEFINITION_REPRESENTATION ( #242, #256 ) ;
#285 = PLANE ( 'NONE',  #74 ) ;
#286 = ORIENTED_EDGE ( 'NONE', *, *, #180, .F. ) ;
#287 = PRODUCT_DEFINITION ( 'UNKNOWN', '', #131, #221 ) ;
#288 =( NAMED_UNIT ( * ) PLANE_ANGLE_UNIT ( ) SI_UNIT ( $, .RADIAN. ) );
#289 = AXIS2_PLACEMENT_3D ( 'NONE', #203, #219, #47 ) ;
#290 = FACE_OUTER_BOUND ( 'NONE', #225, .T. ) ;
#291 = VERTEX_POINT ( 'NONE', #244 ) ;
#292 = CARTESIAN_POINT ( 'NONE',  ( 0.000000000000000000, 1.500000000000000222, 0.000000000000000000 ) ) ;
#293 =( NAMED_UNIT ( * ) PLANE_ANGLE_UNIT ( ) SI_UNIT ( $, .RADIAN. ) );
#294 = DIMENSIONAL_EXPONENTS ( 1.000000000000000000, 0.000000000000000000, 0.000000000000000000, 0.000000000000000000, 0.000000000000000000, 0.000000000000000000, 0.000000000000000000 ) ;
#295 = MECHANICAL_DESIGN_GEOMETRIC_PRESENTATION_REPRESENTATION (  '', ( #45 ), #40 ) ;
#296 = ORIENTED_EDGE ( 'NONE', *, *, #6, .T. ) ;
#297 = SURFACE_SIDE_STYLE ('',( #49 ) ) ;
#298 = CIRCLE ( 'NONE', #80, 0.1875000000000000555 ) ;
#299 = FACE_OUTER_BOUND ( 'NONE', #83, .T. ) ;
#300 =( LENGTH_UNIT ( ) NAMED_UNIT ( * ) SI_UNIT ( $, .METRE. ) );
#301 = FILL_AREA_STYLE ('',( #281 ) ) ;
#302 = STYLED_ITEM ( 'NONE', ( #277 ), #26 ) ;
#303 = DIRECTION ( 'NONE',  ( 0.000000000000000000, -0.000000000000000000, 1.000000000000000000 ) ) ;
#304 = SURFACE_STYLE_USAGE ( .BOTH. , #59 ) ;
#305 = FILL_AREA_STYLE ('',( #14 ) ) ;
#306 = CARTESIAN_POINT ( 'NONE',  ( -0.1875000000000002498, 3.500000000000000000, 0.000000000000000000 ) ) ;
#307 = ORIENTED_EDGE ( 'NONE', *, *, #180, .T. ) ;
#308 = AXIS2_PLACEMENT_3D ( 'NONE', #209, #194, #17 ) ;
#309 = SURFACE_STYLE_USAGE ( .BOTH. , #238 ) ;
ENDSEC;
END-ISO-10303-21;
