ISO-10303-21;
HEADER;
FILE_DESCRIPTION (( 'STEP AP214' ),
    '1' );
FILE_NAME ('49270.STEP',
    '2023-06-30T21:59:27',
    ( '' ),
    ( '' ),
    'SwSTEP 2.0',
    'SolidWorks 2023',
    '' );
FILE_SCHEMA (( 'AUTOMOTIVE_DESIGN' ));
ENDSEC;

DATA;
#1 =( GEOMETRIC_REPRESENTATION_CONTEXT ( 3 ) GLOBAL_UNCERTAINTY_ASSIGNED_CONTEXT ( ( #342 ) ) GLOBAL_UNIT_ASSIGNED_CONTEXT ( ( #271, #343, #67 ) ) REPRESENTATION_CONTEXT ( 'NONE', 'WORKASPACE' ) );
#2 = FILL_AREA_STYLE_COLOUR ( '', #88 ) ;
#3 =( NAMED_UNIT ( * ) SI_UNIT ( $, .STERADIAN. ) SOLID_ANGLE_UNIT ( ) );
#4 = ADVANCED_FACE ( 'NONE', ( #284 ), #56, .T. ) ;
#5 = EDGE_LOOP ( 'NONE', ( #85, #24 ) ) ;
#6 = SURFACE_SIDE_STYLE ('',( #345 ) ) ;
#7 = DIRECTION ( 'NONE',  ( 0.000000000000000000, 0.000000000000000000, -1.000000000000000000 ) ) ;
#8 = EDGE_CURVE ( 'NONE', #178, #198, #118, .T. ) ;
#9 = DIRECTION ( 'NONE',  ( -1.224646799147353700E-16, 1.000000000000000000, -0.000000000000000000 ) ) ;
#10 = EDGE_LOOP ( 'NONE', ( #50, #130 ) ) ;
#11 = AXIS2_PLACEMENT_3D ( 'NONE', #355, #327, #325 ) ;
#12 = CLOSED_SHELL ( 'NONE', ( #243, #4, #162, #79, #224 ) ) ;
#13 = CYLINDRICAL_SURFACE ( 'NONE', #96, 0.2499999999999999167 ) ;
#14 = AXIS2_PLACEMENT_3D ( 'NONE', #167, #223, #274 ) ;
#15 = CIRCLE ( 'NONE', #335, 0.2499999999999998890 ) ;
#16 =( NAMED_UNIT ( * ) PLANE_ANGLE_UNIT ( ) SI_UNIT ( $, .RADIAN. ) );
#17 = DIRECTION ( 'NONE',  ( 0.000000000000000000, -0.000000000000000000, 1.000000000000000000 ) ) ;
#18 = VERTEX_POINT ( 'NONE', #62 ) ;
#19 = FILL_AREA_STYLE ('',( #2 ) ) ;
#20 =( NAMED_UNIT ( * ) PLANE_ANGLE_UNIT ( ) SI_UNIT ( $, .RADIAN. ) );
#21 = ORIENTED_EDGE ( 'NONE', *, *, #299, .F. ) ;
#22 = DIRECTION ( 'NONE',  ( -0.000000000000000000, -1.000000000000000000, -0.000000000000000000 ) ) ;
#23 =( NAMED_UNIT ( * ) SI_UNIT ( $, .STERADIAN. ) SOLID_ANGLE_UNIT ( ) );
#24 = ORIENTED_EDGE ( 'NONE', *, *, #371, .F. ) ;
#25 = CLOSED_SHELL ( 'NONE', ( #127, #350, #302, #279 ) ) ;
#26 = CIRCLE ( 'NONE', #11, 0.2500000000000000000 ) ;
#27 = ORIENTED_EDGE ( 'NONE', *, *, #371, .T. ) ;
#28 = FACE_OUTER_BOUND ( 'NONE', #192, .T. ) ;
#29 = CARTESIAN_POINT ( 'NONE',  ( 0.000000000000000000, 0.000000000000000000, 0.000000000000000000 ) ) ;
#30 = FILL_AREA_STYLE ('',( #353 ) ) ;
#31 = FILL_AREA_STYLE_COLOUR ( '', #227 ) ;
#32 = VECTOR ( 'NONE', #9, 39.37007874015748143 ) ;
#33 = FACE_OUTER_BOUND ( 'NONE', #41, .T. ) ;
#34 = CARTESIAN_POINT ( 'NONE',  ( -0.2499999999999999167, 3.000000000000000444, 0.000000000000000000 ) ) ;
#35 = DIRECTION ( 'NONE',  ( -1.224646799147353700E-16, 1.000000000000000000, -0.000000000000000000 ) ) ;
#36 = UNCERTAINTY_MEASURE_WITH_UNIT (LENGTH_MEASURE( 1.000000000000000082E-05 ), #258, 'distance_accuracy_value', 'NONE');
#37 = COLOUR_RGB ( '',1.000000000000000000, 0.000000000000000000, 0.000000000000000000 ) ;
#38 = AXIS2_PLACEMENT_3D ( 'NONE', #135, #245, #373 ) ;
#39 = CYLINDRICAL_SURFACE ( 'NONE', #252, 0.2499999999999998612 ) ;
#40 = CARTESIAN_POINT ( 'NONE',  ( 3.061616997868383018E-17, 0.2500000000000000555, 0.2500000000000000000 ) ) ;
#41 = EDGE_LOOP ( 'NONE', ( #116, #114, #59, #221, #183 ) ) ;
#42 = FACE_OUTER_BOUND ( 'NONE', #45, .T. ) ;
#43 = FACE_OUTER_BOUND ( 'NONE', #268, .T. ) ;
#44 = DIRECTION ( 'NONE',  ( -1.000000000000000000, 0.000000000000000000, 0.000000000000000000 ) ) ;
#45 = EDGE_LOOP ( 'NONE', ( #307, #250, #166, #138 ) ) ;
#46 = AXIS2_PLACEMENT_3D ( 'NONE', #176, #119, #233 ) ;
#47 = CARTESIAN_POINT ( 'NONE',  ( -3.061616997868383018E-17, 0.2500000000000000000, 0.000000000000000000 ) ) ;
#48 = UNCERTAINTY_MEASURE_WITH_UNIT (LENGTH_MEASURE( 1.000000000000000082E-05 ), #73, 'distance_accuracy_value', 'NONE');
#49 = SPHERICAL_SURFACE ( 'NONE', #158, 0.2500000000000000000 ) ;
#50 = ORIENTED_EDGE ( 'NONE', *, *, #149, .F. ) ;
#51 = EDGE_CURVE ( 'NONE', #312, #170, #168, .T. ) ;
#52 = AXIS2_PLACEMENT_3D ( 'NONE', #161, #22, #165 ) ;
#53 = CIRCLE ( 'NONE', #147, 0.2499999999999997224 ) ;
#54 =( CONVERSION_BASED_UNIT ( 'INCH', #349 ) LENGTH_UNIT ( ) NAMED_UNIT ( #277 ) );
#55 = SPHERICAL_SURFACE ( 'NONE', #68, 0.2500000000000000000 ) ;
#56 = CYLINDRICAL_SURFACE ( 'NONE', #364, 0.2499999999999999167 ) ;
#57 =( CONVERSION_BASED_UNIT ( 'INCH', #123 ) LENGTH_UNIT ( ) NAMED_UNIT ( #196 ) );
#58 = EDGE_CURVE ( 'NONE', #112, #18, #61, .T. ) ;
#59 = ORIENTED_EDGE ( 'NONE', *, *, #212, .T. ) ;
#60 =( LENGTH_UNIT ( ) NAMED_UNIT ( * ) SI_UNIT ( $, .METRE. ) );
#61 = CIRCLE ( 'NONE', #358, 0.2499999999999997224 ) ;
#62 = CARTESIAN_POINT ( 'NONE',  ( 0.2499999999999999167, 1.000000000000000000, 3.061616997868382402E-17 ) ) ;
#63 = SURFACE_SIDE_STYLE ('',( #316 ) ) ;
#64 = CARTESIAN_POINT ( 'NONE',  ( 0.000000000000000000, 1.000000000000000000, 0.000000000000000000 ) ) ;
#65 = DIRECTION ( 'NONE',  ( -0.000000000000000000, -1.000000000000000000, -0.000000000000000000 ) ) ;
#66 = SURFACE_SIDE_STYLE ('',( #211 ) ) ;
#67 =( NAMED_UNIT ( * ) SI_UNIT ( $, .STERADIAN. ) SOLID_ANGLE_UNIT ( ) );
#68 = AXIS2_PLACEMENT_3D ( 'NONE', #142, #326, #314 ) ;
#69 = AXIS2_PLACEMENT_3D ( 'NONE', #311, #65, #94 ) ;
#70 = SURFACE_STYLE_USAGE ( .BOTH. , #219 ) ;
#71 = SURFACE_SIDE_STYLE ('',( #190 ) ) ;
#72 = CARTESIAN_POINT ( 'NONE',  ( 1.836970198721030427E-16, 1.000000000000000000, 0.000000000000000000 ) ) ;
#73 =( CONVERSION_BASED_UNIT ( 'INCH', #218 ) LENGTH_UNIT ( ) NAMED_UNIT ( #172 ) );
#74 = FILL_AREA_STYLE_COLOUR ( '', #95 ) ;
#75 = DIRECTION ( 'NONE',  ( 1.224646799147353700E-16, -1.000000000000000000, 0.000000000000000000 ) ) ;
#76 = DIMENSIONAL_EXPONENTS ( 1.000000000000000000, 0.000000000000000000, 0.000000000000000000, 0.000000000000000000, 0.000000000000000000, 0.000000000000000000, 0.000000000000000000 ) ;
#77 = AXIS2_PLACEMENT_3D ( 'NONE', #47, #372, #242 ) ;
#78 = PRESENTATION_LAYER_ASSIGNMENT (  '', '', ( #98 ) ) ;
#79 = ADVANCED_FACE ( 'NONE', ( #33 ), #13, .T. ) ;
#80 = VERTEX_POINT ( 'NONE', #185 ) ;
#81 = VECTOR ( 'NONE', #35, 39.37007874015748143 ) ;
#82 = EDGE_LOOP ( 'NONE', ( #229, #207, #347, #337, #251 ) ) ;
#83 = EDGE_CURVE ( 'NONE', #239, #80, #26, .T. ) ;
#84 = PLANE ( 'NONE',  #255 ) ;
#85 = ORIENTED_EDGE ( 'NONE', *, *, #58, .F. ) ;
#86 = DIRECTION ( 'NONE',  ( 0.000000000000000000, 0.000000000000000000, -1.000000000000000000 ) ) ;
#87 = CARTESIAN_POINT ( 'NONE',  ( 3.061616997868382402E-17, 0.000000000000000000, 0.2499999999999999167 ) ) ;
#88 = COLOUR_RGB ( '',1.000000000000000000, 0.000000000000000000, 0.000000000000000000 ) ;
#89 = PRODUCT_DEFINITION_FORMATION_WITH_SPECIFIED_SOURCE ( 'ANY', '', #139, .NOT_KNOWN. ) ;
#90 = CARTESIAN_POINT ( 'NONE',  ( 1.836970198721030427E-16, 1.000000000000000000, 0.000000000000000000 ) ) ;
#91 = PRESENTATION_STYLE_ASSIGNMENT (( #184 ) ) ;
#92 = EDGE_CURVE ( 'NONE', #18, #179, #186, .T. ) ;
#93 = CARTESIAN_POINT ( 'NONE',  ( 0.000000000000000000, 0.000000000000000000, 0.000000000000000000 ) ) ;
#94 = DIRECTION ( 'NONE',  ( 0.000000000000000000, 0.000000000000000000, -1.000000000000000000 ) ) ;
#95 = COLOUR_RGB ( '',1.000000000000000000, 0.000000000000000000, 0.000000000000000000 ) ;
#96 = AXIS2_PLACEMENT_3D ( 'NONE', #93, #360, #209 ) ;
#97 = PRODUCT_DEFINITION_CONTEXT ( 'detailed design', #143, 'design' ) ;
#98 = STYLED_ITEM ( 'NONE', ( #91 ), #332 ) ;
#99 = MECHANICAL_DESIGN_GEOMETRIC_PRESENTATION_REPRESENTATION (  '', ( #121 ), #107 ) ;
#100 = PRODUCT_DEFINITION ( 'UNKNOWN', '', #89, #97 ) ;
#101 = CIRCLE ( 'NONE', #14, 0.2500000000000000000 ) ;
#102 = PRESENTATION_STYLE_ASSIGNMENT (( #366 ) ) ;
#103 = FACE_OUTER_BOUND ( 'NONE', #10, .T. ) ;
#104 = ORIENTED_EDGE ( 'NONE', *, *, #83, .F. ) ;
#105 = SURFACE_STYLE_FILL_AREA ( #369 ) ;
#106 = SHAPE_DEFINITION_REPRESENTATION ( #160, #248 ) ;
#107 =( GEOMETRIC_REPRESENTATION_CONTEXT ( 3 ) GLOBAL_UNCERTAINTY_ASSIGNED_CONTEXT ( ( #187 ) ) GLOBAL_UNIT_ASSIGNED_CONTEXT ( ( #54, #254, #320 ) ) REPRESENTATION_CONTEXT ( 'NONE', 'WORKASPACE' ) );
#108 = DIMENSIONAL_EXPONENTS ( 1.000000000000000000, 0.000000000000000000, 0.000000000000000000, 0.000000000000000000, 0.000000000000000000, 0.000000000000000000, 0.000000000000000000 ) ;
#109 =( NAMED_UNIT ( * ) PLANE_ANGLE_UNIT ( ) SI_UNIT ( $, .RADIAN. ) );
#110 = ORIENTED_EDGE ( 'NONE', *, *, #92, .F. ) ;
#111 = DIRECTION ( 'NONE',  ( 0.000000000000000000, 0.000000000000000000, 1.000000000000000000 ) ) ;
#112 = VERTEX_POINT ( 'NONE', #261 ) ;
#113 = EDGE_CURVE ( 'NONE', #170, #80, #175, .T. ) ;
#114 = ORIENTED_EDGE ( 'NONE', *, *, #322, .T. ) ;
#115 = VECTOR ( 'NONE', #204, 39.37007874015748143 ) ;
#116 = ORIENTED_EDGE ( 'NONE', *, *, #8, .F. ) ;
#117 = LINE ( 'NONE', #34, #32 ) ;
#118 = LINE ( 'NONE', #87, #115 ) ;
#119 = DIRECTION ( 'NONE',  ( -0.000000000000000000, -1.000000000000000000, -0.000000000000000000 ) ) ;
#120 = SURFACE_STYLE_FILL_AREA ( #356 ) ;
#121 = STYLED_ITEM ( 'NONE', ( #226 ), #4 ) ;
#122 = AXIS2_PLACEMENT_3D ( 'NONE', #144, #75, #237 ) ;
#123 = LENGTH_MEASURE_WITH_UNIT ( LENGTH_MEASURE( 0.02539999999999999897 ), #208 );
#124 = APPLICATION_CONTEXT ( 'automotive_design' ) ;
#125 =( NAMED_UNIT ( * ) SI_UNIT ( $, .STERADIAN. ) SOLID_ANGLE_UNIT ( ) );
#126 =( NAMED_UNIT ( * ) PLANE_ANGLE_UNIT ( ) SI_UNIT ( $, .RADIAN. ) );
#127 = ADVANCED_FACE ( 'NONE', ( #173 ), #39, .T. ) ;
#128 = MECHANICAL_DESIGN_GEOMETRIC_PRESENTATION_REPRESENTATION (  '', ( #334 ), #193 ) ;
#129 = DIRECTION ( 'NONE',  ( 0.000000000000000000, 1.000000000000000000, 0.000000000000000000 ) ) ;
#130 = ORIENTED_EDGE ( 'NONE', *, *, #322, .F. ) ;
#131 = SURFACE_STYLE_FILL_AREA ( #19 ) ;
#132 = PLANE ( 'NONE',  #263 ) ;
#133 = PRESENTATION_LAYER_ASSIGNMENT (  '', '', ( #328 ) ) ;
#134 = FILL_AREA_STYLE_COLOUR ( '', #37 ) ;
#135 = CARTESIAN_POINT ( 'NONE',  ( 0.000000000000000000, 0.000000000000000000, 0.000000000000000000 ) ) ;
#136 =( CONVERSION_BASED_UNIT ( 'INCH', #344 ) LENGTH_UNIT ( ) NAMED_UNIT ( #108 ) );
#137 = PRODUCT_CONTEXT ( 'NONE', #124, 'mechanical' ) ;
#138 = ORIENTED_EDGE ( 'NONE', *, *, #236, .T. ) ;
#139 = PRODUCT ( '49270', '49270', '', ( #137 ) ) ;
#140 =( GEOMETRIC_REPRESENTATION_CONTEXT ( 3 ) GLOBAL_UNCERTAINTY_ASSIGNED_CONTEXT ( ( #48 ) ) GLOBAL_UNIT_ASSIGNED_CONTEXT ( ( #73, #109, #125 ) ) REPRESENTATION_CONTEXT ( 'NONE', 'WORKASPACE' ) );
#141 = SURFACE_STYLE_USAGE ( .BOTH. , #6 ) ;
#142 = CARTESIAN_POINT ( 'NONE',  ( -3.061616997868383018E-17, 0.2500000000000000000, 0.000000000000000000 ) ) ;
#143 = APPLICATION_CONTEXT ( 'automotive_design' ) ;
#144 = CARTESIAN_POINT ( 'NONE',  ( 0.2499999999999998890, 3.000000000000000444, 0.000000000000000000 ) ) ;
#145 = ORIENTED_EDGE ( 'NONE', *, *, #51, .T. ) ;
#146 =( GEOMETRIC_REPRESENTATION_CONTEXT ( 3 ) GLOBAL_UNCERTAINTY_ASSIGNED_CONTEXT ( ( #266 ) ) GLOBAL_UNIT_ASSIGNED_CONTEXT ( ( #136, #280, #3 ) ) REPRESENTATION_CONTEXT ( 'NONE', 'WORKASPACE' ) );
#147 = AXIS2_PLACEMENT_3D ( 'NONE', #72, #169, #304 ) ;
#148 = CARTESIAN_POINT ( 'NONE',  ( 0.000000000000000000, 0.2500000000000000555, 0.000000000000000000 ) ) ;
#149 = EDGE_CURVE ( 'NONE', #317, #178, #213, .T. ) ;
#150 = CARTESIAN_POINT ( 'NONE',  ( 0.000000000000000000, 1.000000000000000000, -0.2499999999999998890 ) ) ;
#151 = DIRECTION ( 'NONE',  ( -0.000000000000000000, -1.000000000000000000, -0.000000000000000000 ) ) ;
#152 = MECHANICAL_DESIGN_GEOMETRIC_PRESENTATION_REPRESENTATION (  '', ( #328 ), #140 ) ;
#153 = DIRECTION ( 'NONE',  ( -0.000000000000000000, -1.000000000000000000, -0.000000000000000000 ) ) ;
#154 = PRODUCT_RELATED_PRODUCT_CATEGORY ( 'part', '', ( #139 ) ) ;
#155 = UNCERTAINTY_MEASURE_WITH_UNIT (LENGTH_MEASURE( 1.000000000000000082E-05 ), #329, 'distance_accuracy_value', 'NONE');
#156 =( NAMED_UNIT ( * ) SI_UNIT ( $, .STERADIAN. ) SOLID_ANGLE_UNIT ( ) );
#157 = LENGTH_MEASURE_WITH_UNIT ( LENGTH_MEASURE( 0.02539999999999999897 ), #188 );
#158 = AXIS2_PLACEMENT_3D ( 'NONE', #278, #111, #171 ) ;
#159 = CIRCLE ( 'NONE', #297, 0.2499999999999999722 ) ;
#160 = PRODUCT_DEFINITION_SHAPE ( 'NONE', 'NONE',  #100 ) ;
#161 = CARTESIAN_POINT ( 'NONE',  ( 0.000000000000000000, 1.000000000000000000, 0.000000000000000000 ) ) ;
#162 = ADVANCED_FACE ( 'NONE', ( #103 ), #132, .T. ) ;
#163 = UNCERTAINTY_MEASURE_WITH_UNIT (LENGTH_MEASURE( 1.000000000000000082E-05 ), #289, 'distance_accuracy_value', 'NONE');
#164 = CARTESIAN_POINT ( 'NONE',  ( -0.2500000000000000000, 0.2500000000000000555, 3.061616997868382402E-17 ) ) ;
#165 = DIRECTION ( 'NONE',  ( 0.000000000000000000, 0.000000000000000000, -1.000000000000000000 ) ) ;
#166 = ORIENTED_EDGE ( 'NONE', *, *, #113, .F. ) ;
#167 = CARTESIAN_POINT ( 'NONE',  ( 0.000000000000000000, 0.2500000000000000555, 0.000000000000000000 ) ) ;
#168 = CIRCLE ( 'NONE', #46, 0.2500000000000000000 ) ;
#169 = DIRECTION ( 'NONE',  ( -1.224646799147353700E-16, 1.000000000000000000, -0.000000000000000000 ) ) ;
#170 = VERTEX_POINT ( 'NONE', #238 ) ;
#171 = DIRECTION ( 'NONE',  ( 1.000000000000000000, 0.000000000000000000, 0.000000000000000000 ) ) ;
#172 = DIMENSIONAL_EXPONENTS ( 1.000000000000000000, 0.000000000000000000, 0.000000000000000000, 0.000000000000000000, 0.000000000000000000, 0.000000000000000000, 0.000000000000000000 ) ;
#173 = FACE_OUTER_BOUND ( 'NONE', #231, .T. ) ;
#174 = CARTESIAN_POINT ( 'NONE',  ( -6.123233995736772199E-17, 3.000000000000000444, 0.000000000000000000 ) ) ;
#175 = CIRCLE ( 'NONE', #77, 0.2500000000000000000 ) ;
#176 = CARTESIAN_POINT ( 'NONE',  ( 0.000000000000000000, 0.2500000000000000555, 0.000000000000000000 ) ) ;
#177 = ORIENTED_EDGE ( 'NONE', *, *, #357, .F. ) ;
#178 = VERTEX_POINT ( 'NONE', #363 ) ;
#179 = VERTEX_POINT ( 'NONE', #303 ) ;
#180 = CIRCLE ( 'NONE', #282, 0.2499999999999999722 ) ;
#181 = SURFACE_SIDE_STYLE ('',( #120 ) ) ;
#182 = MECHANICAL_DESIGN_GEOMETRIC_PRESENTATION_REPRESENTATION (  '', ( #264 ), #352 ) ;
#183 = ORIENTED_EDGE ( 'NONE', *, *, #362, .F. ) ;
#184 = SURFACE_STYLE_USAGE ( .BOTH. , #63 ) ;
#185 = CARTESIAN_POINT ( 'NONE',  ( -1.530808498934191509E-17, 0.000000000000000000, 0.000000000000000000 ) ) ;
#186 = LINE ( 'NONE', #298, #81 ) ;
#187 = UNCERTAINTY_MEASURE_WITH_UNIT (LENGTH_MEASURE( 1.000000000000000082E-05 ), #54, 'distance_accuracy_value', 'NONE');
#188 =( LENGTH_UNIT ( ) NAMED_UNIT ( * ) SI_UNIT ( $, .METRE. ) );
#189 =( GEOMETRIC_REPRESENTATION_CONTEXT ( 3 ) GLOBAL_UNCERTAINTY_ASSIGNED_CONTEXT ( ( #240 ) ) GLOBAL_UNIT_ASSIGNED_CONTEXT ( ( #57, #20, #156 ) ) REPRESENTATION_CONTEXT ( 'NONE', 'WORKASPACE' ) );
#190 = SURFACE_STYLE_FILL_AREA ( #270 ) ;
#191 = DIRECTION ( 'NONE',  ( -1.224646799147353700E-16, 1.000000000000000000, -0.000000000000000000 ) ) ;
#192 = EDGE_LOOP ( 'NONE', ( #110, #27, #222, #323 ) ) ;
#193 =( GEOMETRIC_REPRESENTATION_CONTEXT ( 3 ) GLOBAL_UNCERTAINTY_ASSIGNED_CONTEXT ( ( #36 ) ) GLOBAL_UNIT_ASSIGNED_CONTEXT ( ( #258, #16, #262 ) ) REPRESENTATION_CONTEXT ( 'NONE', 'WORKASPACE' ) );
#194 = DIRECTION ( 'NONE',  ( -1.000000000000000000, 0.000000000000000000, 0.000000000000000000 ) ) ;
#195 = CARTESIAN_POINT ( 'NONE',  ( 1.836970198721030181E-16, 1.000000000000000000, 0.000000000000000000 ) ) ;
#196 = DIMENSIONAL_EXPONENTS ( 1.000000000000000000, 0.000000000000000000, 0.000000000000000000, 0.000000000000000000, 0.000000000000000000, 0.000000000000000000, 0.000000000000000000 ) ;
#197 = EDGE_CURVE ( 'NONE', #179, #290, #180, .T. ) ;
#198 = VERTEX_POINT ( 'NONE', #40 ) ;
#199 = AXIS2_PLACEMENT_3D ( 'NONE', #148, #151, #86 ) ;
#200 = ORIENTED_EDGE ( 'NONE', *, *, #92, .T. ) ;
#201 = PRESENTATION_LAYER_ASSIGNMENT (  '', '', ( #264 ) ) ;
#202 = DIRECTION ( 'NONE',  ( -1.224646799147353700E-16, 1.000000000000000000, -0.000000000000000000 ) ) ;
#203 = SURFACE_STYLE_USAGE ( .BOTH. , #181 ) ;
#204 = DIRECTION ( 'NONE',  ( -0.000000000000000000, -1.000000000000000000, -0.000000000000000000 ) ) ;
#205 = MECHANICAL_DESIGN_GEOMETRIC_PRESENTATION_REPRESENTATION (  '', ( #259 ), #1 ) ;
#206 = DIRECTION ( 'NONE',  ( 0.000000000000000000, 0.000000000000000000, -1.000000000000000000 ) ) ;
#207 = ORIENTED_EDGE ( 'NONE', *, *, #8, .T. ) ;
#208 =( LENGTH_UNIT ( ) NAMED_UNIT ( * ) SI_UNIT ( $, .METRE. ) );
#209 = DIRECTION ( 'NONE',  ( 0.000000000000000000, 0.000000000000000000, -1.000000000000000000 ) ) ;
#210 = LENGTH_MEASURE_WITH_UNIT ( LENGTH_MEASURE( 0.02539999999999999897 ), #272 );
#211 = SURFACE_STYLE_FILL_AREA ( #296 ) ;
#212 = EDGE_CURVE ( 'NONE', #317, #312, #217, .T. ) ;
#213 = CIRCLE ( 'NONE', #52, 0.2499999999999998890 ) ;
#214 = COLOUR_RGB ( '',0.7921568627450980005, 0.8196078431372548767, 0.9333333333333333481 ) ;
#215 = DIMENSIONAL_EXPONENTS ( 1.000000000000000000, 0.000000000000000000, 0.000000000000000000, 0.000000000000000000, 0.000000000000000000, 0.000000000000000000, 0.000000000000000000 ) ;
#216 = DIRECTION ( 'NONE',  ( -1.224646799147353700E-16, 1.000000000000000000, -0.000000000000000000 ) ) ;
#217 = LINE ( 'NONE', #338, #313 ) ;
#218 = LENGTH_MEASURE_WITH_UNIT ( LENGTH_MEASURE( 0.02539999999999999897 ), #246 );
#219 = SURFACE_SIDE_STYLE ('',( #105 ) ) ;
#220 = APPLICATION_PROTOCOL_DEFINITION ( 'draft international standard', 'automotive_design', 1998, #124 ) ;
#221 = ORIENTED_EDGE ( 'NONE', *, *, #293, .F. ) ;
#222 = ORIENTED_EDGE ( 'NONE', *, *, #299, .T. ) ;
#223 = DIRECTION ( 'NONE',  ( -0.000000000000000000, -1.000000000000000000, -0.000000000000000000 ) ) ;
#224 = ADVANCED_FACE ( 'NONE', ( #43 ), #49, .T. ) ;
#225 = ORIENTED_EDGE ( 'NONE', *, *, #58, .T. ) ;
#226 = PRESENTATION_STYLE_ASSIGNMENT (( #141 ) ) ;
#227 = COLOUR_RGB ( '',0.7921568627450980005, 0.8196078431372548767, 0.9333333333333333481 ) ;
#228 = FACE_OUTER_BOUND ( 'NONE', #5, .T. ) ;
#229 = ORIENTED_EDGE ( 'NONE', *, *, #149, .T. ) ;
#230 = DIRECTION ( 'NONE',  ( -1.000000000000000000, 0.000000000000000000, 0.000000000000000000 ) ) ;
#231 = EDGE_LOOP ( 'NONE', ( #225, #200, #177, #21 ) ) ;
#232 =( NAMED_UNIT ( * ) SI_UNIT ( $, .STERADIAN. ) SOLID_ANGLE_UNIT ( ) );
#233 = DIRECTION ( 'NONE',  ( 0.000000000000000000, 0.000000000000000000, -1.000000000000000000 ) ) ;
#234 = STYLED_ITEM ( 'NONE', ( #295 ), #224 ) ;
#235 = DIRECTION ( 'NONE',  ( -1.000000000000000000, 0.000000000000000000, 0.000000000000000000 ) ) ;
#236 = EDGE_CURVE ( 'NONE', #170, #198, #101, .T. ) ;
#237 = DIRECTION ( 'NONE',  ( 1.000000000000000000, 1.224646799147353700E-16, 0.000000000000000000 ) ) ;
#238 = CARTESIAN_POINT ( 'NONE',  ( 0.2500000000000000000, 0.2500000000000000555, 0.000000000000000000 ) ) ;
#239 = VERTEX_POINT ( 'NONE', #164 ) ;
#240 = UNCERTAINTY_MEASURE_WITH_UNIT (LENGTH_MEASURE( 1.000000000000000082E-05 ), #57, 'distance_accuracy_value', 'NONE');
#241 = CIRCLE ( 'NONE', #199, 0.2500000000000000000 ) ;
#242 = DIRECTION ( 'NONE',  ( -1.000000000000000000, 0.000000000000000000, 0.000000000000000000 ) ) ;
#243 = ADVANCED_FACE ( 'NONE', ( #42 ), #55, .T. ) ;
#244 = CARTESIAN_POINT ( 'NONE',  ( -6.123233995736772199E-17, 3.000000000000000444, 0.000000000000000000 ) ) ;
#245 = DIRECTION ( 'NONE',  ( 0.000000000000000000, 0.000000000000000000, 1.000000000000000000 ) ) ;
#246 =( LENGTH_UNIT ( ) NAMED_UNIT ( * ) SI_UNIT ( $, .METRE. ) );
#247 = LENGTH_MEASURE_WITH_UNIT ( LENGTH_MEASURE( 0.02539999999999999897 ), #341 );
#248 = ADVANCED_BREP_SHAPE_REPRESENTATION ( '49270', ( #332, #331, #38 ), #359 ) ;
#249 = APPLICATION_PROTOCOL_DEFINITION ( 'draft international standard', 'automotive_design', 1998, #143 ) ;
#250 = ORIENTED_EDGE ( 'NONE', *, *, #83, .T. ) ;
#251 = ORIENTED_EDGE ( 'NONE', *, *, #212, .F. ) ;
#252 = AXIS2_PLACEMENT_3D ( 'NONE', #244, #216, #194 ) ;
#253 = COLOUR_RGB ( '',1.000000000000000000, 0.000000000000000000, 0.000000000000000000 ) ;
#254 =( NAMED_UNIT ( * ) PLANE_ANGLE_UNIT ( ) SI_UNIT ( $, .RADIAN. ) );
#255 = AXIS2_PLACEMENT_3D ( 'NONE', #195, #276, #330 ) ;
#256 =( NAMED_UNIT ( * ) PLANE_ANGLE_UNIT ( ) SI_UNIT ( $, .RADIAN. ) );
#257 = ORIENTED_EDGE ( 'NONE', *, *, #293, .T. ) ;
#258 =( CONVERSION_BASED_UNIT ( 'INCH', #157 ) LENGTH_UNIT ( ) NAMED_UNIT ( #76 ) );
#259 = STYLED_ITEM ( 'NONE', ( #306 ), #162 ) ;
#260 = PRESENTATION_STYLE_ASSIGNMENT (( #203 ) ) ;
#261 = CARTESIAN_POINT ( 'NONE',  ( -0.2499999999999995559, 1.000000000000000000, 0.000000000000000000 ) ) ;
#262 =( NAMED_UNIT ( * ) SI_UNIT ( $, .STERADIAN. ) SOLID_ANGLE_UNIT ( ) );
#263 = AXIS2_PLACEMENT_3D ( 'NONE', #267, #129, #17 ) ;
#264 = STYLED_ITEM ( 'NONE', ( #260 ), #331 ) ;
#265 = DIRECTION ( 'NONE',  ( -1.224646799147353700E-16, 1.000000000000000000, -0.000000000000000000 ) ) ;
#266 = UNCERTAINTY_MEASURE_WITH_UNIT (LENGTH_MEASURE( 1.000000000000000082E-05 ), #136, 'distance_accuracy_value', 'NONE');
#267 = CARTESIAN_POINT ( 'NONE',  ( 0.000000000000000000, 1.000000000000000000, 0.000000000000000000 ) ) ;
#268 = EDGE_LOOP ( 'NONE', ( #104, #257, #145, #305 ) ) ;
#269 = FACE_OUTER_BOUND ( 'NONE', #285, .T. ) ;
#270 = FILL_AREA_STYLE ('',( #74 ) ) ;
#271 =( CONVERSION_BASED_UNIT ( 'INCH', #247 ) LENGTH_UNIT ( ) NAMED_UNIT ( #361 ) );
#272 =( LENGTH_UNIT ( ) NAMED_UNIT ( * ) SI_UNIT ( $, .METRE. ) );
#273 = ORIENTED_EDGE ( 'NONE', *, *, #357, .T. ) ;
#274 = DIRECTION ( 'NONE',  ( 0.000000000000000000, 0.000000000000000000, -1.000000000000000000 ) ) ;
#275 = SURFACE_STYLE_USAGE ( .BOTH. , #71 ) ;
#276 = DIRECTION ( 'NONE',  ( -1.224646799147353700E-16, 1.000000000000000000, 0.000000000000000000 ) ) ;
#277 = DIMENSIONAL_EXPONENTS ( 1.000000000000000000, 0.000000000000000000, 0.000000000000000000, 0.000000000000000000, 0.000000000000000000, 0.000000000000000000, 0.000000000000000000 ) ;
#278 = CARTESIAN_POINT ( 'NONE',  ( -3.061616997868383018E-17, 0.2500000000000000000, 0.000000000000000000 ) ) ;
#279 = ADVANCED_FACE ( 'NONE', ( #269 ), #340, .F. ) ;
#280 =( NAMED_UNIT ( * ) PLANE_ANGLE_UNIT ( ) SI_UNIT ( $, .RADIAN. ) );
#281 = COLOUR_RGB ( '',1.000000000000000000, 0.000000000000000000, 0.000000000000000000 ) ;
#282 = AXIS2_PLACEMENT_3D ( 'NONE', #336, #191, #309 ) ;
#283 = CIRCLE ( 'NONE', #69, 0.2500000000000000000 ) ;
#284 = FACE_OUTER_BOUND ( 'NONE', #82, .T. ) ;
#285 = EDGE_LOOP ( 'NONE', ( #273, #339 ) ) ;
#286 = PRESENTATION_LAYER_ASSIGNMENT (  '', '', ( #234 ) ) ;
#287 = MECHANICAL_DESIGN_GEOMETRIC_PRESENTATION_REPRESENTATION (  '', ( #98 ), #189 ) ;
#288 = DIRECTION ( 'NONE',  ( -0.000000000000000000, -1.000000000000000000, -0.000000000000000000 ) ) ;
#289 =( CONVERSION_BASED_UNIT ( 'INCH', #318 ) LENGTH_UNIT ( ) NAMED_UNIT ( #215 ) );
#290 = VERTEX_POINT ( 'NONE', #291 ) ;
#291 = CARTESIAN_POINT ( 'NONE',  ( -0.2500000000000000555, 3.000000000000000444, 0.000000000000000000 ) ) ;
#292 = PRESENTATION_STYLE_ASSIGNMENT (( #300 ) ) ;
#293 = EDGE_CURVE ( 'NONE', #239, #312, #241, .T. ) ;
#294 = CARTESIAN_POINT ( 'NONE',  ( -6.123233995736772199E-17, 3.000000000000000444, 0.000000000000000000 ) ) ;
#295 = PRESENTATION_STYLE_ASSIGNMENT (( #70 ) ) ;
#296 = FILL_AREA_STYLE ('',( #301 ) ) ;
#297 = AXIS2_PLACEMENT_3D ( 'NONE', #174, #370, #44 ) ;
#298 = CARTESIAN_POINT ( 'NONE',  ( 0.2499999999999998057, 3.000000000000000444, 3.061616997868381785E-17 ) ) ;
#299 = EDGE_CURVE ( 'NONE', #112, #290, #117, .T. ) ;
#300 = SURFACE_STYLE_USAGE ( .BOTH. , #66 ) ;
#301 = FILL_AREA_STYLE_COLOUR ( '', #253 ) ;
#302 = ADVANCED_FACE ( 'NONE', ( #28 ), #324, .T. ) ;
#303 = CARTESIAN_POINT ( 'NONE',  ( 0.2499999999999999167, 3.000000000000000444, 3.061616997868382402E-17 ) ) ;
#304 = DIRECTION ( 'NONE',  ( -1.000000000000000000, 0.000000000000000000, 0.000000000000000000 ) ) ;
#305 = ORIENTED_EDGE ( 'NONE', *, *, #113, .T. ) ;
#306 = PRESENTATION_STYLE_ASSIGNMENT (( #275 ) ) ;
#307 = ORIENTED_EDGE ( 'NONE', *, *, #362, .T. ) ;
#308 =( LENGTH_UNIT ( ) NAMED_UNIT ( * ) SI_UNIT ( $, .METRE. ) );
#309 = DIRECTION ( 'NONE',  ( -1.000000000000000000, 0.000000000000000000, 0.000000000000000000 ) ) ;
#310 = DIMENSIONAL_EXPONENTS ( 1.000000000000000000, 0.000000000000000000, 0.000000000000000000, 0.000000000000000000, 0.000000000000000000, 0.000000000000000000, 0.000000000000000000 ) ;
#311 = CARTESIAN_POINT ( 'NONE',  ( 0.000000000000000000, 0.2500000000000000555, 0.000000000000000000 ) ) ;
#312 = VERTEX_POINT ( 'NONE', #348 ) ;
#313 = VECTOR ( 'NONE', #367, 39.37007874015748143 ) ;
#314 = DIRECTION ( 'NONE',  ( 1.000000000000000000, 0.000000000000000000, 0.000000000000000000 ) ) ;
#315 =( LENGTH_UNIT ( ) NAMED_UNIT ( * ) SI_UNIT ( $, .METRE. ) );
#316 = SURFACE_STYLE_FILL_AREA ( #321 ) ;
#317 = VERTEX_POINT ( 'NONE', #150 ) ;
#318 = LENGTH_MEASURE_WITH_UNIT ( LENGTH_MEASURE( 0.02539999999999999897 ), #60 );
#319 = MECHANICAL_DESIGN_GEOMETRIC_PRESENTATION_REPRESENTATION (  '', ( #234 ), #146 ) ;
#320 =( NAMED_UNIT ( * ) SI_UNIT ( $, .STERADIAN. ) SOLID_ANGLE_UNIT ( ) );
#321 = FILL_AREA_STYLE ('',( #354 ) ) ;
#322 = EDGE_CURVE ( 'NONE', #178, #317, #15, .T. ) ;
#323 = ORIENTED_EDGE ( 'NONE', *, *, #197, .F. ) ;
#324 = CYLINDRICAL_SURFACE ( 'NONE', #365, 0.2499999999999998612 ) ;
#325 = DIRECTION ( 'NONE',  ( 1.000000000000000000, 0.000000000000000000, -1.224646799147353207E-16 ) ) ;
#326 = DIRECTION ( 'NONE',  ( 0.000000000000000000, 0.000000000000000000, 1.000000000000000000 ) ) ;
#327 = DIRECTION ( 'NONE',  ( 1.224646799147353207E-16, -0.000000000000000000, 1.000000000000000000 ) ) ;
#328 = STYLED_ITEM ( 'NONE', ( #102 ), #243 ) ;
#329 =( CONVERSION_BASED_UNIT ( 'INCH', #210 ) LENGTH_UNIT ( ) NAMED_UNIT ( #310 ) );
#330 = DIRECTION ( 'NONE',  ( -1.000000000000000000, -1.224646799147353700E-16, 0.000000000000000000 ) ) ;
#331 = MANIFOLD_SOLID_BREP ( 'Revolve - Tool Body (Straight Shanked)', #25 ) ;
#332 = MANIFOLD_SOLID_BREP ( 'Revolve - Cutting Edge', #12 ) ;
#333 = PRESENTATION_LAYER_ASSIGNMENT (  '', '', ( #121 ) ) ;
#334 = STYLED_ITEM ( 'NONE', ( #292 ), #79 ) ;
#335 = AXIS2_PLACEMENT_3D ( 'NONE', #64, #153, #206 ) ;
#336 = CARTESIAN_POINT ( 'NONE',  ( -6.123233995736772199E-17, 3.000000000000000444, 0.000000000000000000 ) ) ;
#337 = ORIENTED_EDGE ( 'NONE', *, *, #51, .F. ) ;
#338 = CARTESIAN_POINT ( 'NONE',  ( 0.000000000000000000, 0.000000000000000000, -0.2499999999999999167 ) ) ;
#339 = ORIENTED_EDGE ( 'NONE', *, *, #197, .T. ) ;
#340 = PLANE ( 'NONE',  #122 ) ;
#341 =( LENGTH_UNIT ( ) NAMED_UNIT ( * ) SI_UNIT ( $, .METRE. ) );
#342 = UNCERTAINTY_MEASURE_WITH_UNIT (LENGTH_MEASURE( 1.000000000000000082E-05 ), #271, 'distance_accuracy_value', 'NONE');
#343 =( NAMED_UNIT ( * ) PLANE_ANGLE_UNIT ( ) SI_UNIT ( $, .RADIAN. ) );
#344 = LENGTH_MEASURE_WITH_UNIT ( LENGTH_MEASURE( 0.02539999999999999897 ), #308 );
#345 = SURFACE_STYLE_FILL_AREA ( #30 ) ;
#346 = PRESENTATION_LAYER_ASSIGNMENT (  '', '', ( #259 ) ) ;
#347 = ORIENTED_EDGE ( 'NONE', *, *, #236, .F. ) ;
#348 = CARTESIAN_POINT ( 'NONE',  ( 0.000000000000000000, 0.2500000000000000555, -0.2500000000000000000 ) ) ;
#349 = LENGTH_MEASURE_WITH_UNIT ( LENGTH_MEASURE( 0.02539999999999999897 ), #315 );
#350 = ADVANCED_FACE ( 'NONE', ( #228 ), #84, .F. ) ;
#351 = PRESENTATION_LAYER_ASSIGNMENT (  '', '', ( #334 ) ) ;
#352 =( GEOMETRIC_REPRESENTATION_CONTEXT ( 3 ) GLOBAL_UNCERTAINTY_ASSIGNED_CONTEXT ( ( #163 ) ) GLOBAL_UNIT_ASSIGNED_CONTEXT ( ( #289, #256, #232 ) ) REPRESENTATION_CONTEXT ( 'NONE', 'WORKASPACE' ) );
#353 = FILL_AREA_STYLE_COLOUR ( '', #281 ) ;
#354 = FILL_AREA_STYLE_COLOUR ( '', #214 ) ;
#355 = CARTESIAN_POINT ( 'NONE',  ( -3.061616997868383018E-17, 0.2500000000000000000, 0.000000000000000000 ) ) ;
#356 = FILL_AREA_STYLE ('',( #31 ) ) ;
#357 = EDGE_CURVE ( 'NONE', #290, #179, #159, .T. ) ;
#358 = AXIS2_PLACEMENT_3D ( 'NONE', #90, #265, #235 ) ;
#359 =( GEOMETRIC_REPRESENTATION_CONTEXT ( 3 ) GLOBAL_UNCERTAINTY_ASSIGNED_CONTEXT ( ( #155 ) ) GLOBAL_UNIT_ASSIGNED_CONTEXT ( ( #329, #126, #23 ) ) REPRESENTATION_CONTEXT ( 'NONE', 'WORKASPACE' ) );
#360 = DIRECTION ( 'NONE',  ( -0.000000000000000000, -1.000000000000000000, -0.000000000000000000 ) ) ;
#361 = DIMENSIONAL_EXPONENTS ( 1.000000000000000000, 0.000000000000000000, 0.000000000000000000, 0.000000000000000000, 0.000000000000000000, 0.000000000000000000, 0.000000000000000000 ) ;
#362 = EDGE_CURVE ( 'NONE', #198, #239, #283, .T. ) ;
#363 = CARTESIAN_POINT ( 'NONE',  ( 3.061616997868381785E-17, 1.000000000000000000, 0.2499999999999998890 ) ) ;
#364 = AXIS2_PLACEMENT_3D ( 'NONE', #29, #288, #7 ) ;
#365 = AXIS2_PLACEMENT_3D ( 'NONE', #294, #202, #230 ) ;
#366 = SURFACE_STYLE_USAGE ( .BOTH. , #368 ) ;
#367 = DIRECTION ( 'NONE',  ( -0.000000000000000000, -1.000000000000000000, -0.000000000000000000 ) ) ;
#368 = SURFACE_SIDE_STYLE ('',( #131 ) ) ;
#369 = FILL_AREA_STYLE ('',( #134 ) ) ;
#370 = DIRECTION ( 'NONE',  ( -1.224646799147353700E-16, 1.000000000000000000, -0.000000000000000000 ) ) ;
#371 = EDGE_CURVE ( 'NONE', #18, #112, #53, .T. ) ;
#372 = DIRECTION ( 'NONE',  ( 0.000000000000000000, 0.000000000000000000, -1.000000000000000000 ) ) ;
#373 = DIRECTION ( 'NONE',  ( 1.000000000000000000, 0.000000000000000000, 0.000000000000000000 ) ) ;
ENDSEC;
END-ISO-10303-21;
