ISO-10303-21;
HEADER;
FILE_DESCRIPTION (( 'STEP AP214' ),
    '1' );
FILE_NAME ('Micro_SFAM-200100.STEP',
    '2021-09-02T04:32:32',
    ( '' ),
    ( '' ),
    'SwSTEP 2.0',
    'SolidWorks 2020',
    '' );
FILE_SCHEMA (( 'AUTOMOTIVE_DESIGN' ));
ENDSEC;

DATA;
#1 = LENGTH_MEASURE_WITH_UNIT ( LENGTH_MEASURE( 0.02539999999999999897 ), #8 );
#2 = CARTESIAN_POINT ( 'NONE',  ( 0.0000000000000000000, 0.0000000000000000000, 5.890512000000000192 ) ) ;
#3 = ORIENTED_EDGE ( 'NONE', *, *, #197, .T. ) ;
#4 = DIRECTION ( 'NONE',  ( -1.000000000000000000, 0.0000000000000000000, 0.0000000000000000000 ) ) ;
#5 = CARTESIAN_POINT ( 'NONE',  ( 0.0000000000000000000, 0.0000000000000000000, 5.905511999999999873 ) ) ;
#6 = CARTESIAN_POINT ( 'NONE',  ( -0.3937009999999999676, 0.0000000000000000000, 5.890512000000000192 ) ) ;
#7 = CYLINDRICAL_SURFACE ( 'NONE', #15, 0.3933072990000000546 ) ;
#8 =( LENGTH_UNIT ( ) NAMED_UNIT ( * ) SI_UNIT ( $, .METRE. ) );
#9 = DIRECTION ( 'NONE',  ( -1.224646799147353207E-16, -0.0000000000000000000, -1.000000000000000000 ) ) ;
#10 = CIRCLE ( 'NONE', #54, 0.3937009999999999676 ) ;
#11 = EDGE_CURVE ( 'NONE', #58, #138, #42, .T. ) ;
#12 = EDGE_LOOP ( 'NONE', ( #77, #262, #3, #120 ) ) ;
#13 = DIRECTION ( 'NONE',  ( -0.0000000000000000000, -0.0000000000000000000, -1.000000000000000000 ) ) ;
#14 = CARTESIAN_POINT ( 'NONE',  ( 1.931311831536045683E-16, 0.0000000000000000000, 1.577035789323664616 ) ) ;
#15 = AXIS2_PLACEMENT_3D ( 'NONE', #259, #94, #162 ) ;
#16 = EDGE_CURVE ( 'NONE', #164, #183, #222, .T. ) ;
#17 = AXIS2_PLACEMENT_3D ( 'NONE', #241, #218, #242 ) ;
#18 = UNCERTAINTY_MEASURE_WITH_UNIT (LENGTH_MEASURE( 1.000000000000000082E-05 ), #216, 'distance_accuracy_value', 'NONE');
#19 = ORIENTED_EDGE ( 'NONE', *, *, #176, .T. ) ;
#20 = FACE_OUTER_BOUND ( 'NONE', #113, .T. ) ;
#21 = ORIENTED_EDGE ( 'NONE', *, *, #11, .T. ) ;
#22 = DIRECTION ( 'NONE',  ( -0.7071067811865491270, 0.0000000000000000000, -0.7071067811865459074 ) ) ;
#23 = DIRECTION ( 'NONE',  ( 1.000000000000000000, 0.0000000000000000000, 0.0000000000000000000 ) ) ;
#24 = ORIENTED_EDGE ( 'NONE', *, *, #220, .F. ) ;
#25 = FACE_OUTER_BOUND ( 'NONE', #298, .T. ) ;
#26 = ORIENTED_EDGE ( 'NONE', *, *, #176, .F. ) ;
#27 = ORIENTED_EDGE ( 'NONE', *, *, #226, .T. ) ;
#28 = AXIS2_PLACEMENT_3D ( 'NONE', #55, #112, #147 ) ;
#29 = ORIENTED_EDGE ( 'NONE', *, *, #151, .T. ) ;
#30 = ORIENTED_EDGE ( 'NONE', *, *, #254, .T. ) ;
#31 = CARTESIAN_POINT ( 'NONE',  ( 0.0000000000000000000, 0.0000000000000000000, 5.905511999999999873 ) ) ;
#32 = EDGE_LOOP ( 'NONE', ( #21, #150, #39, #181 ) ) ;
#33 = ADVANCED_FACE ( 'NONE', ( #178 ), #7, .T. ) ;
#34 = DIRECTION ( 'NONE',  ( -0.0000000000000000000, -0.0000000000000000000, -1.000000000000000000 ) ) ;
#35 =( NAMED_UNIT ( * ) PLANE_ANGLE_UNIT ( ) SI_UNIT ( $, .RADIAN. ) );
#36 = ADVANCED_FACE ( 'NONE', ( #284 ), #86, .T. ) ;
#37 = UNCERTAINTY_MEASURE_WITH_UNIT (LENGTH_MEASURE( 1.000000000000000082E-05 ), #194, 'distance_accuracy_value', 'NONE');
#38 = CARTESIAN_POINT ( 'NONE',  ( 5.898664692675622805E-33, 0.0000000000000000000, 4.816625248016410340E-17 ) ) ;
#39 = ORIENTED_EDGE ( 'NONE', *, *, #254, .F. ) ;
#40 = STYLED_ITEM ( 'NONE', ( #142 ), #221 ) ;
#41 = DIRECTION ( 'NONE',  ( 0.0000000000000000000, 0.0000000000000000000, 1.000000000000000000 ) ) ;
#42 = CIRCLE ( 'NONE', #179, 0.3933072990000000546 ) ;
#43 = ADVANCED_FACE ( 'NONE', ( #116 ), #256, .T. ) ;
#44 = PRODUCT_CONTEXT ( 'NONE', #212, 'mechanical' ) ;
#45 = AXIS2_PLACEMENT_3D ( 'NONE', #215, #149, #76 ) ;
#46 = ADVANCED_FACE ( 'NONE', ( #207 ), #245, .T. ) ;
#47 = PRESENTATION_LAYER_ASSIGNMENT (  '', '', ( #131 ) ) ;
#48 = CARTESIAN_POINT ( 'NONE',  ( 0.3933072990000002767, 0.0000000000000000000, 1.574802999999999953 ) ) ;
#49 = DIRECTION ( 'NONE',  ( 1.224646799147353207E-16, 0.0000000000000000000, 1.000000000000000000 ) ) ;
#50 = LINE ( 'NONE', #144, #75 ) ;
#51 = EDGE_LOOP ( 'NONE', ( #229, #141, #24, #78 ) ) ;
#52 = CARTESIAN_POINT ( 'NONE',  ( -0.3787010000000002319, 0.0000000000000000000, 5.905511999999999873 ) ) ;
#53 = CARTESIAN_POINT ( 'NONE',  ( 0.3933072989999999991, 4.816625248016410340E-17, 7.582401355855259480E-33 ) ) ;
#54 = AXIS2_PLACEMENT_3D ( 'NONE', #154, #104, #236 ) ;
#55 = CARTESIAN_POINT ( 'NONE',  ( 0.0000000000000000000, 0.0000000000000000000, 5.905511999999999873 ) ) ;
#56 = CARTESIAN_POINT ( 'NONE',  ( -0.3933072990000000546, 0.0000000000000000000, 4.816625248016410956E-17 ) ) ;
#57 = DIRECTION ( 'NONE',  ( -1.000000000000000000, 0.0000000000000000000, 0.0000000000000000000 ) ) ;
#58 = VERTEX_POINT ( 'NONE', #255 ) ;
#59 = AXIS2_PLACEMENT_3D ( 'NONE', #228, #89, #180 ) ;
#60 = DIRECTION ( 'NONE',  ( -1.224646799147353207E-16, -0.0000000000000000000, -1.000000000000000000 ) ) ;
#61 = CARTESIAN_POINT ( 'NONE',  ( -0.3937009999999999676, 0.0000000000000000000, 5.905511999999999873 ) ) ;
#62 = VECTOR ( 'NONE', #273, 39.37007874015748143 ) ;
#63 = VECTOR ( 'NONE', #22, 39.37007874015748143 ) ;
#64 = CONICAL_SURFACE ( 'NONE', #237, 0.3787010000000002319, 0.7853981633974506105 ) ;
#65 = DIRECTION ( 'NONE',  ( 0.0000000000000000000, 0.0000000000000000000, 1.000000000000000000 ) ) ;
#66 = VECTOR ( 'NONE', #161, 39.37007874015748143 ) ;
#67 = CARTESIAN_POINT ( 'NONE',  ( 0.3787010000000002319, 4.637749674839021182E-17, 5.905511999999999873 ) ) ;
#68 = VERTEX_POINT ( 'NONE', #53 ) ;
#69 = EDGE_CURVE ( 'NONE', #58, #278, #145, .T. ) ;
#70 = FACE_OUTER_BOUND ( 'NONE', #292, .T. ) ;
#71 = ORIENTED_EDGE ( 'NONE', *, *, #151, .F. ) ;
#72 = SURFACE_SIDE_STYLE ('',( #225 ) ) ;
#73 = DIRECTION ( 'NONE',  ( 0.0000000000000000000, 0.0000000000000000000, -1.000000000000000000 ) ) ;
#74 = ORIENTED_EDGE ( 'NONE', *, *, #191, .T. ) ;
#75 = VECTOR ( 'NONE', #203, 39.37007874015747433 ) ;
#76 = DIRECTION ( 'NONE',  ( -1.000000000000000000, 0.0000000000000000000, 0.0000000000000000000 ) ) ;
#77 = ORIENTED_EDGE ( 'NONE', *, *, #291, .F. ) ;
#78 = ORIENTED_EDGE ( 'NONE', *, *, #197, .F. ) ;
#79 = PLANE ( 'NONE',  #114 ) ;
#80 = AXIS2_PLACEMENT_3D ( 'NONE', #269, #290, #294 ) ;
#81 = DIRECTION ( 'NONE',  ( -1.224646799147353207E-16, -0.0000000000000000000, -1.000000000000000000 ) ) ;
#82 = ORIENTED_EDGE ( 'NONE', *, *, #69, .T. ) ;
#83 = CARTESIAN_POINT ( 'NONE',  ( -0.3933072989999999991, 0.0000000000000000000, 9.633250496032820680E-17 ) ) ;
#84 = CIRCLE ( 'NONE', #205, 0.3937009999999999676 ) ;
#85 = EDGE_CURVE ( 'NONE', #58, #233, #50, .T. ) ;
#86 = CONICAL_SURFACE ( 'NONE', #185, 0.3933072990000000546, 0.1745329251994338915 ) ;
#87 = MANIFOLD_SOLID_BREP ( 'Cut-Revolve1', #139 ) ;
#88 = SURFACE_STYLE_FILL_AREA ( #92 ) ;
#89 = DIRECTION ( 'NONE',  ( 0.0000000000000000000, 0.0000000000000000000, 1.000000000000000000 ) ) ;
#90 = ORIENTED_EDGE ( 'NONE', *, *, #85, .F. ) ;
#91 = EDGE_CURVE ( 'NONE', #190, #183, #182, .T. ) ;
#92 = FILL_AREA_STYLE ('',( #201 ) ) ;
#93 = PRODUCT_DEFINITION_FORMATION_WITH_SPECIFIED_SOURCE ( 'ANY', '', #160, .NOT_KNOWN. ) ;
#94 = DIRECTION ( 'NONE',  ( -1.224646799147353207E-16, -0.0000000000000000000, -1.000000000000000000 ) ) ;
#95 = CARTESIAN_POINT ( 'NONE',  ( 0.3937009999999999676, 4.821446694711121291E-17, 5.890512000000000192 ) ) ;
#96 = DIRECTION ( 'NONE',  ( -1.000000000000000000, 0.0000000000000000000, 0.0000000000000000000 ) ) ;
#97 = DIRECTION ( 'NONE',  ( 1.000000000000000000, 0.0000000000000000000, 0.0000000000000000000 ) ) ;
#98 = DIRECTION ( 'NONE',  ( -1.224646799147353207E-16, -0.0000000000000000000, -1.000000000000000000 ) ) ;
#99 = CARTESIAN_POINT ( 'NONE',  ( 1.928577453237649374E-16, 0.0000000000000000000, 1.574802999999999953 ) ) ;
#100 = AXIS2_PLACEMENT_3D ( 'NONE', #231, #98, #140 ) ;
#101 = CYLINDRICAL_SURFACE ( 'NONE', #45, 0.3937009999999999676 ) ;
#102 = DIRECTION ( 'NONE',  ( -1.000000000000000000, 0.0000000000000000000, 1.224646799147353207E-16 ) ) ;
#103 = ORIENTED_EDGE ( 'NONE', *, *, #239, .F. ) ;
#104 = DIRECTION ( 'NONE',  ( -1.224646799147353207E-16, -0.0000000000000000000, -1.000000000000000000 ) ) ;
#105 = CIRCLE ( 'NONE', #80, 0.3937009999999999676 ) ;
#106 = DIRECTION ( 'NONE',  ( 1.000000000000000000, 0.0000000000000000000, 0.0000000000000000000 ) ) ;
#107 = AXIS2_PLACEMENT_3D ( 'NONE', #31, #41, #106 ) ;
#108 =( NAMED_UNIT ( * ) SI_UNIT ( $, .STERADIAN. ) SOLID_ANGLE_UNIT ( ) );
#109 = ADVANCED_FACE ( 'NONE', ( #20 ), #283, .T. ) ;
#110 = APPLICATION_CONTEXT ( 'automotive_design' ) ;
#111 = ORIENTED_EDGE ( 'NONE', *, *, #11, .F. ) ;
#112 = DIRECTION ( 'NONE',  ( 0.0000000000000000000, 0.0000000000000000000, 1.000000000000000000 ) ) ;
#113 = EDGE_LOOP ( 'NONE', ( #244, #118, #82, #232 ) ) ;
#114 = AXIS2_PLACEMENT_3D ( 'NONE', #240, #238, #267 ) ;
#115 = DIRECTION ( 'NONE',  ( 0.0000000000000000000, 0.0000000000000000000, -1.000000000000000000 ) ) ;
#116 = FACE_OUTER_BOUND ( 'NONE', #209, .T. ) ;
#117 = PLANE ( 'NONE',  #59 ) ;
#118 = ORIENTED_EDGE ( 'NONE', *, *, #299, .T. ) ;
#119 = CARTESIAN_POINT ( 'NONE',  ( -0.3787010000000002319, 0.0000000000000000000, 5.905511999999999873 ) ) ;
#120 = ORIENTED_EDGE ( 'NONE', *, *, #226, .F. ) ;
#121 = DIRECTION ( 'NONE',  ( 0.0000000000000000000, 0.0000000000000000000, -1.000000000000000000 ) ) ;
#122 = DIRECTION ( 'NONE',  ( -1.000000000000000000, 0.0000000000000000000, 1.224646799147353207E-16 ) ) ;
#123 = CARTESIAN_POINT ( 'NONE',  ( 0.0000000000000000000, 0.0000000000000000000, 5.905511999999999873 ) ) ;
#124 = ADVANCED_FACE ( 'NONE', ( #25 ), #117, .F. ) ;
#125 = LENGTH_MEASURE_WITH_UNIT ( LENGTH_MEASURE( 0.02539999999999999897 ), #146 );
#126 = CARTESIAN_POINT ( 'NONE',  ( -0.3937009999999998011, 0.0000000000000000000, 1.577035789323664616 ) ) ;
#127 = AXIS2_PLACEMENT_3D ( 'NONE', #99, #49, #23 ) ;
#128 = CARTESIAN_POINT ( 'NONE',  ( 5.898664692675622805E-33, 0.0000000000000000000, 4.816625248016410340E-17 ) ) ;
#129 = ORIENTED_EDGE ( 'NONE', *, *, #297, .T. ) ;
#130 = EDGE_CURVE ( 'NONE', #148, #164, #280, .T. ) ;
#131 = STYLED_ITEM ( 'NONE', ( #210 ), #87 ) ;
#132 = CARTESIAN_POINT ( 'NONE',  ( 0.0000000000000000000, 0.0000000000000000000, 0.0000000000000000000 ) ) ;
#133 = VERTEX_POINT ( 'NONE', #248 ) ;
#134 =( GEOMETRIC_REPRESENTATION_CONTEXT ( 3 ) GLOBAL_UNCERTAINTY_ASSIGNED_CONTEXT ( ( #266 ) ) GLOBAL_UNIT_ASSIGNED_CONTEXT ( ( #253, #135, #246 ) ) REPRESENTATION_CONTEXT ( 'NONE', 'WORKASPACE' ) );
#135 =( NAMED_UNIT ( * ) PLANE_ANGLE_UNIT ( ) SI_UNIT ( $, .RADIAN. ) );
#136 = APPLICATION_PROTOCOL_DEFINITION ( 'draft international standard', 'automotive_design', 1998, #110 ) ;
#137 = CARTESIAN_POINT ( 'NONE',  ( 0.3787010000000002319, 4.729598184775070620E-17, 5.905511999999999873 ) ) ;
#138 = VERTEX_POINT ( 'NONE', #48 ) ;
#139 = CLOSED_SHELL ( 'NONE', ( #33, #36, #46, #272, #270, #282, #155, #43, #109, #124 ) ) ;
#140 = DIRECTION ( 'NONE',  ( -1.000000000000000000, 0.0000000000000000000, 1.224646799147353207E-16 ) ) ;
#141 = ORIENTED_EDGE ( 'NONE', *, *, #291, .T. ) ;
#142 = PRESENTATION_STYLE_ASSIGNMENT (( #251 ) ) ;
#143 = AXIS2_PLACEMENT_3D ( 'NONE', #123, #288, #57 ) ;
#144 = CARTESIAN_POINT ( 'NONE',  ( -0.3933072989999998881, 4.816625248016410956E-17, 1.574802999999999953 ) ) ;
#145 = LINE ( 'NONE', #56, #62 ) ;
#146 =( LENGTH_UNIT ( ) NAMED_UNIT ( * ) SI_UNIT ( $, .METRE. ) );
#147 = DIRECTION ( 'NONE',  ( 1.000000000000000000, 0.0000000000000000000, 0.0000000000000000000 ) ) ;
#148 = VERTEX_POINT ( 'NONE', #137 ) ;
#149 = DIRECTION ( 'NONE',  ( -0.0000000000000000000, -0.0000000000000000000, -1.000000000000000000 ) ) ;
#150 = ORIENTED_EDGE ( 'NONE', *, *, #187, .T. ) ;
#151 = EDGE_CURVE ( 'NONE', #148, #190, #243, .T. ) ;
#152 = DIRECTION ( 'NONE',  ( 1.000000000000000000, 0.0000000000000000000, 0.0000000000000000000 ) ) ;
#153 = EDGE_LOOP ( 'NONE', ( #74, #29 ) ) ;
#154 = CARTESIAN_POINT ( 'NONE',  ( 1.931311831536045683E-16, 0.0000000000000000000, 1.577035789323664616 ) ) ;
#155 = ADVANCED_FACE ( 'NONE', ( #70 ), #64, .T. ) ;
#156 = FACE_OUTER_BOUND ( 'NONE', #153, .T. ) ;
#157 = CIRCLE ( 'NONE', #17, 0.3933072990000000546 ) ;
#158 = CIRCLE ( 'NONE', #224, 0.3933072989999999991 ) ;
#159 = DIRECTION ( 'NONE',  ( 1.000000000000000000, 0.0000000000000000000, 0.0000000000000000000 ) ) ;
#160 = PRODUCT ( 'Micro_SFAM-200100', 'Micro_SFAM-200100', '', ( #44 ) ) ;
#161 = DIRECTION ( 'NONE',  ( 0.7071067811865491270, 8.659560562354952580E-17, -0.7071067811865459074 ) ) ;
#162 = DIRECTION ( 'NONE',  ( -1.000000000000000000, 0.0000000000000000000, 1.224646799147353207E-16 ) ) ;
#163 = SURFACE_STYLE_USAGE ( .BOTH. , #72 ) ;
#164 = VERTEX_POINT ( 'NONE', #95 ) ;
#165 = SURFACE_SIDE_STYLE ('',( #88 ) ) ;
#166 = DIRECTION ( 'NONE',  ( -1.000000000000000000, 0.0000000000000000000, 0.0000000000000000000 ) ) ;
#167 = CARTESIAN_POINT ( 'NONE',  ( 0.3933072990000002767, 0.0000000000000000000, 1.574802999999999953 ) ) ;
#168 = ORIENTED_EDGE ( 'NONE', *, *, #299, .F. ) ;
#169 = LINE ( 'NONE', #261, #293 ) ;
#170 = ORIENTED_EDGE ( 'NONE', *, *, #91, .F. ) ;
#171 = LENGTH_MEASURE_WITH_UNIT ( LENGTH_MEASURE( 0.02539999999999999897 ), #189 );
#172 = FACE_OUTER_BOUND ( 'NONE', #12, .T. ) ;
#173 = FACE_OUTER_BOUND ( 'NONE', #51, .T. ) ;
#174 = APPLICATION_PROTOCOL_DEFINITION ( 'draft international standard', 'automotive_design', 1998, #212 ) ;
#175 = MECHANICAL_DESIGN_GEOMETRIC_PRESENTATION_REPRESENTATION (  '', ( #40 ), #247 ) ;
#176 = EDGE_CURVE ( 'NONE', #138, #133, #184, .T. ) ;
#177 = VECTOR ( 'NONE', #208, 39.37007874015748143 ) ;
#178 = FACE_OUTER_BOUND ( 'NONE', #32, .T. ) ;
#179 = AXIS2_PLACEMENT_3D ( 'NONE', #227, #9, #96 ) ;
#180 = DIRECTION ( 'NONE',  ( 1.000000000000000000, 0.0000000000000000000, -0.0000000000000000000 ) ) ;
#181 = ORIENTED_EDGE ( 'NONE', *, *, #69, .F. ) ;
#182 = LINE ( 'NONE', #52, #63 ) ;
#183 = VERTEX_POINT ( 'NONE', #6 ) ;
#184 = LINE ( 'NONE', #167, #177 ) ;
#185 = AXIS2_PLACEMENT_3D ( 'NONE', #249, #281, #97 ) ;
#186 = FILL_AREA_STYLE_COLOUR ( '', #193 ) ;
#187 = EDGE_CURVE ( 'NONE', #138, #68, #285, .T. ) ;
#188 = ORIENTED_EDGE ( 'NONE', *, *, #16, .F. ) ;
#189 =( LENGTH_UNIT ( ) NAMED_UNIT ( * ) SI_UNIT ( $, .METRE. ) );
#190 = VERTEX_POINT ( 'NONE', #119 ) ;
#191 = EDGE_CURVE ( 'NONE', #190, #148, #213, .T. ) ;
#192 = DIRECTION ( 'NONE',  ( -1.224646799147353207E-16, -0.0000000000000000000, -1.000000000000000000 ) ) ;
#193 = COLOUR_RGB ( '',0.7921568627450980005, 0.8196078431372548767, 0.9333333333333333481 ) ;
#194 =( CONVERSION_BASED_UNIT ( 'INCH', #171 ) LENGTH_UNIT ( ) NAMED_UNIT ( #263 ) );
#195 = ORIENTED_EDGE ( 'NONE', *, *, #130, .F. ) ;
#196 = MECHANICAL_DESIGN_GEOMETRIC_PRESENTATION_REPRESENTATION (  '', ( #131 ), #134 ) ;
#197 = EDGE_CURVE ( 'NONE', #183, #233, #264, .T. ) ;
#198 = SHAPE_DEFINITION_REPRESENTATION ( #277, #221 ) ;
#199 = PRODUCT_RELATED_PRODUCT_CATEGORY ( 'part', '', ( #160 ) ) ;
#200 = EDGE_LOOP ( 'NONE', ( #71, #286, #103, #170 ) ) ;
#201 = FILL_AREA_STYLE_COLOUR ( '', #219 ) ;
#202 = DIMENSIONAL_EXPONENTS ( 1.000000000000000000, 0.0000000000000000000, 0.0000000000000000000, 0.0000000000000000000, 0.0000000000000000000, 0.0000000000000000000, 0.0000000000000000000 ) ;
#203 = DIRECTION ( 'NONE',  ( -0.1736481776669311916, 2.126576849575783316E-17, 0.9848077530122080203 ) ) ;
#204 = ORIENTED_EDGE ( 'NONE', *, *, #85, .T. ) ;
#205 = AXIS2_PLACEMENT_3D ( 'NONE', #14, #192, #152 ) ;
#206 = CARTESIAN_POINT ( 'NONE',  ( 0.0000000000000000000, 0.0000000000000000000, 5.905511999999999873 ) ) ;
#207 = FACE_OUTER_BOUND ( 'NONE', #200, .T. ) ;
#208 = DIRECTION ( 'NONE',  ( 0.1736481776669313859, 0.0000000000000000000, 0.9848077530122077983 ) ) ;
#209 = EDGE_LOOP ( 'NONE', ( #90, #168, #19, #27 ) ) ;
#210 = PRESENTATION_STYLE_ASSIGNMENT (( #163 ) ) ;
#211 = DIRECTION ( 'NONE',  ( 1.000000000000000000, 0.0000000000000000000, 0.0000000000000000000 ) ) ;
#212 = APPLICATION_CONTEXT ( 'automotive_design' ) ;
#213 = CIRCLE ( 'NONE', #107, 0.3787010000000002319 ) ;
#214 = CYLINDRICAL_SURFACE ( 'NONE', #143, 0.3937009999999999676 ) ;
#215 = CARTESIAN_POINT ( 'NONE',  ( 0.0000000000000000000, 0.0000000000000000000, 5.905511999999999873 ) ) ;
#216 =( CONVERSION_BASED_UNIT ( 'INCH', #125 ) LENGTH_UNIT ( ) NAMED_UNIT ( #252 ) );
#217 = PRODUCT_DEFINITION_CONTEXT ( 'detailed design', #110, 'design' ) ;
#218 = DIRECTION ( 'NONE',  ( -1.224646799147353207E-16, -0.0000000000000000000, -1.000000000000000000 ) ) ;
#219 = COLOUR_RGB ( '',0.7921568627450980005, 0.8196078431372548767, 0.9333333333333333481 ) ;
#220 = EDGE_CURVE ( 'NONE', #233, #133, #10, .T. ) ;
#221 = ADVANCED_BREP_SHAPE_REPRESENTATION ( 'Micro_SFAM-200100', ( #87, #296 ), #295 ) ;
#222 = CIRCLE ( 'NONE', #274, 0.3937009999999999676 ) ;
#223 = AXIS2_PLACEMENT_3D ( 'NONE', #5, #73, #166 ) ;
#224 = AXIS2_PLACEMENT_3D ( 'NONE', #38, #60, #122 ) ;
#225 = SURFACE_STYLE_FILL_AREA ( #276 ) ;
#226 = EDGE_CURVE ( 'NONE', #133, #233, #84, .T. ) ;
#227 = CARTESIAN_POINT ( 'NONE',  ( 1.928577453237649374E-16, 0.0000000000000000000, 1.574802999999999953 ) ) ;
#228 = CARTESIAN_POINT ( 'NONE',  ( 0.0000000000000000000, 0.0000000000000000000, 0.0000000000000000000 ) ) ;
#229 = ORIENTED_EDGE ( 'NONE', *, *, #239, .T. ) ;
#230 = CIRCLE ( 'NONE', #271, 0.3933072989999999991 ) ;
#231 = CARTESIAN_POINT ( 'NONE',  ( 0.0000000000000000000, 0.0000000000000000000, 0.0000000000000000000 ) ) ;
#232 = ORIENTED_EDGE ( 'NONE', *, *, #297, .F. ) ;
#233 = VERTEX_POINT ( 'NONE', #126 ) ;
#234 = DIRECTION ( 'NONE',  ( -1.224646799147353207E-16, -0.0000000000000000000, -1.000000000000000000 ) ) ;
#235 = ORIENTED_EDGE ( 'NONE', *, *, #91, .T. ) ;
#236 = DIRECTION ( 'NONE',  ( 1.000000000000000000, 0.0000000000000000000, 0.0000000000000000000 ) ) ;
#237 = AXIS2_PLACEMENT_3D ( 'NONE', #206, #115, #4 ) ;
#238 = DIRECTION ( 'NONE',  ( 0.0000000000000000000, 0.0000000000000000000, 1.000000000000000000 ) ) ;
#239 = EDGE_CURVE ( 'NONE', #183, #164, #105, .T. ) ;
#240 = CARTESIAN_POINT ( 'NONE',  ( 0.0000000000000000000, 0.0000000000000000000, 5.905511999999999873 ) ) ;
#241 = CARTESIAN_POINT ( 'NONE',  ( 1.928577453237649374E-16, 0.0000000000000000000, 1.574802999999999953 ) ) ;
#242 = DIRECTION ( 'NONE',  ( -1.000000000000000000, 0.0000000000000000000, 0.0000000000000000000 ) ) ;
#243 = CIRCLE ( 'NONE', #28, 0.3787010000000002319 ) ;
#244 = ORIENTED_EDGE ( 'NONE', *, *, #187, .F. ) ;
#245 = CONICAL_SURFACE ( 'NONE', #223, 0.3787010000000002319, 0.7853981633974506105 ) ;
#246 =( NAMED_UNIT ( * ) SI_UNIT ( $, .STERADIAN. ) SOLID_ANGLE_UNIT ( ) );
#247 =( GEOMETRIC_REPRESENTATION_CONTEXT ( 3 ) GLOBAL_UNCERTAINTY_ASSIGNED_CONTEXT ( ( #18 ) ) GLOBAL_UNIT_ASSIGNED_CONTEXT ( ( #216, #275, #108 ) ) REPRESENTATION_CONTEXT ( 'NONE', 'WORKASPACE' ) );
#248 = CARTESIAN_POINT ( 'NONE',  ( 0.3937010000000001897, 4.821446694711123140E-17, 1.577035789323664616 ) ) ;
#249 = CARTESIAN_POINT ( 'NONE',  ( 1.928577453237649374E-16, 0.0000000000000000000, 1.574802999999999953 ) ) ;
#250 = ORIENTED_EDGE ( 'NONE', *, *, #220, .T. ) ;
#251 = SURFACE_STYLE_USAGE ( .BOTH. , #165 ) ;
#252 = DIMENSIONAL_EXPONENTS ( 1.000000000000000000, 0.0000000000000000000, 0.0000000000000000000, 0.0000000000000000000, 0.0000000000000000000, 0.0000000000000000000, 0.0000000000000000000 ) ;
#253 =( CONVERSION_BASED_UNIT ( 'INCH', #1 ) LENGTH_UNIT ( ) NAMED_UNIT ( #202 ) );
#254 = EDGE_CURVE ( 'NONE', #278, #68, #230, .T. ) ;
#255 = CARTESIAN_POINT ( 'NONE',  ( -0.3933072989999998881, 4.819035971363765816E-17, 1.574802999999999953 ) ) ;
#256 = CONICAL_SURFACE ( 'NONE', #127, 0.3933072990000000546, 0.1745329251994338915 ) ;
#257 = PRESENTATION_LAYER_ASSIGNMENT (  '', '', ( #40 ) ) ;
#258 = CARTESIAN_POINT ( 'NONE',  ( 0.3933072990000000546, 4.816625248016410956E-17, -4.816625248016410956E-17 ) ) ;
#259 = CARTESIAN_POINT ( 'NONE',  ( 0.0000000000000000000, 0.0000000000000000000, 0.0000000000000000000 ) ) ;
#260 = PRODUCT_DEFINITION ( 'UNKNOWN', '', #93, #217 ) ;
#261 = CARTESIAN_POINT ( 'NONE',  ( 0.3937009999999999676, 4.821446694711121291E-17, 5.905511999999999873 ) ) ;
#262 = ORIENTED_EDGE ( 'NONE', *, *, #16, .T. ) ;
#263 = DIMENSIONAL_EXPONENTS ( 1.000000000000000000, 0.0000000000000000000, 0.0000000000000000000, 0.0000000000000000000, 0.0000000000000000000, 0.0000000000000000000, 0.0000000000000000000 ) ;
#264 = LINE ( 'NONE', #61, #279 ) ;
#265 =( NAMED_UNIT ( * ) SI_UNIT ( $, .STERADIAN. ) SOLID_ANGLE_UNIT ( ) );
#266 = UNCERTAINTY_MEASURE_WITH_UNIT (LENGTH_MEASURE( 1.000000000000000082E-05 ), #253, 'distance_accuracy_value', 'NONE');
#267 = DIRECTION ( 'NONE',  ( 1.000000000000000000, 0.0000000000000000000, -0.0000000000000000000 ) ) ;
#268 = EDGE_LOOP ( 'NONE', ( #111, #204, #250, #26 ) ) ;
#269 = CARTESIAN_POINT ( 'NONE',  ( 0.0000000000000000000, 0.0000000000000000000, 5.890512000000000192 ) ) ;
#270 = ADVANCED_FACE ( 'NONE', ( #172 ), #214, .T. ) ;
#271 = AXIS2_PLACEMENT_3D ( 'NONE', #128, #81, #102 ) ;
#272 = ADVANCED_FACE ( 'NONE', ( #173 ), #101, .T. ) ;
#273 = DIRECTION ( 'NONE',  ( -1.224646799147353207E-16, -0.0000000000000000000, -1.000000000000000000 ) ) ;
#274 = AXIS2_PLACEMENT_3D ( 'NONE', #2, #121, #211 ) ;
#275 =( NAMED_UNIT ( * ) PLANE_ANGLE_UNIT ( ) SI_UNIT ( $, .RADIAN. ) );
#276 = FILL_AREA_STYLE ('',( #186 ) ) ;
#277 = PRODUCT_DEFINITION_SHAPE ( 'NONE', 'NONE',  #260 ) ;
#278 = VERTEX_POINT ( 'NONE', #83 ) ;
#279 = VECTOR ( 'NONE', #13, 39.37007874015748143 ) ;
#280 = LINE ( 'NONE', #67, #66 ) ;
#281 = DIRECTION ( 'NONE',  ( 1.224646799147353207E-16, 0.0000000000000000000, 1.000000000000000000 ) ) ;
#282 = ADVANCED_FACE ( 'NONE', ( #156 ), #79, .T. ) ;
#283 = CYLINDRICAL_SURFACE ( 'NONE', #100, 0.3933072990000000546 ) ;
#284 = FACE_OUTER_BOUND ( 'NONE', #268, .T. ) ;
#285 = LINE ( 'NONE', #258, #287 ) ;
#286 = ORIENTED_EDGE ( 'NONE', *, *, #130, .T. ) ;
#287 = VECTOR ( 'NONE', #234, 39.37007874015748143 ) ;
#288 = DIRECTION ( 'NONE',  ( -0.0000000000000000000, -0.0000000000000000000, -1.000000000000000000 ) ) ;
#289 = ORIENTED_EDGE ( 'NONE', *, *, #191, .F. ) ;
#290 = DIRECTION ( 'NONE',  ( 0.0000000000000000000, 0.0000000000000000000, -1.000000000000000000 ) ) ;
#291 = EDGE_CURVE ( 'NONE', #164, #133, #169, .T. ) ;
#292 = EDGE_LOOP ( 'NONE', ( #195, #289, #235, #188 ) ) ;
#293 = VECTOR ( 'NONE', #34, 39.37007874015748143 ) ;
#294 = DIRECTION ( 'NONE',  ( 1.000000000000000000, 0.0000000000000000000, 0.0000000000000000000 ) ) ;
#295 =( GEOMETRIC_REPRESENTATION_CONTEXT ( 3 ) GLOBAL_UNCERTAINTY_ASSIGNED_CONTEXT ( ( #37 ) ) GLOBAL_UNIT_ASSIGNED_CONTEXT ( ( #194, #35, #265 ) ) REPRESENTATION_CONTEXT ( 'NONE', 'WORKASPACE' ) );
#296 = AXIS2_PLACEMENT_3D ( 'NONE', #132, #65, #159 ) ;
#297 = EDGE_CURVE ( 'NONE', #68, #278, #158, .T. ) ;
#298 = EDGE_LOOP ( 'NONE', ( #30, #129 ) ) ;
#299 = EDGE_CURVE ( 'NONE', #138, #58, #157, .T. ) ;
ENDSEC;
END-ISO-10303-21;
