ISO-10303-21;
HEADER;
FILE_DESCRIPTION (( 'STEP AP214' ),
    '1' );
FILE_NAME ('59552.STEP',
    '2023-07-24T15:48:53',
    ( '' ),
    ( '' ),
    'SwSTEP 2.0',
    'SolidWorks 2023',
    '' );
FILE_SCHEMA (( 'AUTOMOTIVE_DESIGN' ));
ENDSEC;

DATA;
#1 = CARTESIAN_POINT ( 'NONE',  ( -12.50000000000000000, 50.00000000000000000, 0.000000000000000000 ) ) ;
#2 = ORIENTED_EDGE ( 'NONE', *, *, #24, .T. ) ;
#3 = CARTESIAN_POINT ( 'NONE',  ( 0.000000000000000000, 0.000000000000000000, 0.000000000000000000 ) ) ;
#4 = ORIENTED_EDGE ( 'NONE', *, *, #48, .F. ) ;
#5 = VERTEX_POINT ( 'NONE', #115 ) ;
#6 = DIRECTION ( 'NONE',  ( -4.082155997157840121E-17, 1.000000000000000000, -0.000000000000000000 ) ) ;
#7 = AXIS2_PLACEMENT_3D ( 'NONE', #222, #265, #63 ) ;
#8 = ORIENTED_EDGE ( 'NONE', *, *, #190, .T. ) ;
#9 = CLOSED_SHELL ( 'NONE', ( #219, #230, #28, #229 ) ) ;
#10 = PRESENTATION_LAYER_ASSIGNMENT (  '', '', ( #213 ) ) ;
#11 = PRESENTATION_LAYER_ASSIGNMENT (  '', '', ( #133 ) ) ;
#12 = DIRECTION ( 'NONE',  ( 0.000000000000000000, 0.000000000000000000, -1.000000000000000000 ) ) ;
#13 = DIRECTION ( 'NONE',  ( 0.000000000000000000, 0.000000000000000000, -1.000000000000000000 ) ) ;
#14 = APPLICATION_CONTEXT ( 'automotive_design' ) ;
#15 = FILL_AREA_STYLE_COLOUR ( '', #77 ) ;
#16 = DIRECTION ( 'NONE',  ( -1.000000000000000000, 0.000000000000000000, 0.000000000000000000 ) ) ;
#17 = CIRCLE ( 'NONE', #160, 12.50000000000000000 ) ;
#18 = SURFACE_SIDE_STYLE ('',( #123 ) ) ;
#19 = CIRCLE ( 'NONE', #104, 12.50000000000000000 ) ;
#20 = FILL_AREA_STYLE_COLOUR ( '', #98 ) ;
#21 = UNCERTAINTY_MEASURE_WITH_UNIT (LENGTH_MEASURE( 1.000000000000000082E-05 ), #80, 'distance_accuracy_value', 'NONE');
#22 = CARTESIAN_POINT ( 'NONE',  ( 0.000000000000000000, 0.000000000000000000, 0.000000000000000000 ) ) ;
#23 = CARTESIAN_POINT ( 'NONE',  ( -12.50000000000000711, 124.9999999999999858, 0.000000000000000000 ) ) ;
#24 = EDGE_CURVE ( 'NONE', #116, #172, #38, .T. ) ;
#25 =( LENGTH_UNIT ( ) NAMED_UNIT ( * ) SI_UNIT ( .MILLI., .METRE. ) );
#26 = CLOSED_SHELL ( 'NONE', ( #122, #93, #179, #134 ) ) ;
#27 = MECHANICAL_DESIGN_GEOMETRIC_PRESENTATION_REPRESENTATION (  '', ( #148 ), #70 ) ;
#28 = ADVANCED_FACE ( 'NONE', ( #226 ), #31, .T. ) ;
#29 = DIRECTION ( 'NONE',  ( 0.000000000000000000, -0.000000000000000000, 1.000000000000000000 ) ) ;
#30 = MECHANICAL_DESIGN_GEOMETRIC_PRESENTATION_REPRESENTATION (  '', ( #133 ), #227 ) ;
#31 = CYLINDRICAL_SURFACE ( 'NONE', #86, 12.50000000000000000 ) ;
#32 = SURFACE_STYLE_USAGE ( .BOTH. , #55 ) ;
#33 = STYLED_ITEM ( 'NONE', ( #64 ), #96 ) ;
#34 = CARTESIAN_POINT ( 'NONE',  ( 0.000000000000000000, 50.00000000000000000, 0.000000000000000000 ) ) ;
#35 = FACE_OUTER_BOUND ( 'NONE', #269, .T. ) ;
#36 = SURFACE_SIDE_STYLE ('',( #82 ) ) ;
#37 = FILL_AREA_STYLE ('',( #97 ) ) ;
#38 = CIRCLE ( 'NONE', #154, 12.50000000000000000 ) ;
#39 = DIRECTION ( 'NONE',  ( -4.082155997157840121E-17, 1.000000000000000000, -0.000000000000000000 ) ) ;
#40 = SURFACE_STYLE_USAGE ( .BOTH. , #193 ) ;
#41 =( NAMED_UNIT ( * ) PLANE_ANGLE_UNIT ( ) SI_UNIT ( $, .RADIAN. ) );
#42 = FILL_AREA_STYLE_COLOUR ( '', #73 ) ;
#43 = COLOUR_RGB ( '',1.000000000000000000, 0.000000000000000000, 0.000000000000000000 ) ;
#44 = DIRECTION ( 'NONE',  ( 0.000000000000000000, 0.000000000000000000, -1.000000000000000000 ) ) ;
#45 = VERTEX_POINT ( 'NONE', #158 ) ;
#46 = UNCERTAINTY_MEASURE_WITH_UNIT (LENGTH_MEASURE( 1.000000000000000082E-05 ), #169, 'distance_accuracy_value', 'NONE');
#47 = ORIENTED_EDGE ( 'NONE', *, *, #254, .F. ) ;
#48 = EDGE_CURVE ( 'NONE', #172, #116, #19, .T. ) ;
#49 = EDGE_LOOP ( 'NONE', ( #225, #2, #288, #47 ) ) ;
#50 =( GEOMETRIC_REPRESENTATION_CONTEXT ( 3 ) GLOBAL_UNCERTAINTY_ASSIGNED_CONTEXT ( ( #128 ) ) GLOBAL_UNIT_ASSIGNED_CONTEXT ( ( #25, #67, #244 ) ) REPRESENTATION_CONTEXT ( 'NONE', 'WORKASPACE' ) );
#51 = CARTESIAN_POINT ( 'NONE',  ( 12.49999999999999822, 124.9999999999999858, 1.530808498934191719E-15 ) ) ;
#52 = MECHANICAL_DESIGN_GEOMETRIC_PRESENTATION_REPRESENTATION (  '', ( #213 ), #166 ) ;
#53 =( NAMED_UNIT ( * ) PLANE_ANGLE_UNIT ( ) SI_UNIT ( $, .RADIAN. ) );
#54 = EDGE_CURVE ( 'NONE', #135, #45, #90, .T. ) ;
#55 = SURFACE_SIDE_STYLE ('',( #92 ) ) ;
#56 = CARTESIAN_POINT ( 'NONE',  ( 0.000000000000000000, 0.000000000000000000, -12.50000000000000000 ) ) ;
#57 = SURFACE_STYLE_USAGE ( .BOTH. , #279 ) ;
#58 = SURFACE_STYLE_USAGE ( .BOTH. , #36 ) ;
#59 = DIRECTION ( 'NONE',  ( -4.082155997157840121E-17, 1.000000000000000000, -0.000000000000000000 ) ) ;
#60 = PRESENTATION_LAYER_ASSIGNMENT (  '', '', ( #233 ) ) ;
#61 = DIRECTION ( 'NONE',  ( 0.000000000000000000, 0.000000000000000000, -1.000000000000000000 ) ) ;
#62 = PRESENTATION_STYLE_ASSIGNMENT (( #140 ) ) ;
#63 = DIRECTION ( 'NONE',  ( 0.000000000000000000, 0.000000000000000000, -1.000000000000000000 ) ) ;
#64 = PRESENTATION_STYLE_ASSIGNMENT (( #58 ) ) ;
#65 = ORIENTED_EDGE ( 'NONE', *, *, #249, .T. ) ;
#66 = CARTESIAN_POINT ( 'NONE',  ( 1.530808498934191521E-15, 0.000000000000000000, 12.50000000000000000 ) ) ;
#67 =( NAMED_UNIT ( * ) PLANE_ANGLE_UNIT ( ) SI_UNIT ( $, .RADIAN. ) );
#68 = ORIENTED_EDGE ( 'NONE', *, *, #138, .T. ) ;
#69 = UNCERTAINTY_MEASURE_WITH_UNIT (LENGTH_MEASURE( 1.000000000000000082E-05 ), #167, 'distance_accuracy_value', 'NONE');
#70 =( GEOMETRIC_REPRESENTATION_CONTEXT ( 3 ) GLOBAL_UNCERTAINTY_ASSIGNED_CONTEXT ( ( #46 ) ) GLOBAL_UNIT_ASSIGNED_CONTEXT ( ( #169, #107, #235 ) ) REPRESENTATION_CONTEXT ( 'NONE', 'WORKASPACE' ) );
#71 = CIRCLE ( 'NONE', #142, 12.50000000000000000 ) ;
#72 = EDGE_CURVE ( 'NONE', #135, #91, #159, .T. ) ;
#73 = COLOUR_RGB ( '',0.7921568627450980005, 0.8196078431372548767, 0.9333333333333333481 ) ;
#74 = AXIS2_PLACEMENT_3D ( 'NONE', #246, #147, #29 ) ;
#75 = CARTESIAN_POINT ( 'NONE',  ( 0.000000000000000000, 0.000000000000000000, 0.000000000000000000 ) ) ;
#76 = DIRECTION ( 'NONE',  ( -1.000000000000000000, 0.000000000000000000, 0.000000000000000000 ) ) ;
#77 = COLOUR_RGB ( '',1.000000000000000000, 0.000000000000000000, 0.000000000000000000 ) ;
#78 = CARTESIAN_POINT ( 'NONE',  ( 0.000000000000000000, 0.000000000000000000, -12.50000000000000000 ) ) ;
#79 = FACE_OUTER_BOUND ( 'NONE', #175, .T. ) ;
#80 =( LENGTH_UNIT ( ) NAMED_UNIT ( * ) SI_UNIT ( .MILLI., .METRE. ) );
#81 = DIRECTION ( 'NONE',  ( 0.000000000000000000, -1.000000000000000000, -0.000000000000000000 ) ) ;
#82 = SURFACE_STYLE_FILL_AREA ( #84 ) ;
#83 = PRESENTATION_STYLE_ASSIGNMENT (( #40 ) ) ;
#84 = FILL_AREA_STYLE ('',( #260 ) ) ;
#85 = CARTESIAN_POINT ( 'NONE',  ( -3.061616997868379493E-15, 124.9999999999999858, 0.000000000000000000 ) ) ;
#86 = AXIS2_PLACEMENT_3D ( 'NONE', #75, #184, #12 ) ;
#87 = DIRECTION ( 'NONE',  ( -4.082155997157840121E-17, 1.000000000000000000, -0.000000000000000000 ) ) ;
#88 = DIRECTION ( 'NONE',  ( 0.000000000000000000, 0.000000000000000000, 1.000000000000000000 ) ) ;
#89 = EDGE_LOOP ( 'NONE', ( #4, #232 ) ) ;
#90 = CIRCLE ( 'NONE', #200, 12.50000000000000000 ) ;
#91 = VERTEX_POINT ( 'NONE', #78 ) ;
#92 = SURFACE_STYLE_FILL_AREA ( #272 ) ;
#93 = ADVANCED_FACE ( 'NONE', ( #161 ), #259, .F. ) ;
#94 = MECHANICAL_DESIGN_GEOMETRIC_PRESENTATION_REPRESENTATION (  '', ( #233 ), #137 ) ;
#95 = ORIENTED_EDGE ( 'NONE', *, *, #249, .F. ) ;
#96 = MANIFOLD_SOLID_BREP ( 'Revolve - Cutting Edge', #9 ) ;
#97 = FILL_AREA_STYLE_COLOUR ( '', #43 ) ;
#98 = COLOUR_RGB ( '',1.000000000000000000, 0.000000000000000000, 0.000000000000000000 ) ;
#99 = AXIS2_PLACEMENT_3D ( 'NONE', #182, #88, #149 ) ;
#100 = PLANE ( 'NONE',  #238 ) ;
#101 = FACE_OUTER_BOUND ( 'NONE', #156, .T. ) ;
#102 = DIRECTION ( 'NONE',  ( 4.082155997157840121E-17, -1.000000000000000000, 0.000000000000000000 ) ) ;
#103 = DIRECTION ( 'NONE',  ( -0.000000000000000000, -1.000000000000000000, -0.000000000000000000 ) ) ;
#104 = AXIS2_PLACEMENT_3D ( 'NONE', #276, #136, #76 ) ;
#105 = CARTESIAN_POINT ( 'NONE',  ( 12.50000000000000000, 50.00000000000000000, 1.530808498934191719E-15 ) ) ;
#106 = PRODUCT_DEFINITION_FORMATION_WITH_SPECIFIED_SOURCE ( 'ANY', '', #174, .NOT_KNOWN. ) ;
#107 =( NAMED_UNIT ( * ) PLANE_ANGLE_UNIT ( ) SI_UNIT ( $, .RADIAN. ) );
#108 = CARTESIAN_POINT ( 'NONE',  ( 12.50000000000000000, 124.9999999999999858, 1.530808498934191719E-15 ) ) ;
#109 = ORIENTED_EDGE ( 'NONE', *, *, #268, .T. ) ;
#110 =( GEOMETRIC_REPRESENTATION_CONTEXT ( 3 ) GLOBAL_UNCERTAINTY_ASSIGNED_CONTEXT ( ( #69 ) ) GLOBAL_UNIT_ASSIGNED_CONTEXT ( ( #167, #281, #261 ) ) REPRESENTATION_CONTEXT ( 'NONE', 'WORKASPACE' ) );
#111 = APPLICATION_PROTOCOL_DEFINITION ( 'draft international standard', 'automotive_design', 1998, #14 ) ;
#112 = CIRCLE ( 'NONE', #192, 12.50000000000000355 ) ;
#113 = DIRECTION ( 'NONE',  ( -0.000000000000000000, -1.000000000000000000, -0.000000000000000000 ) ) ;
#114 = STYLED_ITEM ( 'NONE', ( #163 ), #229 ) ;
#115 = CARTESIAN_POINT ( 'NONE',  ( 1.530808498934191521E-15, 0.000000000000000000, 12.50000000000000000 ) ) ;
#116 = VERTEX_POINT ( 'NONE', #105 ) ;
#117 = EDGE_LOOP ( 'NONE', ( #127, #65, #266, #202 ) ) ;
#118 = SURFACE_STYLE_USAGE ( .BOTH. , #240 ) ;
#119 = COLOUR_RGB ( '',0.7921568627450980005, 0.8196078431372548767, 0.9333333333333333481 ) ;
#120 =( LENGTH_UNIT ( ) NAMED_UNIT ( * ) SI_UNIT ( .MILLI., .METRE. ) );
#121 = CARTESIAN_POINT ( 'NONE',  ( 12.50000000000000000, 124.9999999999999858, 0.000000000000000000 ) ) ;
#122 = ADVANCED_FACE ( 'NONE', ( #164 ), #211, .T. ) ;
#123 = SURFACE_STYLE_FILL_AREA ( #284 ) ;
#124 = SURFACE_STYLE_FILL_AREA ( #241 ) ;
#125 = VECTOR ( 'NONE', #6, 1000.000000000000000 ) ;
#126 = CARTESIAN_POINT ( 'NONE',  ( -12.50000000000000533, 124.9999999999999858, 0.000000000000000000 ) ) ;
#127 = ORIENTED_EDGE ( 'NONE', *, *, #54, .T. ) ;
#128 = UNCERTAINTY_MEASURE_WITH_UNIT (LENGTH_MEASURE( 1.000000000000000082E-05 ), #25, 'distance_accuracy_value', 'NONE');
#129 = ORIENTED_EDGE ( 'NONE', *, *, #242, .F. ) ;
#130 = VERTEX_POINT ( 'NONE', #23 ) ;
#131 = LINE ( 'NONE', #126, #177 ) ;
#132 = CARTESIAN_POINT ( 'NONE',  ( 1.041499849070732488E-32, 50.00000000000000000, 0.000000000000000000 ) ) ;
#133 = STYLED_ITEM ( 'NONE', ( #171 ), #230 ) ;
#134 = ADVANCED_FACE ( 'NONE', ( #79 ), #100, .F. ) ;
#135 = VERTEX_POINT ( 'NONE', #217 ) ;
#136 = DIRECTION ( 'NONE',  ( -4.082155997157840121E-17, 1.000000000000000000, -0.000000000000000000 ) ) ;
#137 =( GEOMETRIC_REPRESENTATION_CONTEXT ( 3 ) GLOBAL_UNCERTAINTY_ASSIGNED_CONTEXT ( ( #183 ) ) GLOBAL_UNIT_ASSIGNED_CONTEXT ( ( #120, #41, #210 ) ) REPRESENTATION_CONTEXT ( 'NONE', 'WORKASPACE' ) );
#138 = EDGE_CURVE ( 'NONE', #130, #250, #186, .T. ) ;
#139 = CARTESIAN_POINT ( 'NONE',  ( 0.000000000000000000, 0.000000000000000000, 0.000000000000000000 ) ) ;
#140 = SURFACE_STYLE_USAGE ( .BOTH. , #18 ) ;
#141 = PRESENTATION_LAYER_ASSIGNMENT (  '', '', ( #148 ) ) ;
#142 = AXIS2_PLACEMENT_3D ( 'NONE', #3, #204, #44 ) ;
#143 = CARTESIAN_POINT ( 'NONE',  ( -3.061616997868379493E-15, 124.9999999999999858, 0.000000000000000000 ) ) ;
#144 = PRODUCT_DEFINITION_CONTEXT ( 'detailed design', #155, 'design' ) ;
#145 = FILL_AREA_STYLE ('',( #264 ) ) ;
#146 = ORIENTED_EDGE ( 'NONE', *, *, #48, .T. ) ;
#147 = DIRECTION ( 'NONE',  ( 0.000000000000000000, 1.000000000000000000, 0.000000000000000000 ) ) ;
#148 = STYLED_ITEM ( 'NONE', ( #83 ), #203 ) ;
#149 = DIRECTION ( 'NONE',  ( 1.000000000000000000, 0.000000000000000000, 0.000000000000000000 ) ) ;
#150 = ORIENTED_EDGE ( 'NONE', *, *, #196, .T. ) ;
#151 = DIRECTION ( 'NONE',  ( -1.000000000000000000, 0.000000000000000000, 0.000000000000000000 ) ) ;
#152 = ORIENTED_EDGE ( 'NONE', *, *, #138, .F. ) ;
#153 = ORIENTED_EDGE ( 'NONE', *, *, #282, .T. ) ;
#154 = AXIS2_PLACEMENT_3D ( 'NONE', #185, #231, #257 ) ;
#155 = APPLICATION_CONTEXT ( 'automotive_design' ) ;
#156 = EDGE_LOOP ( 'NONE', ( #150, #109 ) ) ;
#157 = AXIS2_PLACEMENT_3D ( 'NONE', #132, #173, #280 ) ;
#158 = CARTESIAN_POINT ( 'NONE',  ( 1.530808498934191521E-15, 50.00000000000000000, 12.50000000000000000 ) ) ;
#159 = LINE ( 'NONE', #56, #255 ) ;
#160 = AXIS2_PLACEMENT_3D ( 'NONE', #22, #103, #285 ) ;
#161 = FACE_OUTER_BOUND ( 'NONE', #89, .T. ) ;
#162 = CARTESIAN_POINT ( 'NONE',  ( -3.061616997868379493E-15, 124.9999999999999858, 0.000000000000000000 ) ) ;
#163 = PRESENTATION_STYLE_ASSIGNMENT (( #57 ) ) ;
#164 = FACE_OUTER_BOUND ( 'NONE', #198, .T. ) ;
#165 = SURFACE_STYLE_FILL_AREA ( #145 ) ;
#166 =( GEOMETRIC_REPRESENTATION_CONTEXT ( 3 ) GLOBAL_UNCERTAINTY_ASSIGNED_CONTEXT ( ( #247 ) ) GLOBAL_UNIT_ASSIGNED_CONTEXT ( ( #208, #53, #228 ) ) REPRESENTATION_CONTEXT ( 'NONE', 'WORKASPACE' ) );
#167 =( LENGTH_UNIT ( ) NAMED_UNIT ( * ) SI_UNIT ( .MILLI., .METRE. ) );
#168 = PLANE ( 'NONE',  #74 ) ;
#169 =( LENGTH_UNIT ( ) NAMED_UNIT ( * ) SI_UNIT ( .MILLI., .METRE. ) );
#170 = DIRECTION ( 'NONE',  ( -1.000000000000000000, 0.000000000000000000, 0.000000000000000000 ) ) ;
#171 = PRESENTATION_STYLE_ASSIGNMENT (( #118 ) ) ;
#172 = VERTEX_POINT ( 'NONE', #1 ) ;
#173 = DIRECTION ( 'NONE',  ( -4.082155997157840121E-17, 1.000000000000000000, 0.000000000000000000 ) ) ;
#174 = PRODUCT ( '59552', '59552', '', ( #223 ) ) ;
#175 = EDGE_LOOP ( 'NONE', ( #68, #180 ) ) ;
#176 = AXIS2_PLACEMENT_3D ( 'NONE', #237, #81, #61 ) ;
#177 = VECTOR ( 'NONE', #87, 1000.000000000000000 ) ;
#178 = DIRECTION ( 'NONE',  ( -4.082155997157840121E-17, 1.000000000000000000, -0.000000000000000000 ) ) ;
#179 = ADVANCED_FACE ( 'NONE', ( #215 ), #239, .T. ) ;
#180 = ORIENTED_EDGE ( 'NONE', *, *, #254, .T. ) ;
#181 = CIRCLE ( 'NONE', #7, 12.50000000000000000 ) ;
#182 = CARTESIAN_POINT ( 'NONE',  ( 0.000000000000000000, 0.000000000000000000, 0.000000000000000000 ) ) ;
#183 = UNCERTAINTY_MEASURE_WITH_UNIT (LENGTH_MEASURE( 1.000000000000000082E-05 ), #120, 'distance_accuracy_value', 'NONE');
#184 = DIRECTION ( 'NONE',  ( -0.000000000000000000, -1.000000000000000000, -0.000000000000000000 ) ) ;
#185 = CARTESIAN_POINT ( 'NONE',  ( 0.000000000000000000, 50.00000000000000000, 0.000000000000000000 ) ) ;
#186 = CIRCLE ( 'NONE', #251, 12.50000000000000355 ) ;
#187 = COLOUR_RGB ( '',1.000000000000000000, 0.000000000000000000, 0.000000000000000000 ) ;
#188 = DIRECTION ( 'NONE',  ( 1.000000000000000000, 4.082155997157840121E-17, 0.000000000000000000 ) ) ;
#189 =( NAMED_UNIT ( * ) PLANE_ANGLE_UNIT ( ) SI_UNIT ( $, .RADIAN. ) );
#190 = EDGE_CURVE ( 'NONE', #45, #135, #181, .T. ) ;
#191 = DIRECTION ( 'NONE',  ( -1.000000000000000000, 0.000000000000000000, 0.000000000000000000 ) ) ;
#192 = AXIS2_PLACEMENT_3D ( 'NONE', #85, #178, #151 ) ;
#193 = SURFACE_SIDE_STYLE ('',( #124 ) ) ;
#194 = CARTESIAN_POINT ( 'NONE',  ( -3.061616997868379493E-15, 124.9999999999999858, 0.000000000000000000 ) ) ;
#195 = CYLINDRICAL_SURFACE ( 'NONE', #220, 12.50000000000000000 ) ;
#196 = EDGE_CURVE ( 'NONE', #91, #5, #17, .T. ) ;
#197 =( NAMED_UNIT ( * ) PLANE_ANGLE_UNIT ( ) SI_UNIT ( $, .RADIAN. ) );
#198 = EDGE_LOOP ( 'NONE', ( #146, #153, #152, #129 ) ) ;
#199 = ADVANCED_BREP_SHAPE_REPRESENTATION ( '59552', ( #96, #203, #99 ), #50 ) ;
#200 = AXIS2_PLACEMENT_3D ( 'NONE', #34, #209, #13 ) ;
#201 = LINE ( 'NONE', #66, #252 ) ;
#202 = ORIENTED_EDGE ( 'NONE', *, *, #72, .F. ) ;
#203 = MANIFOLD_SOLID_BREP ( 'Revolve - Tool Body (Straight Shanked)', #26 ) ;
#204 = DIRECTION ( 'NONE',  ( -0.000000000000000000, -1.000000000000000000, -0.000000000000000000 ) ) ;
#205 = LINE ( 'NONE', #51, #125 ) ;
#206 = MECHANICAL_DESIGN_GEOMETRIC_PRESENTATION_REPRESENTATION (  '', ( #114 ), #263 ) ;
#207 = ORIENTED_EDGE ( 'NONE', *, *, #190, .F. ) ;
#208 =( LENGTH_UNIT ( ) NAMED_UNIT ( * ) SI_UNIT ( .MILLI., .METRE. ) );
#209 = DIRECTION ( 'NONE',  ( -0.000000000000000000, -1.000000000000000000, -0.000000000000000000 ) ) ;
#210 =( NAMED_UNIT ( * ) SI_UNIT ( $, .STERADIAN. ) SOLID_ANGLE_UNIT ( ) );
#211 = CYLINDRICAL_SURFACE ( 'NONE', #273, 12.50000000000000178 ) ;
#212 = SURFACE_STYLE_FILL_AREA ( #37 ) ;
#213 = STYLED_ITEM ( 'NONE', ( #274 ), #28 ) ;
#214 = PRODUCT_DEFINITION_SHAPE ( 'NONE', 'NONE',  #270 ) ;
#215 = FACE_OUTER_BOUND ( 'NONE', #49, .T. ) ;
#216 =( LENGTH_UNIT ( ) NAMED_UNIT ( * ) SI_UNIT ( .MILLI., .METRE. ) );
#217 = CARTESIAN_POINT ( 'NONE',  ( 0.000000000000000000, 50.00000000000000000, -12.50000000000000000 ) ) ;
#218 = PLANE ( 'NONE',  #176 ) ;
#219 = ADVANCED_FACE ( 'NONE', ( #243 ), #195, .T. ) ;
#220 = AXIS2_PLACEMENT_3D ( 'NONE', #139, #262, #236 ) ;
#221 = ORIENTED_EDGE ( 'NONE', *, *, #268, .F. ) ;
#222 = CARTESIAN_POINT ( 'NONE',  ( 0.000000000000000000, 50.00000000000000000, 0.000000000000000000 ) ) ;
#223 = PRODUCT_CONTEXT ( 'NONE', #14, 'mechanical' ) ;
#224 = ORIENTED_EDGE ( 'NONE', *, *, #54, .F. ) ;
#225 = ORIENTED_EDGE ( 'NONE', *, *, #282, .F. ) ;
#226 = FACE_OUTER_BOUND ( 'NONE', #234, .T. ) ;
#227 =( GEOMETRIC_REPRESENTATION_CONTEXT ( 3 ) GLOBAL_UNCERTAINTY_ASSIGNED_CONTEXT ( ( #256 ) ) GLOBAL_UNIT_ASSIGNED_CONTEXT ( ( #216, #197, #248 ) ) REPRESENTATION_CONTEXT ( 'NONE', 'WORKASPACE' ) );
#228 =( NAMED_UNIT ( * ) SI_UNIT ( $, .STERADIAN. ) SOLID_ANGLE_UNIT ( ) );
#229 = ADVANCED_FACE ( 'NONE', ( #101 ), #218, .T. ) ;
#230 = ADVANCED_FACE ( 'NONE', ( #35 ), #168, .T. ) ;
#231 = DIRECTION ( 'NONE',  ( -4.082155997157840121E-17, 1.000000000000000000, -0.000000000000000000 ) ) ;
#232 = ORIENTED_EDGE ( 'NONE', *, *, #24, .F. ) ;
#233 = STYLED_ITEM ( 'NONE', ( #62 ), #219 ) ;
#234 = EDGE_LOOP ( 'NONE', ( #95, #8, #267, #221 ) ) ;
#235 =( NAMED_UNIT ( * ) SI_UNIT ( $, .STERADIAN. ) SOLID_ANGLE_UNIT ( ) );
#236 = DIRECTION ( 'NONE',  ( 0.000000000000000000, 0.000000000000000000, -1.000000000000000000 ) ) ;
#237 = CARTESIAN_POINT ( 'NONE',  ( 0.000000000000000000, 0.000000000000000000, 0.000000000000000000 ) ) ;
#238 = AXIS2_PLACEMENT_3D ( 'NONE', #121, #102, #188 ) ;
#239 = CYLINDRICAL_SURFACE ( 'NONE', #283, 12.50000000000000178 ) ;
#240 = SURFACE_SIDE_STYLE ('',( #165 ) ) ;
#241 = FILL_AREA_STYLE ('',( #42 ) ) ;
#242 = EDGE_CURVE ( 'NONE', #172, #130, #131, .T. ) ;
#243 = FACE_OUTER_BOUND ( 'NONE', #117, .T. ) ;
#244 =( NAMED_UNIT ( * ) SI_UNIT ( $, .STERADIAN. ) SOLID_ANGLE_UNIT ( ) );
#245 = PRESENTATION_LAYER_ASSIGNMENT (  '', '', ( #114 ) ) ;
#246 = CARTESIAN_POINT ( 'NONE',  ( 0.000000000000000000, 50.00000000000000000, 0.000000000000000000 ) ) ;
#247 = UNCERTAINTY_MEASURE_WITH_UNIT (LENGTH_MEASURE( 1.000000000000000082E-05 ), #208, 'distance_accuracy_value', 'NONE');
#248 =( NAMED_UNIT ( * ) SI_UNIT ( $, .STERADIAN. ) SOLID_ANGLE_UNIT ( ) );
#249 = EDGE_CURVE ( 'NONE', #45, #5, #201, .T. ) ;
#250 = VERTEX_POINT ( 'NONE', #108 ) ;
#251 = AXIS2_PLACEMENT_3D ( 'NONE', #143, #286, #16 ) ;
#252 = VECTOR ( 'NONE', #113, 1000.000000000000000 ) ;
#253 = APPLICATION_PROTOCOL_DEFINITION ( 'draft international standard', 'automotive_design', 1998, #155 ) ;
#254 = EDGE_CURVE ( 'NONE', #250, #130, #112, .T. ) ;
#255 = VECTOR ( 'NONE', #277, 1000.000000000000000 ) ;
#256 = UNCERTAINTY_MEASURE_WITH_UNIT (LENGTH_MEASURE( 1.000000000000000082E-05 ), #216, 'distance_accuracy_value', 'NONE');
#257 = DIRECTION ( 'NONE',  ( -1.000000000000000000, 0.000000000000000000, 0.000000000000000000 ) ) ;
#258 = MECHANICAL_DESIGN_GEOMETRIC_PRESENTATION_REPRESENTATION (  '', ( #33 ), #110 ) ;
#259 = PLANE ( 'NONE',  #157 ) ;
#260 = FILL_AREA_STYLE_COLOUR ( '', #119 ) ;
#261 =( NAMED_UNIT ( * ) SI_UNIT ( $, .STERADIAN. ) SOLID_ANGLE_UNIT ( ) );
#262 = DIRECTION ( 'NONE',  ( -0.000000000000000000, -1.000000000000000000, -0.000000000000000000 ) ) ;
#263 =( GEOMETRIC_REPRESENTATION_CONTEXT ( 3 ) GLOBAL_UNCERTAINTY_ASSIGNED_CONTEXT ( ( #21 ) ) GLOBAL_UNIT_ASSIGNED_CONTEXT ( ( #80, #189, #287 ) ) REPRESENTATION_CONTEXT ( 'NONE', 'WORKASPACE' ) );
#264 = FILL_AREA_STYLE_COLOUR ( '', #187 ) ;
#265 = DIRECTION ( 'NONE',  ( -0.000000000000000000, -1.000000000000000000, -0.000000000000000000 ) ) ;
#266 = ORIENTED_EDGE ( 'NONE', *, *, #196, .F. ) ;
#267 = ORIENTED_EDGE ( 'NONE', *, *, #72, .T. ) ;
#268 = EDGE_CURVE ( 'NONE', #5, #91, #71, .T. ) ;
#269 = EDGE_LOOP ( 'NONE', ( #224, #207 ) ) ;
#270 = PRODUCT_DEFINITION ( 'UNKNOWN', '', #106, #144 ) ;
#271 = SHAPE_DEFINITION_REPRESENTATION ( #214, #199 ) ;
#272 = FILL_AREA_STYLE ('',( #15 ) ) ;
#273 = AXIS2_PLACEMENT_3D ( 'NONE', #194, #59, #170 ) ;
#274 = PRESENTATION_STYLE_ASSIGNMENT (( #32 ) ) ;
#275 = PRODUCT_RELATED_PRODUCT_CATEGORY ( 'part', '', ( #174 ) ) ;
#276 = CARTESIAN_POINT ( 'NONE',  ( 0.000000000000000000, 50.00000000000000000, 0.000000000000000000 ) ) ;
#277 = DIRECTION ( 'NONE',  ( -0.000000000000000000, -1.000000000000000000, -0.000000000000000000 ) ) ;
#278 = PRESENTATION_LAYER_ASSIGNMENT (  '', '', ( #33 ) ) ;
#279 = SURFACE_SIDE_STYLE ('',( #212 ) ) ;
#280 = DIRECTION ( 'NONE',  ( -1.000000000000000000, -4.082155997157840121E-17, 0.000000000000000000 ) ) ;
#281 =( NAMED_UNIT ( * ) PLANE_ANGLE_UNIT ( ) SI_UNIT ( $, .RADIAN. ) );
#282 = EDGE_CURVE ( 'NONE', #116, #250, #205, .T. ) ;
#283 = AXIS2_PLACEMENT_3D ( 'NONE', #162, #39, #191 ) ;
#284 = FILL_AREA_STYLE ('',( #20 ) ) ;
#285 = DIRECTION ( 'NONE',  ( 0.000000000000000000, 0.000000000000000000, -1.000000000000000000 ) ) ;
#286 = DIRECTION ( 'NONE',  ( -4.082155997157840121E-17, 1.000000000000000000, -0.000000000000000000 ) ) ;
#287 =( NAMED_UNIT ( * ) SI_UNIT ( $, .STERADIAN. ) SOLID_ANGLE_UNIT ( ) );
#288 = ORIENTED_EDGE ( 'NONE', *, *, #242, .T. ) ;
ENDSEC;
END-ISO-10303-21;
