ISO-10303-21;
HEADER;
FILE_DESCRIPTION (( 'STEP AP214' ),
    '1' );
FILE_NAME ('07024.STEP',
    '2023-07-12T13:05:12',
    ( '' ),
    ( '' ),
    'SwSTEP 2.0',
    'SolidWorks 2023',
    '' );
FILE_SCHEMA (( 'AUTOMOTIVE_DESIGN' ));
ENDSEC;

DATA;
#1 =( LENGTH_UNIT ( ) NAMED_UNIT ( * ) SI_UNIT ( $, .METRE. ) );
#2 = PRESENTATION_LAYER_ASSIGNMENT (  '', '', ( #201 ) ) ;
#3 = CARTESIAN_POINT ( 'NONE',  ( 4.407238894709387373E-37, 1.408281755409486404E-19, 0.000000000000000000 ) ) ;
#4 =( NAMED_UNIT ( * ) SI_UNIT ( $, .STERADIAN. ) SOLID_ANGLE_UNIT ( ) );
#5 = CARTESIAN_POINT ( 'NONE',  ( 4.407238894709387373E-37, 1.408281755409486404E-19, 0.000000000000000000 ) ) ;
#6 = VECTOR ( 'NONE', #140, 39.37007874015748854 ) ;
#7 =( GEOMETRIC_REPRESENTATION_CONTEXT ( 3 ) GLOBAL_UNCERTAINTY_ASSIGNED_CONTEXT ( ( #172 ) ) GLOBAL_UNIT_ASSIGNED_CONTEXT ( ( #239, #148, #271 ) ) REPRESENTATION_CONTEXT ( 'NONE', 'WORKASPACE' ) );
#8 =( LENGTH_UNIT ( ) NAMED_UNIT ( * ) SI_UNIT ( $, .METRE. ) );
#9 = DIMENSIONAL_EXPONENTS ( 1.000000000000000000, 0.000000000000000000, 0.000000000000000000, 0.000000000000000000, 0.000000000000000000, 0.000000000000000000, 0.000000000000000000 ) ;
#10 = CARTESIAN_POINT ( 'NONE',  ( 3.073328992872296367E-16, 0.4633235910246734091, 0.000000000000000000 ) ) ;
#11 = AXIS2_PLACEMENT_3D ( 'NONE', #5, #170, #59 ) ;
#12 = DIRECTION ( 'NONE',  ( -1.000000000000000000, -2.185478394931412547E-16, 0.000000000000000000 ) ) ;
#13 = CARTESIAN_POINT ( 'NONE',  ( -0.3125000000000001665, 3.000000000000000444, 0.000000000000000000 ) ) ;
#14 = CARTESIAN_POINT ( 'NONE',  ( -0.3125000000000000000, 0.4633235910246734091, 0.000000000000000000 ) ) ;
#15 = ORIENTED_EDGE ( 'NONE', *, *, #52, .T. ) ;
#16 = DIRECTION ( 'NONE',  ( 1.000000000000000000, 0.000000000000000000, 0.000000000000000000 ) ) ;
#17 = SURFACE_STYLE_USAGE ( .BOTH. , #134 ) ;
#18 = ORIENTED_EDGE ( 'NONE', *, *, #76, .F. ) ;
#19 = PRESENTATION_LAYER_ASSIGNMENT (  '', '', ( #294 ) ) ;
#20 = DIRECTION ( 'NONE',  ( 0.5000000000000009992, 0.8660254037844379305, 6.123233995736778362E-17 ) ) ;
#21 =( NAMED_UNIT ( * ) SI_UNIT ( $, .STERADIAN. ) SOLID_ANGLE_UNIT ( ) );
#22 = ORIENTED_EDGE ( 'NONE', *, *, #244, .F. ) ;
#23 = LENGTH_MEASURE_WITH_UNIT ( LENGTH_MEASURE( 0.02539999999999999897 ), #1 );
#24 = AXIS2_PLACEMENT_3D ( 'NONE', #99, #262, #27 ) ;
#25 = SURFACE_SIDE_STYLE ('',( #144 ) ) ;
#26 = PRESENTATION_STYLE_ASSIGNMENT (( #283 ) ) ;
#27 = DIRECTION ( 'NONE',  ( 1.000000000000000000, -3.129515012021080962E-18, 0.000000000000000000 ) ) ;
#28 = SURFACE_SIDE_STYLE ('',( #235 ) ) ;
#29 = COLOUR_RGB ( '',1.000000000000000000, 0.000000000000000000, 0.000000000000000000 ) ;
#30 = FILL_AREA_STYLE ('',( #193 ) ) ;
#31 = DIRECTION ( 'NONE',  ( 3.129515012021080962E-18, 1.000000000000000000, 0.000000000000000000 ) ) ;
#32 =( CONVERSION_BASED_UNIT ( 'INCH', #100 ) LENGTH_UNIT ( ) NAMED_UNIT ( #126 ) );
#33 = DIRECTION ( 'NONE',  ( 1.000000000000000000, 0.000000000000000000, 0.000000000000000000 ) ) ;
#34 = MECHANICAL_DESIGN_GEOMETRIC_PRESENTATION_REPRESENTATION (  '', ( #149 ), #221 ) ;
#35 = COLOUR_RGB ( '',1.000000000000000000, 0.000000000000000000, 0.000000000000000000 ) ;
#36 = ADVANCED_FACE ( 'NONE', ( #178 ), #298, .F. ) ;
#37 = LENGTH_MEASURE_WITH_UNIT ( LENGTH_MEASURE( 0.02539999999999999897 ), #242 );
#38 = ORIENTED_EDGE ( 'NONE', *, *, #284, .T. ) ;
#39 = UNCERTAINTY_MEASURE_WITH_UNIT (LENGTH_MEASURE( 1.000000000000000082E-05 ), #163, 'distance_accuracy_value', 'NONE');
#40 = FACE_OUTER_BOUND ( 'NONE', #105, .T. ) ;
#41 = DIRECTION ( 'NONE',  ( 1.000000000000000000, 1.452945428674037189E-16, 0.000000000000000000 ) ) ;
#42 = APPLICATION_CONTEXT ( 'automotive_design' ) ;
#43 = DIRECTION ( 'NONE',  ( -1.000000000000000000, 0.000000000000000000, 0.000000000000000000 ) ) ;
#44 = MECHANICAL_DESIGN_GEOMETRIC_PRESENTATION_REPRESENTATION (  '', ( #210 ), #115 ) ;
#45 = CARTESIAN_POINT ( 'NONE',  ( -0.3124999999999999445, 3.000000000000000444, 0.000000000000000000 ) ) ;
#46 = ORIENTED_EDGE ( 'NONE', *, *, #212, .F. ) ;
#47 = ADVANCED_FACE ( 'NONE', ( #222 ), #60, .T. ) ;
#48 = LINE ( 'NONE', #307, #6 ) ;
#49 = FACE_OUTER_BOUND ( 'NONE', #198, .T. ) ;
#50 =( NAMED_UNIT ( * ) SI_UNIT ( $, .STERADIAN. ) SOLID_ANGLE_UNIT ( ) );
#51 = VECTOR ( 'NONE', #138, 39.37007874015748143 ) ;
#52 = EDGE_CURVE ( 'NONE', #67, #249, #190, .T. ) ;
#53 = SURFACE_SIDE_STYLE ('',( #264 ) ) ;
#54 = DIRECTION ( 'NONE',  ( -1.000000000000000000, 3.129515012021080962E-18, 0.000000000000000000 ) ) ;
#55 = SURFACE_STYLE_USAGE ( .BOTH. , #121 ) ;
#56 = EDGE_CURVE ( 'NONE', #252, #200, #306, .T. ) ;
#57 = COLOUR_RGB ( '',1.000000000000000000, 0.000000000000000000, 0.000000000000000000 ) ;
#58 =( GEOMETRIC_REPRESENTATION_CONTEXT ( 3 ) GLOBAL_UNCERTAINTY_ASSIGNED_CONTEXT ( ( #110 ) ) GLOBAL_UNIT_ASSIGNED_CONTEXT ( ( #32, #128, #21 ) ) REPRESENTATION_CONTEXT ( 'NONE', 'WORKASPACE' ) );
#59 = DIRECTION ( 'NONE',  ( 1.000000000000000000, -3.129515012021080962E-18, 0.000000000000000000 ) ) ;
#60 = CYLINDRICAL_SURFACE ( 'NONE', #142, 0.3124999999999998890 ) ;
#61 = CARTESIAN_POINT ( 'NONE',  ( 0.3125000000000000000, 0.4633235910246734646, 3.827021247335478926E-17 ) ) ;
#62 = CARTESIAN_POINT ( 'NONE',  ( 4.407238894709387373E-37, 1.408281755409486404E-19, 0.000000000000000000 ) ) ;
#63 = PRESENTATION_LAYER_ASSIGNMENT (  '', '', ( #149 ) ) ;
#64 = CARTESIAN_POINT ( 'NONE',  ( 1.449978133535231054E-18, 0.4633235910246734091, 0.000000000000000000 ) ) ;
#65 = UNCERTAINTY_MEASURE_WITH_UNIT (LENGTH_MEASURE( 1.000000000000000082E-05 ), #303, 'distance_accuracy_value', 'NONE');
#66 = DIRECTION ( 'NONE',  ( -3.129515012021080962E-18, -1.000000000000000000, -0.000000000000000000 ) ) ;
#67 = VERTEX_POINT ( 'NONE', #152 ) ;
#68 = DIRECTION ( 'NONE',  ( -1.452945428674037189E-16, 1.000000000000000000, -0.000000000000000000 ) ) ;
#69 = EDGE_LOOP ( 'NONE', ( #46, #292, #38, #85 ) ) ;
#70 = STYLED_ITEM ( 'NONE', ( #125 ), #174 ) ;
#71 = CARTESIAN_POINT ( 'NONE',  ( 4.407238894709387373E-37, 1.408281755409486404E-19, 0.000000000000000000 ) ) ;
#72 = SURFACE_STYLE_FILL_AREA ( #143 ) ;
#73 = EDGE_CURVE ( 'NONE', #136, #269, #263, .T. ) ;
#74 = DIRECTION ( 'NONE',  ( -1.452945428674037189E-16, 1.000000000000000000, -0.000000000000000000 ) ) ;
#75 = SURFACE_SIDE_STYLE ('',( #207 ) ) ;
#76 = EDGE_CURVE ( 'NONE', #82, #216, #245, .T. ) ;
#77 = COLOUR_RGB ( '',0.7921568627450980005, 0.8196078431372548767, 0.9333333333333333481 ) ;
#78 = CARTESIAN_POINT ( 'NONE',  ( 3.073328992872296367E-16, 0.4633235910246734091, 0.000000000000000000 ) ) ;
#79 = DIRECTION ( 'NONE',  ( 1.000000000000000000, -3.129515012021080962E-18, 0.000000000000000000 ) ) ;
#80 = DIRECTION ( 'NONE',  ( -1.000000000000000000, -1.452945428674037189E-16, 0.000000000000000000 ) ) ;
#81 = DIRECTION ( 'NONE',  ( -1.452945428674037189E-16, 1.000000000000000000, -0.000000000000000000 ) ) ;
#82 = VERTEX_POINT ( 'NONE', #13 ) ;
#83 = CARTESIAN_POINT ( 'NONE',  ( -0.3124999999999994449, 0.4633235910246733535, 0.000000000000000000 ) ) ;
#84 = EDGE_LOOP ( 'NONE', ( #139, #158 ) ) ;
#85 = ORIENTED_EDGE ( 'NONE', *, *, #122, .F. ) ;
#86 = ADVANCED_BREP_SHAPE_REPRESENTATION ( '07024', ( #299, #194, #289 ), #58 ) ;
#87 = MECHANICAL_DESIGN_GEOMETRIC_PRESENTATION_REPRESENTATION (  '', ( #165 ), #7 ) ;
#88 =( NAMED_UNIT ( * ) PLANE_ANGLE_UNIT ( ) SI_UNIT ( $, .RADIAN. ) );
#89 = VECTOR ( 'NONE', #20, 39.37007874015748854 ) ;
#90 = DIRECTION ( 'NONE',  ( 3.129515012021080962E-18, 1.000000000000000000, 0.000000000000000000 ) ) ;
#91 = EDGE_CURVE ( 'NONE', #249, #136, #277, .T. ) ;
#92 =( LENGTH_UNIT ( ) NAMED_UNIT ( * ) SI_UNIT ( $, .METRE. ) );
#93 = AXIS2_PLACEMENT_3D ( 'NONE', #71, #185, #255 ) ;
#94 =( NAMED_UNIT ( * ) SI_UNIT ( $, .STERADIAN. ) SOLID_ANGLE_UNIT ( ) );
#95 = AXIS2_PLACEMENT_3D ( 'NONE', #62, #113, #79 ) ;
#96 = EDGE_LOOP ( 'NONE', ( #279, #295, #224, #109 ) ) ;
#97 = PRODUCT_DEFINITION_FORMATION_WITH_SPECIFIED_SOURCE ( 'ANY', '', #102, .NOT_KNOWN. ) ;
#98 = ADVANCED_FACE ( 'NONE', ( #259 ), #173, .T. ) ;
#99 = CARTESIAN_POINT ( 'NONE',  ( 2.203619447354693686E-37, 7.041408777047432020E-20, 0.000000000000000000 ) ) ;
#100 = LENGTH_MEASURE_WITH_UNIT ( LENGTH_MEASURE( 0.02539999999999999897 ), #213 );
#101 = PRESENTATION_STYLE_ASSIGNMENT (( #17 ) ) ;
#102 = PRODUCT ( '07024', '07024', '', ( #223 ) ) ;
#103 = DIRECTION ( 'NONE',  ( -1.452945428674037189E-16, 1.000000000000000000, -0.000000000000000000 ) ) ;
#104 = ADVANCED_FACE ( 'NONE', ( #117 ), #275, .T. ) ;
#105 = EDGE_LOOP ( 'NONE', ( #133, #247, #18, #182 ) ) ;
#106 =( NAMED_UNIT ( * ) PLANE_ANGLE_UNIT ( ) SI_UNIT ( $, .RADIAN. ) );
#107 = DIRECTION ( 'NONE',  ( 1.452945428674037189E-16, -1.000000000000000000, 0.000000000000000000 ) ) ;
#108 = UNCERTAINTY_MEASURE_WITH_UNIT (LENGTH_MEASURE( 1.000000000000000082E-05 ), #211, 'distance_accuracy_value', 'NONE');
#109 = ORIENTED_EDGE ( 'NONE', *, *, #244, .T. ) ;
#110 = UNCERTAINTY_MEASURE_WITH_UNIT (LENGTH_MEASURE( 1.000000000000000082E-05 ), #32, 'distance_accuracy_value', 'NONE');
#111 = CARTESIAN_POINT ( 'NONE',  ( -6.123233995736772199E-17, 3.000000000000000444, 0.000000000000000000 ) ) ;
#112 = CARTESIAN_POINT ( 'NONE',  ( 0.000000000000000000, 0.000000000000000000, 0.000000000000000000 ) ) ;
#113 = DIRECTION ( 'NONE',  ( -3.129515012021080962E-18, -1.000000000000000000, -0.000000000000000000 ) ) ;
#114 = FILL_AREA_STYLE ('',( #231 ) ) ;
#115 =( GEOMETRIC_REPRESENTATION_CONTEXT ( 3 ) GLOBAL_UNCERTAINTY_ASSIGNED_CONTEXT ( ( #39 ) ) GLOBAL_UNIT_ASSIGNED_CONTEXT ( ( #163, #166, #119 ) ) REPRESENTATION_CONTEXT ( 'NONE', 'WORKASPACE' ) );
#116 = FILL_AREA_STYLE_COLOUR ( '', #288 ) ;
#117 = FACE_OUTER_BOUND ( 'NONE', #180, .T. ) ;
#118 = AXIS2_PLACEMENT_3D ( 'NONE', #10, #214, #80 ) ;
#119 =( NAMED_UNIT ( * ) SI_UNIT ( $, .STERADIAN. ) SOLID_ANGLE_UNIT ( ) );
#120 = DIMENSIONAL_EXPONENTS ( 1.000000000000000000, 0.000000000000000000, 0.000000000000000000, 0.000000000000000000, 0.000000000000000000, 0.000000000000000000, 0.000000000000000000 ) ;
#121 = SURFACE_SIDE_STYLE ('',( #72 ) ) ;
#122 = EDGE_CURVE ( 'NONE', #216, #82, #273, .T. ) ;
#123 = SURFACE_STYLE_USAGE ( .BOTH. , #28 ) ;
#124 = MECHANICAL_DESIGN_GEOMETRIC_PRESENTATION_REPRESENTATION (  '', ( #70 ), #196 ) ;
#125 = PRESENTATION_STYLE_ASSIGNMENT (( #188 ) ) ;
#126 = DIMENSIONAL_EXPONENTS ( 1.000000000000000000, 0.000000000000000000, 0.000000000000000000, 0.000000000000000000, 0.000000000000000000, 0.000000000000000000, 0.000000000000000000 ) ;
#127 = FILL_AREA_STYLE_COLOUR ( '', #131 ) ;
#128 =( NAMED_UNIT ( * ) PLANE_ANGLE_UNIT ( ) SI_UNIT ( $, .RADIAN. ) );
#129 = DIRECTION ( 'NONE',  ( -1.000000000000000000, 0.000000000000000000, 0.000000000000000000 ) ) ;
#130 = CARTESIAN_POINT ( 'NONE',  ( -6.123233995736770966E-17, 3.000000000000000444, 0.000000000000000000 ) ) ;
#131 = COLOUR_RGB ( '',0.7921568627450980005, 0.8196078431372548767, 0.9333333333333333481 ) ;
#132 =( NAMED_UNIT ( * ) SI_UNIT ( $, .STERADIAN. ) SOLID_ANGLE_UNIT ( ) );
#133 = ORIENTED_EDGE ( 'NONE', *, *, #56, .T. ) ;
#134 = SURFACE_SIDE_STYLE ('',( #248 ) ) ;
#135 = EDGE_CURVE ( 'NONE', #67, #269, #48, .T. ) ;
#136 = VERTEX_POINT ( 'NONE', #225 ) ;
#137 = CARTESIAN_POINT ( 'NONE',  ( 0.04499999999999999833, 0.000000000000000000, 5.510910596163089556E-18 ) ) ;
#138 = DIRECTION ( 'NONE',  ( -1.452945428674037189E-16, 1.000000000000000000, -0.000000000000000000 ) ) ;
#139 = ORIENTED_EDGE ( 'NONE', *, *, #56, .F. ) ;
#140 = DIRECTION ( 'NONE',  ( -0.5000000000000009992, 0.8660254037844379305, 0.000000000000000000 ) ) ;
#141 = DIRECTION ( 'NONE',  ( -1.000000000000000000, 0.000000000000000000, 0.000000000000000000 ) ) ;
#142 = AXIS2_PLACEMENT_3D ( 'NONE', #111, #81, #276 ) ;
#143 = FILL_AREA_STYLE ('',( #282 ) ) ;
#144 = SURFACE_STYLE_FILL_AREA ( #114 ) ;
#145 = PRESENTATION_STYLE_ASSIGNMENT (( #123 ) ) ;
#146 = FACE_OUTER_BOUND ( 'NONE', #218, .T. ) ;
#147 = PLANE ( 'NONE',  #118 ) ;
#148 =( NAMED_UNIT ( * ) PLANE_ANGLE_UNIT ( ) SI_UNIT ( $, .RADIAN. ) );
#149 = STYLED_ITEM ( 'NONE', ( #309 ), #98 ) ;
#150 = LENGTH_MEASURE_WITH_UNIT ( LENGTH_MEASURE( 0.02539999999999999897 ), #240 );
#151 = ADVANCED_FACE ( 'NONE', ( #49 ), #184, .T. ) ;
#152 = CARTESIAN_POINT ( 'NONE',  ( -0.04499999999999999833, 2.816563510818972808E-19, 0.000000000000000000 ) ) ;
#153 = CARTESIAN_POINT ( 'NONE',  ( 0.3125000000000000000, 3.000000000000000444, 3.827021247335478926E-17 ) ) ;
#154 = ORIENTED_EDGE ( 'NONE', *, *, #73, .F. ) ;
#155 =( GEOMETRIC_REPRESENTATION_CONTEXT ( 3 ) GLOBAL_UNCERTAINTY_ASSIGNED_CONTEXT ( ( #108 ) ) GLOBAL_UNIT_ASSIGNED_CONTEXT ( ( #211, #209, #94 ) ) REPRESENTATION_CONTEXT ( 'NONE', 'WORKASPACE' ) );
#156 = UNCERTAINTY_MEASURE_WITH_UNIT (LENGTH_MEASURE( 1.000000000000000082E-05 ), #227, 'distance_accuracy_value', 'NONE');
#157 = CARTESIAN_POINT ( 'NONE',  ( 0.04499999999999999833, 0.000000000000000000, 2.189056153475893941E-17 ) ) ;
#158 = ORIENTED_EDGE ( 'NONE', *, *, #261, .F. ) ;
#159 = CARTESIAN_POINT ( 'NONE',  ( 0.3124999999999998335, 3.000000000000000444, 3.827021247335477078E-17 ) ) ;
#160 = ORIENTED_EDGE ( 'NONE', *, *, #91, .T. ) ;
#161 = DIRECTION ( 'NONE',  ( -1.452945428674037189E-16, 1.000000000000000000, -0.000000000000000000 ) ) ;
#162 = AXIS2_PLACEMENT_3D ( 'NONE', #199, #66, #297 ) ;
#163 =( CONVERSION_BASED_UNIT ( 'INCH', #230 ) LENGTH_UNIT ( ) NAMED_UNIT ( #9 ) );
#164 = EDGE_CURVE ( 'NONE', #249, #67, #175, .T. ) ;
#165 = STYLED_ITEM ( 'NONE', ( #101 ), #299 ) ;
#166 =( NAMED_UNIT ( * ) PLANE_ANGLE_UNIT ( ) SI_UNIT ( $, .RADIAN. ) );
#167 = DIMENSIONAL_EXPONENTS ( 1.000000000000000000, 0.000000000000000000, 0.000000000000000000, 0.000000000000000000, 0.000000000000000000, 0.000000000000000000, 0.000000000000000000 ) ;
#168 = AXIS2_PLACEMENT_3D ( 'NONE', #64, #205, #33 ) ;
#169 = CIRCLE ( 'NONE', #162, 0.3125000000000000000 ) ;
#170 = DIRECTION ( 'NONE',  ( -3.129515012021080962E-18, -1.000000000000000000, -0.000000000000000000 ) ) ;
#171 = PLANE ( 'NONE',  #208 ) ;
#172 = UNCERTAINTY_MEASURE_WITH_UNIT (LENGTH_MEASURE( 1.000000000000000082E-05 ), #239, 'distance_accuracy_value', 'NONE');
#173 = CONICAL_SURFACE ( 'NONE', #228, 0.04499999999999999833, 0.5235987755983001479 ) ;
#174 = ADVANCED_FACE ( 'NONE', ( #146 ), #171, .T. ) ;
#175 = CIRCLE ( 'NONE', #11, 0.04499999999999999833 ) ;
#176 = APPLICATION_CONTEXT ( 'automotive_design' ) ;
#177 = DIMENSIONAL_EXPONENTS ( 1.000000000000000000, 0.000000000000000000, 0.000000000000000000, 0.000000000000000000, 0.000000000000000000, 0.000000000000000000, 0.000000000000000000 ) ;
#178 = FACE_OUTER_BOUND ( 'NONE', #305, .T. ) ;
#179 = CARTESIAN_POINT ( 'NONE',  ( -6.123233995736772199E-17, 3.000000000000000444, 0.000000000000000000 ) ) ;
#180 = EDGE_LOOP ( 'NONE', ( #202, #160, #192, #272 ) ) ;
#181 = DIRECTION ( 'NONE',  ( -1.452945428674037189E-16, 1.000000000000000000, -0.000000000000000000 ) ) ;
#182 = ORIENTED_EDGE ( 'NONE', *, *, #284, .F. ) ;
#183 = AXIS2_PLACEMENT_3D ( 'NONE', #179, #161, #129 ) ;
#184 = PLANE ( 'NONE',  #24 ) ;
#185 = DIRECTION ( 'NONE',  ( 3.129515012021080962E-18, 1.000000000000000000, 0.000000000000000000 ) ) ;
#186 = AXIS2_PLACEMENT_3D ( 'NONE', #304, #107, #41 ) ;
#187 = CARTESIAN_POINT ( 'NONE',  ( -6.123233995736770966E-17, 3.000000000000000444, 0.000000000000000000 ) ) ;
#188 = SURFACE_STYLE_USAGE ( .BOTH. , #53 ) ;
#189 = PRODUCT_RELATED_PRODUCT_CATEGORY ( 'part', '', ( #102 ) ) ;
#190 = CIRCLE ( 'NONE', #95, 0.04499999999999999833 ) ;
#191 =( CONVERSION_BASED_UNIT ( 'INCH', #236 ) LENGTH_UNIT ( ) NAMED_UNIT ( #286 ) );
#192 = ORIENTED_EDGE ( 'NONE', *, *, #73, .T. ) ;
#193 = FILL_AREA_STYLE_COLOUR ( '', #35 ) ;
#194 = MANIFOLD_SOLID_BREP ( 'Revolve - Tool Body (Tipped Off)', #300 ) ;
#195 = PRESENTATION_LAYER_ASSIGNMENT (  '', '', ( #210 ) ) ;
#196 =( GEOMETRIC_REPRESENTATION_CONTEXT ( 3 ) GLOBAL_UNCERTAINTY_ASSIGNED_CONTEXT ( ( #301 ) ) GLOBAL_UNIT_ASSIGNED_CONTEXT ( ( #191, #290, #4 ) ) REPRESENTATION_CONTEXT ( 'NONE', 'WORKASPACE' ) );
#197 = FILL_AREA_STYLE_COLOUR ( '', #77 ) ;
#198 = EDGE_LOOP ( 'NONE', ( #15, #220 ) ) ;
#199 = CARTESIAN_POINT ( 'NONE',  ( 1.449978133535231054E-18, 0.4633235910246734091, 0.000000000000000000 ) ) ;
#200 = VERTEX_POINT ( 'NONE', #61 ) ;
#201 = STYLED_ITEM ( 'NONE', ( #291 ), #151 ) ;
#202 = ORIENTED_EDGE ( 'NONE', *, *, #164, .F. ) ;
#203 = ORIENTED_EDGE ( 'NONE', *, *, #76, .T. ) ;
#204 = ADVANCED_FACE ( 'NONE', ( #217 ), #147, .F. ) ;
#205 = DIRECTION ( 'NONE',  ( -3.129515012021080962E-18, -1.000000000000000000, -0.000000000000000000 ) ) ;
#206 = AXIS2_PLACEMENT_3D ( 'NONE', #78, #68, #12 ) ;
#207 = SURFACE_STYLE_FILL_AREA ( #257 ) ;
#208 = AXIS2_PLACEMENT_3D ( 'NONE', #287, #31, #54 ) ;
#209 =( NAMED_UNIT ( * ) PLANE_ANGLE_UNIT ( ) SI_UNIT ( $, .RADIAN. ) );
#210 = STYLED_ITEM ( 'NONE', ( #26 ), #104 ) ;
#211 =( CONVERSION_BASED_UNIT ( 'INCH', #150 ) LENGTH_UNIT ( ) NAMED_UNIT ( #237 ) );
#212 = EDGE_CURVE ( 'NONE', #200, #216, #278, .T. ) ;
#213 =( LENGTH_UNIT ( ) NAMED_UNIT ( * ) SI_UNIT ( $, .METRE. ) );
#214 = DIRECTION ( 'NONE',  ( -1.452945428674037189E-16, 1.000000000000000000, 0.000000000000000000 ) ) ;
#215 = PRESENTATION_LAYER_ASSIGNMENT (  '', '', ( #165 ) ) ;
#216 = VERTEX_POINT ( 'NONE', #153 ) ;
#217 = FACE_OUTER_BOUND ( 'NONE', #84, .T. ) ;
#218 = EDGE_LOOP ( 'NONE', ( #22, #154 ) ) ;
#219 = LINE ( 'NONE', #45, #51 ) ;
#220 = ORIENTED_EDGE ( 'NONE', *, *, #164, .T. ) ;
#221 =( GEOMETRIC_REPRESENTATION_CONTEXT ( 3 ) GLOBAL_UNCERTAINTY_ASSIGNED_CONTEXT ( ( #156 ) ) GLOBAL_UNIT_ASSIGNED_CONTEXT ( ( #227, #88, #50 ) ) REPRESENTATION_CONTEXT ( 'NONE', 'WORKASPACE' ) );
#222 = FACE_OUTER_BOUND ( 'NONE', #69, .T. ) ;
#223 = PRODUCT_CONTEXT ( 'NONE', #42, 'mechanical' ) ;
#224 = ORIENTED_EDGE ( 'NONE', *, *, #135, .T. ) ;
#225 = CARTESIAN_POINT ( 'NONE',  ( 0.3125000000000000000, 0.4633235910246734091, 3.827021247335479543E-17 ) ) ;
#226 = PRODUCT_DEFINITION ( 'UNKNOWN', '', #97, #260 ) ;
#227 =( CONVERSION_BASED_UNIT ( 'INCH', #23 ) LENGTH_UNIT ( ) NAMED_UNIT ( #120 ) );
#228 = AXIS2_PLACEMENT_3D ( 'NONE', #3, #90, #232 ) ;
#229 = PRESENTATION_LAYER_ASSIGNMENT (  '', '', ( #70 ) ) ;
#230 = LENGTH_MEASURE_WITH_UNIT ( LENGTH_MEASURE( 0.02539999999999999897 ), #258 );
#231 = FILL_AREA_STYLE_COLOUR ( '', #57 ) ;
#232 = DIRECTION ( 'NONE',  ( -1.000000000000000000, 3.129515012021080962E-18, 0.000000000000000000 ) ) ;
#233 = AXIS2_PLACEMENT_3D ( 'NONE', #130, #181, #43 ) ;
#234 = MECHANICAL_DESIGN_GEOMETRIC_PRESENTATION_REPRESENTATION (  '', ( #201 ), #155 ) ;
#235 = SURFACE_STYLE_FILL_AREA ( #238 ) ;
#236 = LENGTH_MEASURE_WITH_UNIT ( LENGTH_MEASURE( 0.02539999999999999897 ), #92 );
#237 = DIMENSIONAL_EXPONENTS ( 1.000000000000000000, 0.000000000000000000, 0.000000000000000000, 0.000000000000000000, 0.000000000000000000, 0.000000000000000000, 0.000000000000000000 ) ;
#238 = FILL_AREA_STYLE ('',( #127 ) ) ;
#239 =( CONVERSION_BASED_UNIT ( 'INCH', #37 ) LENGTH_UNIT ( ) NAMED_UNIT ( #167 ) );
#240 =( LENGTH_UNIT ( ) NAMED_UNIT ( * ) SI_UNIT ( $, .METRE. ) );
#241 = ORIENTED_EDGE ( 'NONE', *, *, #122, .T. ) ;
#242 =( LENGTH_UNIT ( ) NAMED_UNIT ( * ) SI_UNIT ( $, .METRE. ) );
#243 = DIRECTION ( 'NONE',  ( -1.452945428674037189E-16, 1.000000000000000000, -0.000000000000000000 ) ) ;
#244 = EDGE_CURVE ( 'NONE', #269, #136, #169, .T. ) ;
#245 = CIRCLE ( 'NONE', #233, 0.3125000000000000555 ) ;
#246 = FILL_AREA_STYLE ('',( #197 ) ) ;
#247 = ORIENTED_EDGE ( 'NONE', *, *, #212, .T. ) ;
#248 = SURFACE_STYLE_FILL_AREA ( #246 ) ;
#249 = VERTEX_POINT ( 'NONE', #157 ) ;
#250 = DIRECTION ( 'NONE',  ( -1.000000000000000000, -2.185478394931412547E-16, 0.000000000000000000 ) ) ;
#251 = CYLINDRICAL_SURFACE ( 'NONE', #183, 0.3124999999999998890 ) ;
#252 = VERTEX_POINT ( 'NONE', #83 ) ;
#253 =( GEOMETRIC_REPRESENTATION_CONTEXT ( 3 ) GLOBAL_UNCERTAINTY_ASSIGNED_CONTEXT ( ( #65 ) ) GLOBAL_UNIT_ASSIGNED_CONTEXT ( ( #303, #106, #132 ) ) REPRESENTATION_CONTEXT ( 'NONE', 'WORKASPACE' ) );
#254 = APPLICATION_PROTOCOL_DEFINITION ( 'draft international standard', 'automotive_design', 1998, #42 ) ;
#255 = DIRECTION ( 'NONE',  ( -1.000000000000000000, 3.129515012021080962E-18, 0.000000000000000000 ) ) ;
#256 = SHAPE_DEFINITION_REPRESENTATION ( #265, #86 ) ;
#257 = FILL_AREA_STYLE ('',( #116 ) ) ;
#258 =( LENGTH_UNIT ( ) NAMED_UNIT ( * ) SI_UNIT ( $, .METRE. ) );
#259 = FACE_OUTER_BOUND ( 'NONE', #96, .T. ) ;
#260 = PRODUCT_DEFINITION_CONTEXT ( 'detailed design', #176, 'design' ) ;
#261 = EDGE_CURVE ( 'NONE', #200, #252, #267, .T. ) ;
#262 = DIRECTION ( 'NONE',  ( -3.129515012021080962E-18, -1.000000000000000000, 0.000000000000000000 ) ) ;
#263 = CIRCLE ( 'NONE', #168, 0.3125000000000000000 ) ;
#264 = SURFACE_STYLE_FILL_AREA ( #30 ) ;
#265 = PRODUCT_DEFINITION_SHAPE ( 'NONE', 'NONE',  #226 ) ;
#266 = AXIS2_PLACEMENT_3D ( 'NONE', #302, #243, #250 ) ;
#267 = CIRCLE ( 'NONE', #206, 0.3124999999999997224 ) ;
#268 = LENGTH_MEASURE_WITH_UNIT ( LENGTH_MEASURE( 0.02539999999999999897 ), #8 );
#269 = VERTEX_POINT ( 'NONE', #14 ) ;
#270 = ADVANCED_FACE ( 'NONE', ( #40 ), #251, .T. ) ;
#271 =( NAMED_UNIT ( * ) SI_UNIT ( $, .STERADIAN. ) SOLID_ANGLE_UNIT ( ) );
#272 = ORIENTED_EDGE ( 'NONE', *, *, #135, .F. ) ;
#273 = CIRCLE ( 'NONE', #293, 0.3125000000000000555 ) ;
#274 = DIRECTION ( 'NONE',  ( 0.000000000000000000, 0.000000000000000000, 1.000000000000000000 ) ) ;
#275 = CONICAL_SURFACE ( 'NONE', #93, 0.04499999999999999833, 0.5235987755983001479 ) ;
#276 = DIRECTION ( 'NONE',  ( -1.000000000000000000, 0.000000000000000000, 0.000000000000000000 ) ) ;
#277 = LINE ( 'NONE', #137, #89 ) ;
#278 = LINE ( 'NONE', #159, #281 ) ;
#279 = ORIENTED_EDGE ( 'NONE', *, *, #91, .F. ) ;
#280 = CLOSED_SHELL ( 'NONE', ( #104, #174, #98, #151 ) ) ;
#281 = VECTOR ( 'NONE', #103, 39.37007874015748143 ) ;
#282 = FILL_AREA_STYLE_COLOUR ( '', #29 ) ;
#283 = SURFACE_STYLE_USAGE ( .BOTH. , #75 ) ;
#284 = EDGE_CURVE ( 'NONE', #252, #82, #219, .T. ) ;
#285 = SURFACE_STYLE_USAGE ( .BOTH. , #25 ) ;
#286 = DIMENSIONAL_EXPONENTS ( 1.000000000000000000, 0.000000000000000000, 0.000000000000000000, 0.000000000000000000, 0.000000000000000000, 0.000000000000000000, 0.000000000000000000 ) ;
#287 = CARTESIAN_POINT ( 'NONE',  ( 1.449978133535231054E-18, 0.4633235910246734091, 0.000000000000000000 ) ) ;
#288 = COLOUR_RGB ( '',1.000000000000000000, 0.000000000000000000, 0.000000000000000000 ) ;
#289 = AXIS2_PLACEMENT_3D ( 'NONE', #112, #274, #16 ) ;
#290 =( NAMED_UNIT ( * ) PLANE_ANGLE_UNIT ( ) SI_UNIT ( $, .RADIAN. ) );
#291 = PRESENTATION_STYLE_ASSIGNMENT (( #55 ) ) ;
#292 = ORIENTED_EDGE ( 'NONE', *, *, #261, .T. ) ;
#293 = AXIS2_PLACEMENT_3D ( 'NONE', #187, #74, #141 ) ;
#294 = STYLED_ITEM ( 'NONE', ( #145 ), #194 ) ;
#295 = ORIENTED_EDGE ( 'NONE', *, *, #52, .F. ) ;
#296 = APPLICATION_PROTOCOL_DEFINITION ( 'draft international standard', 'automotive_design', 1998, #176 ) ;
#297 = DIRECTION ( 'NONE',  ( 1.000000000000000000, 0.000000000000000000, 0.000000000000000000 ) ) ;
#298 = PLANE ( 'NONE',  #186 ) ;
#299 = MANIFOLD_SOLID_BREP ( 'Revolve - Cutting Edge', #280 ) ;
#300 = CLOSED_SHELL ( 'NONE', ( #270, #204, #47, #36 ) ) ;
#301 = UNCERTAINTY_MEASURE_WITH_UNIT (LENGTH_MEASURE( 1.000000000000000082E-05 ), #191, 'distance_accuracy_value', 'NONE');
#302 = CARTESIAN_POINT ( 'NONE',  ( 3.073328992872296367E-16, 0.4633235910246734091, 0.000000000000000000 ) ) ;
#303 =( CONVERSION_BASED_UNIT ( 'INCH', #268 ) LENGTH_UNIT ( ) NAMED_UNIT ( #177 ) );
#304 = CARTESIAN_POINT ( 'NONE',  ( 0.3125000000000000000, 3.000000000000000444, 0.000000000000000000 ) ) ;
#305 = EDGE_LOOP ( 'NONE', ( #203, #241 ) ) ;
#306 = CIRCLE ( 'NONE', #266, 0.3124999999999997224 ) ;
#307 = CARTESIAN_POINT ( 'NONE',  ( -0.04499999999999999833, 2.816563510818972808E-19, 0.000000000000000000 ) ) ;
#308 = MECHANICAL_DESIGN_GEOMETRIC_PRESENTATION_REPRESENTATION (  '', ( #294 ), #253 ) ;
#309 = PRESENTATION_STYLE_ASSIGNMENT (( #285 ) ) ;
ENDSEC;
END-ISO-10303-21;
