ISO-10303-21;
HEADER;
FILE_DESCRIPTION (( 'STEP AP214' ),
    '1' );
FILE_NAME ('00510.STEP',
    '2023-06-22T14:09:58',
    ( '' ),
    ( '' ),
    'SwSTEP 2.0',
    'SolidWorks 2023',
    '' );
FILE_SCHEMA (( 'AUTOMOTIVE_DESIGN' ));
ENDSEC;

DATA;
#1 = DIRECTION ( 'NONE',  ( -1.000000000000000000, 0.000000000000000000, 0.000000000000000000 ) ) ;
#2 = PLANE ( 'NONE',  #144 ) ;
#3 = ADVANCED_FACE ( 'NONE', ( #221 ), #105, .T. ) ;
#4 = COLOUR_RGB ( '',1.000000000000000000, 0.000000000000000000, 0.000000000000000000 ) ;
#5 =( GEOMETRIC_REPRESENTATION_CONTEXT ( 3 ) GLOBAL_UNCERTAINTY_ASSIGNED_CONTEXT ( ( #122 ) ) GLOBAL_UNIT_ASSIGNED_CONTEXT ( ( #185, #242, #12 ) ) REPRESENTATION_CONTEXT ( 'NONE', 'WORKASPACE' ) );
#6 = DIRECTION ( 'NONE',  ( -1.000000000000000000, 0.000000000000000000, 0.000000000000000000 ) ) ;
#7 = ORIENTED_EDGE ( 'NONE', *, *, #180, .F. ) ;
#8 = FILL_AREA_STYLE_COLOUR ( '', #29 ) ;
#9 = SURFACE_STYLE_FILL_AREA ( #100 ) ;
#10 = AXIS2_PLACEMENT_3D ( 'NONE', #226, #160, #61 ) ;
#11 = AXIS2_PLACEMENT_3D ( 'NONE', #123, #213, #239 ) ;
#12 =( NAMED_UNIT ( * ) SI_UNIT ( $, .STERADIAN. ) SOLID_ANGLE_UNIT ( ) );
#13 = SURFACE_STYLE_USAGE ( .BOTH. , #294 ) ;
#14 = EDGE_LOOP ( 'NONE', ( #127, #272, #288, #182 ) ) ;
#15 = LENGTH_MEASURE_WITH_UNIT ( LENGTH_MEASURE( 0.02539999999999999897 ), #81 );
#16 = ORIENTED_EDGE ( 'NONE', *, *, #159, .F. ) ;
#17 = LENGTH_MEASURE_WITH_UNIT ( LENGTH_MEASURE( 0.02539999999999999897 ), #42 );
#18 = PRESENTATION_LAYER_ASSIGNMENT (  '', '', ( #109 ) ) ;
#19 = AXIS2_PLACEMENT_3D ( 'NONE', #231, #270, #107 ) ;
#20 = DIMENSIONAL_EXPONENTS ( 1.000000000000000000, 0.000000000000000000, 0.000000000000000000, 0.000000000000000000, 0.000000000000000000, 0.000000000000000000, 0.000000000000000000 ) ;
#21 =( NAMED_UNIT ( * ) SI_UNIT ( $, .STERADIAN. ) SOLID_ANGLE_UNIT ( ) );
#22 = AXIS2_PLACEMENT_3D ( 'NONE', #168, #31, #258 ) ;
#23 = DIRECTION ( 'NONE',  ( -0.000000000000000000, -1.000000000000000000, -0.000000000000000000 ) ) ;
#24 = FILL_AREA_STYLE_COLOUR ( '', #90 ) ;
#25 =( CONVERSION_BASED_UNIT ( 'INCH', #95 ) LENGTH_UNIT ( ) NAMED_UNIT ( #203 ) );
#26 = LINE ( 'NONE', #170, #256 ) ;
#27 = FILL_AREA_STYLE ('',( #24 ) ) ;
#28 = CARTESIAN_POINT ( 'NONE',  ( 3.061616997868383018E-17, 0.000000000000000000, 0.2500000000000000000 ) ) ;
#29 = COLOUR_RGB ( '',1.000000000000000000, 0.000000000000000000, 0.000000000000000000 ) ;
#30 = PRESENTATION_LAYER_ASSIGNMENT (  '', '', ( #54 ) ) ;
#31 = DIRECTION ( 'NONE',  ( -4.898587196589413075E-17, 1.000000000000000000, -0.000000000000000000 ) ) ;
#32 = DIRECTION ( 'NONE',  ( -0.000000000000000000, -1.000000000000000000, -0.000000000000000000 ) ) ;
#33 = CARTESIAN_POINT ( 'NONE',  ( 0.000000000000000000, 2.500000000000000000, -0.2500000000000000000 ) ) ;
#34 = ADVANCED_FACE ( 'NONE', ( #130 ), #60, .T. ) ;
#35 = SURFACE_STYLE_USAGE ( .BOTH. , #241 ) ;
#36 = AXIS2_PLACEMENT_3D ( 'NONE', #103, #199, #292 ) ;
#37 =( GEOMETRIC_REPRESENTATION_CONTEXT ( 3 ) GLOBAL_UNCERTAINTY_ASSIGNED_CONTEXT ( ( #79 ) ) GLOBAL_UNIT_ASSIGNED_CONTEXT ( ( #40, #274, #296 ) ) REPRESENTATION_CONTEXT ( 'NONE', 'WORKASPACE' ) );
#38 = CARTESIAN_POINT ( 'NONE',  ( 0.000000000000000000, 0.000000000000000000, -0.2500000000000000000 ) ) ;
#39 = VERTEX_POINT ( 'NONE', #260 ) ;
#40 =( CONVERSION_BASED_UNIT ( 'INCH', #244 ) LENGTH_UNIT ( ) NAMED_UNIT ( #137 ) );
#41 = ORIENTED_EDGE ( 'NONE', *, *, #80, .T. ) ;
#42 =( LENGTH_UNIT ( ) NAMED_UNIT ( * ) SI_UNIT ( $, .METRE. ) );
#43 = AXIS2_PLACEMENT_3D ( 'NONE', #111, #23, #69 ) ;
#44 = LINE ( 'NONE', #38, #146 ) ;
#45 =( CONVERSION_BASED_UNIT ( 'INCH', #15 ) LENGTH_UNIT ( ) NAMED_UNIT ( #20 ) );
#46 = ORIENTED_EDGE ( 'NONE', *, *, #114, .T. ) ;
#47 = DIRECTION ( 'NONE',  ( -4.898587196589412459E-17, 1.000000000000000000, -0.000000000000000000 ) ) ;
#48 = STYLED_ITEM ( 'NONE', ( #271 ), #120 ) ;
#49 = SURFACE_STYLE_FILL_AREA ( #93 ) ;
#50 = UNCERTAINTY_MEASURE_WITH_UNIT (LENGTH_MEASURE( 1.000000000000000082E-05 ), #108, 'distance_accuracy_value', 'NONE');
#51 =( NAMED_UNIT ( * ) PLANE_ANGLE_UNIT ( ) SI_UNIT ( $, .RADIAN. ) );
#52 =( NAMED_UNIT ( * ) PLANE_ANGLE_UNIT ( ) SI_UNIT ( $, .RADIAN. ) );
#53 =( GEOMETRIC_REPRESENTATION_CONTEXT ( 3 ) GLOBAL_UNCERTAINTY_ASSIGNED_CONTEXT ( ( #237 ) ) GLOBAL_UNIT_ASSIGNED_CONTEXT ( ( #112, #52, #304 ) ) REPRESENTATION_CONTEXT ( 'NONE', 'WORKASPACE' ) );
#54 = STYLED_ITEM ( 'NONE', ( #267 ), #279 ) ;
#55 = PRESENTATION_STYLE_ASSIGNMENT (( #87 ) ) ;
#56 = DIRECTION ( 'NONE',  ( -4.898587196589413075E-17, 1.000000000000000000, -0.000000000000000000 ) ) ;
#57 = LINE ( 'NONE', #309, #143 ) ;
#58 = STYLED_ITEM ( 'NONE', ( #124 ), #101 ) ;
#59 = CARTESIAN_POINT ( 'NONE',  ( 3.061616997868383018E-17, 2.500000000000000000, 0.2500000000000000000 ) ) ;
#60 = CYLINDRICAL_SURFACE ( 'NONE', #207, 0.2500000000000000000 ) ;
#61 = DIRECTION ( 'NONE',  ( 0.000000000000000000, -0.000000000000000000, 1.000000000000000000 ) ) ;
#62 = VERTEX_POINT ( 'NONE', #73 ) ;
#63 = MECHANICAL_DESIGN_GEOMETRIC_PRESENTATION_REPRESENTATION (  '', ( #68 ), #131 ) ;
#64 = MECHANICAL_DESIGN_GEOMETRIC_PRESENTATION_REPRESENTATION (  '', ( #54 ), #5 ) ;
#65 = APPLICATION_PROTOCOL_DEFINITION ( 'draft international standard', 'automotive_design', 1998, #92 ) ;
#66 = VERTEX_POINT ( 'NONE', #28 ) ;
#67 = PLANE ( 'NONE',  #10 ) ;
#68 = STYLED_ITEM ( 'NONE', ( #299 ), #169 ) ;
#69 = DIRECTION ( 'NONE',  ( 0.000000000000000000, 0.000000000000000000, -1.000000000000000000 ) ) ;
#70 =( CONVERSION_BASED_UNIT ( 'INCH', #280 ) LENGTH_UNIT ( ) NAMED_UNIT ( #209 ) );
#71 = AXIS2_PLACEMENT_3D ( 'NONE', #84, #179, #201 ) ;
#72 = CIRCLE ( 'NONE', #126, 0.2500000000000001110 ) ;
#73 = CARTESIAN_POINT ( 'NONE',  ( -0.2500000000000002776, 5.000000000000000000, 0.000000000000000000 ) ) ;
#74 = DIRECTION ( 'NONE',  ( 1.000000000000000000, 4.898587196589412459E-17, 0.000000000000000000 ) ) ;
#75 = PLANE ( 'NONE',  #184 ) ;
#76 = CLOSED_SHELL ( 'NONE', ( #138, #300, #3, #110 ) ) ;
#77 = UNCERTAINTY_MEASURE_WITH_UNIT (LENGTH_MEASURE( 1.000000000000000082E-05 ), #70, 'distance_accuracy_value', 'NONE');
#78 = PRESENTATION_LAYER_ASSIGNMENT (  '', '', ( #211 ) ) ;
#79 = UNCERTAINTY_MEASURE_WITH_UNIT (LENGTH_MEASURE( 1.000000000000000082E-05 ), #40, 'distance_accuracy_value', 'NONE');
#80 = EDGE_CURVE ( 'NONE', #230, #62, #251, .T. ) ;
#81 =( LENGTH_UNIT ( ) NAMED_UNIT ( * ) SI_UNIT ( $, .METRE. ) );
#82 = AXIS2_PLACEMENT_3D ( 'NONE', #284, #238, #74 ) ;
#83 = CARTESIAN_POINT ( 'NONE',  ( -1.224646799147353207E-16, 5.000000000000000000, 0.000000000000000000 ) ) ;
#84 = CARTESIAN_POINT ( 'NONE',  ( 0.000000000000000000, 0.000000000000000000, 0.000000000000000000 ) ) ;
#85 = ORIENTED_EDGE ( 'NONE', *, *, #228, .T. ) ;
#86 = EDGE_CURVE ( 'NONE', #147, #230, #57, .T. ) ;
#87 = SURFACE_STYLE_USAGE ( .BOTH. , #295 ) ;
#88 = ORIENTED_EDGE ( 'NONE', *, *, #263, .F. ) ;
#89 = SURFACE_SIDE_STYLE ('',( #49 ) ) ;
#90 = COLOUR_RGB ( '',0.7921568627450980005, 0.8196078431372548767, 0.9333333333333333481 ) ;
#91 =( NAMED_UNIT ( * ) SI_UNIT ( $, .STERADIAN. ) SOLID_ANGLE_UNIT ( ) );
#92 = APPLICATION_CONTEXT ( 'automotive_design' ) ;
#93 = FILL_AREA_STYLE ('',( #302 ) ) ;
#94 = PRESENTATION_STYLE_ASSIGNMENT (( #161 ) ) ;
#95 = LENGTH_MEASURE_WITH_UNIT ( LENGTH_MEASURE( 0.02539999999999999897 ), #214 );
#96 =( GEOMETRIC_REPRESENTATION_CONTEXT ( 3 ) GLOBAL_UNCERTAINTY_ASSIGNED_CONTEXT ( ( #286 ) ) GLOBAL_UNIT_ASSIGNED_CONTEXT ( ( #25, #116, #119 ) ) REPRESENTATION_CONTEXT ( 'NONE', 'WORKASPACE' ) );
#97 = DIRECTION ( 'NONE',  ( 0.000000000000000000, 0.000000000000000000, -1.000000000000000000 ) ) ;
#98 = DIRECTION ( 'NONE',  ( 0.000000000000000000, -1.000000000000000000, -0.000000000000000000 ) ) ;
#99 = CIRCLE ( 'NONE', #71, 0.2500000000000000000 ) ;
#100 = FILL_AREA_STYLE ('',( #224 ) ) ;
#101 = ADVANCED_FACE ( 'NONE', ( #240 ), #75, .T. ) ;
#102 = EDGE_LOOP ( 'NONE', ( #264, #41 ) ) ;
#103 = CARTESIAN_POINT ( 'NONE',  ( 1.516480271171051896E-32, 2.500000000000000000, 0.000000000000000000 ) ) ;
#104 = CARTESIAN_POINT ( 'NONE',  ( -0.2500000000000002220, 5.000000000000000000, 0.000000000000000000 ) ) ;
#105 = CYLINDRICAL_SURFACE ( 'NONE', #145, 0.2500000000000000555 ) ;
#106 = EDGE_LOOP ( 'NONE', ( #195, #290 ) ) ;
#107 = DIRECTION ( 'NONE',  ( 1.000000000000000000, 0.000000000000000000, 0.000000000000000000 ) ) ;
#108 =( CONVERSION_BASED_UNIT ( 'INCH', #17 ) LENGTH_UNIT ( ) NAMED_UNIT ( #255 ) );
#109 = STYLED_ITEM ( 'NONE', ( #55 ), #34 ) ;
#110 = ADVANCED_FACE ( 'NONE', ( #117 ), #259, .F. ) ;
#111 = CARTESIAN_POINT ( 'NONE',  ( 0.000000000000000000, 0.000000000000000000, 0.000000000000000000 ) ) ;
#112 =( CONVERSION_BASED_UNIT ( 'INCH', #163 ) LENGTH_UNIT ( ) NAMED_UNIT ( #219 ) );
#113 = MECHANICAL_DESIGN_GEOMETRIC_PRESENTATION_REPRESENTATION (  '', ( #58 ), #53 ) ;
#114 = EDGE_CURVE ( 'NONE', #202, #66, #26, .T. ) ;
#115 = CARTESIAN_POINT ( 'NONE',  ( 0.000000000000000000, 0.000000000000000000, 0.000000000000000000 ) ) ;
#116 =( NAMED_UNIT ( * ) PLANE_ANGLE_UNIT ( ) SI_UNIT ( $, .RADIAN. ) );
#117 = FACE_OUTER_BOUND ( 'NONE', #102, .T. ) ;
#118 = PRESENTATION_LAYER_ASSIGNMENT (  '', '', ( #48 ) ) ;
#119 =( NAMED_UNIT ( * ) SI_UNIT ( $, .STERADIAN. ) SOLID_ANGLE_UNIT ( ) );
#120 = ADVANCED_FACE ( 'NONE', ( #155 ), #67, .T. ) ;
#121 = FILL_AREA_STYLE_COLOUR ( '', #234 ) ;
#122 = UNCERTAINTY_MEASURE_WITH_UNIT (LENGTH_MEASURE( 1.000000000000000082E-05 ), #185, 'distance_accuracy_value', 'NONE');
#123 = CARTESIAN_POINT ( 'NONE',  ( 0.000000000000000000, 0.000000000000000000, 0.000000000000000000 ) ) ;
#124 = PRESENTATION_STYLE_ASSIGNMENT (( #35 ) ) ;
#125 = DIRECTION ( 'NONE',  ( 0.000000000000000000, 0.000000000000000000, -1.000000000000000000 ) ) ;
#126 = AXIS2_PLACEMENT_3D ( 'NONE', #287, #56, #261 ) ;
#127 = ORIENTED_EDGE ( 'NONE', *, *, #142, .T. ) ;
#128 = ORIENTED_EDGE ( 'NONE', *, *, #114, .F. ) ;
#129 = DIRECTION ( 'NONE',  ( -4.898587196589413075E-17, 1.000000000000000000, -0.000000000000000000 ) ) ;
#130 = FACE_OUTER_BOUND ( 'NONE', #254, .T. ) ;
#131 =( GEOMETRIC_REPRESENTATION_CONTEXT ( 3 ) GLOBAL_UNCERTAINTY_ASSIGNED_CONTEXT ( ( #50 ) ) GLOBAL_UNIT_ASSIGNED_CONTEXT ( ( #108, #51, #91 ) ) REPRESENTATION_CONTEXT ( 'NONE', 'WORKASPACE' ) );
#132 =( LENGTH_UNIT ( ) NAMED_UNIT ( * ) SI_UNIT ( $, .METRE. ) );
#133 = DIRECTION ( 'NONE',  ( -0.000000000000000000, -1.000000000000000000, -0.000000000000000000 ) ) ;
#134 = FACE_OUTER_BOUND ( 'NONE', #293, .T. ) ;
#135 = CARTESIAN_POINT ( 'NONE',  ( -1.224646799147353207E-16, 5.000000000000000000, 0.000000000000000000 ) ) ;
#136 = EDGE_CURVE ( 'NONE', #154, #62, #148, .T. ) ;
#137 = DIMENSIONAL_EXPONENTS ( 1.000000000000000000, 0.000000000000000000, 0.000000000000000000, 0.000000000000000000, 0.000000000000000000, 0.000000000000000000, 0.000000000000000000 ) ;
#138 = ADVANCED_FACE ( 'NONE', ( #265 ), #245, .T. ) ;
#139 = AXIS2_PLACEMENT_3D ( 'NONE', #171, #236, #1 ) ;
#140 = DIRECTION ( 'NONE',  ( 0.000000000000000000, 0.000000000000000000, -1.000000000000000000 ) ) ;
#141 = DIRECTION ( 'NONE',  ( -4.898587196589412459E-17, 1.000000000000000000, -0.000000000000000000 ) ) ;
#142 = EDGE_CURVE ( 'NONE', #154, #147, #198, .T. ) ;
#143 = VECTOR ( 'NONE', #141, 39.37007874015748143 ) ;
#144 = AXIS2_PLACEMENT_3D ( 'NONE', #196, #183, #175 ) ;
#145 = AXIS2_PLACEMENT_3D ( 'NONE', #83, #266, #6 ) ;
#146 = VECTOR ( 'NONE', #133, 39.37007874015748143 ) ;
#147 = VERTEX_POINT ( 'NONE', #252 ) ;
#148 = LINE ( 'NONE', #104, #298 ) ;
#149 = SURFACE_STYLE_USAGE ( .BOTH. , #268 ) ;
#150 = ORIENTED_EDGE ( 'NONE', *, *, #212, .F. ) ;
#151 = CLOSED_SHELL ( 'NONE', ( #169, #120, #34, #101 ) ) ;
#152 =( NAMED_UNIT ( * ) PLANE_ANGLE_UNIT ( ) SI_UNIT ( $, .RADIAN. ) );
#153 = MECHANICAL_DESIGN_GEOMETRIC_PRESENTATION_REPRESENTATION (  '', ( #211 ), #193 ) ;
#154 = VERTEX_POINT ( 'NONE', #233 ) ;
#155 = FACE_OUTER_BOUND ( 'NONE', #205, .T. ) ;
#156 = SHAPE_DEFINITION_REPRESENTATION ( #247, #194 ) ;
#157 = SURFACE_STYLE_FILL_AREA ( #289 ) ;
#158 = ORIENTED_EDGE ( 'NONE', *, *, #303, .F. ) ;
#159 = EDGE_CURVE ( 'NONE', #66, #39, #99, .T. ) ;
#160 = DIRECTION ( 'NONE',  ( 0.000000000000000000, 1.000000000000000000, 0.000000000000000000 ) ) ;
#161 = SURFACE_STYLE_USAGE ( .BOTH. , #89 ) ;
#162 = MECHANICAL_DESIGN_GEOMETRIC_PRESENTATION_REPRESENTATION (  '', ( #48 ), #188 ) ;
#163 = LENGTH_MEASURE_WITH_UNIT ( LENGTH_MEASURE( 0.02539999999999999897 ), #281 );
#164 = PRODUCT_DEFINITION_CONTEXT ( 'detailed design', #92, 'design' ) ;
#165 = DIRECTION ( 'NONE',  ( -0.000000000000000000, -1.000000000000000000, -0.000000000000000000 ) ) ;
#166 = PRESENTATION_LAYER_ASSIGNMENT (  '', '', ( #58 ) ) ;
#167 = CIRCLE ( 'NONE', #139, 0.2500000000000000000 ) ;
#168 = CARTESIAN_POINT ( 'NONE',  ( -1.224646799147353207E-16, 5.000000000000000000, 0.000000000000000000 ) ) ;
#169 = ADVANCED_FACE ( 'NONE', ( #134 ), #204, .T. ) ;
#170 = CARTESIAN_POINT ( 'NONE',  ( 3.061616997868383018E-17, 0.000000000000000000, 0.2500000000000000000 ) ) ;
#171 = CARTESIAN_POINT ( 'NONE',  ( 1.516480271171051896E-32, 2.500000000000000000, 0.000000000000000000 ) ) ;
#172 = UNCERTAINTY_MEASURE_WITH_UNIT (LENGTH_MEASURE( 1.000000000000000082E-05 ), #45, 'distance_accuracy_value', 'NONE');
#173 = COLOUR_RGB ( '',0.7921568627450980005, 0.8196078431372548767, 0.9333333333333333481 ) ;
#174 = EDGE_LOOP ( 'NONE', ( #181, #85, #269, #276 ) ) ;
#175 = DIRECTION ( 'NONE',  ( -1.000000000000000000, -4.898587196589412459E-17, 0.000000000000000000 ) ) ;
#176 = MECHANICAL_DESIGN_GEOMETRIC_PRESENTATION_REPRESENTATION (  '', ( #109 ), #96 ) ;
#177 = ORIENTED_EDGE ( 'NONE', *, *, #212, .T. ) ;
#178 = MANIFOLD_SOLID_BREP ( 'Revolve - Tool Body (Straight Shanked)', #76 ) ;
#179 = DIRECTION ( 'NONE',  ( -0.000000000000000000, -1.000000000000000000, -0.000000000000000000 ) ) ;
#180 = EDGE_CURVE ( 'NONE', #220, #202, #307, .T. ) ;
#181 = ORIENTED_EDGE ( 'NONE', *, *, #86, .F. ) ;
#182 = ORIENTED_EDGE ( 'NONE', *, *, #136, .F. ) ;
#183 = DIRECTION ( 'NONE',  ( -4.898587196589412459E-17, 1.000000000000000000, 0.000000000000000000 ) ) ;
#184 = AXIS2_PLACEMENT_3D ( 'NONE', #308, #98, #140 ) ;
#185 =( CONVERSION_BASED_UNIT ( 'INCH', #223 ) LENGTH_UNIT ( ) NAMED_UNIT ( #257 ) );
#186 =( NAMED_UNIT ( * ) SI_UNIT ( $, .STERADIAN. ) SOLID_ANGLE_UNIT ( ) );
#187 = DIRECTION ( 'NONE',  ( -0.000000000000000000, -1.000000000000000000, -0.000000000000000000 ) ) ;
#188 =( GEOMETRIC_REPRESENTATION_CONTEXT ( 3 ) GLOBAL_UNCERTAINTY_ASSIGNED_CONTEXT ( ( #172 ) ) GLOBAL_UNIT_ASSIGNED_CONTEXT ( ( #45, #152, #186 ) ) REPRESENTATION_CONTEXT ( 'NONE', 'WORKASPACE' ) );
#189 = ORIENTED_EDGE ( 'NONE', *, *, #303, .T. ) ;
#190 = CARTESIAN_POINT ( 'NONE',  ( 0.2500000000000000555, 5.000000000000000000, 3.061616997868384251E-17 ) ) ;
#191 = SURFACE_STYLE_FILL_AREA ( #215 ) ;
#192 = EDGE_CURVE ( 'NONE', #62, #230, #72, .T. ) ;
#193 =( GEOMETRIC_REPRESENTATION_CONTEXT ( 3 ) GLOBAL_UNCERTAINTY_ASSIGNED_CONTEXT ( ( #77 ) ) GLOBAL_UNIT_ASSIGNED_CONTEXT ( ( #70, #301, #21 ) ) REPRESENTATION_CONTEXT ( 'NONE', 'WORKASPACE' ) );
#194 = ADVANCED_BREP_SHAPE_REPRESENTATION ( '00510', ( #279, #178, #19 ), #37 ) ;
#195 = ORIENTED_EDGE ( 'NONE', *, *, #142, .F. ) ;
#196 = CARTESIAN_POINT ( 'NONE',  ( 2.999519565323715729E-34, 2.500000000000000000, 0.000000000000000000 ) ) ;
#197 = PRODUCT_RELATED_PRODUCT_CATEGORY ( 'part', '', ( #222 ) ) ;
#198 = CIRCLE ( 'NONE', #36, 0.2500000000000000000 ) ;
#199 = DIRECTION ( 'NONE',  ( -4.898587196589413075E-17, 1.000000000000000000, -0.000000000000000000 ) ) ;
#200 = ORIENTED_EDGE ( 'NONE', *, *, #263, .T. ) ;
#201 = DIRECTION ( 'NONE',  ( 0.000000000000000000, 0.000000000000000000, -1.000000000000000000 ) ) ;
#202 = VERTEX_POINT ( 'NONE', #59 ) ;
#203 = DIMENSIONAL_EXPONENTS ( 1.000000000000000000, 0.000000000000000000, 0.000000000000000000, 0.000000000000000000, 0.000000000000000000, 0.000000000000000000, 0.000000000000000000 ) ;
#204 = CYLINDRICAL_SURFACE ( 'NONE', #43, 0.2500000000000000000 ) ;
#205 = EDGE_LOOP ( 'NONE', ( #7, #150 ) ) ;
#206 = PRODUCT_CONTEXT ( 'NONE', #277, 'mechanical' ) ;
#207 = AXIS2_PLACEMENT_3D ( 'NONE', #115, #187, #97 ) ;
#208 = CIRCLE ( 'NONE', #291, 0.2500000000000000000 ) ;
#209 = DIMENSIONAL_EXPONENTS ( 1.000000000000000000, 0.000000000000000000, 0.000000000000000000, 0.000000000000000000, 0.000000000000000000, 0.000000000000000000, 0.000000000000000000 ) ;
#210 = CARTESIAN_POINT ( 'NONE',  ( 0.000000000000000000, 2.500000000000000000, 0.000000000000000000 ) ) ;
#211 = STYLED_ITEM ( 'NONE', ( #94 ), #178 ) ;
#212 = EDGE_CURVE ( 'NONE', #202, #220, #208, .T. ) ;
#213 = DIRECTION ( 'NONE',  ( -0.000000000000000000, -1.000000000000000000, -0.000000000000000000 ) ) ;
#214 =( LENGTH_UNIT ( ) NAMED_UNIT ( * ) SI_UNIT ( $, .METRE. ) );
#215 = FILL_AREA_STYLE ('',( #121 ) ) ;
#216 = PRESENTATION_LAYER_ASSIGNMENT (  '', '', ( #68 ) ) ;
#217 = PRODUCT_DEFINITION_FORMATION_WITH_SPECIFIED_SOURCE ( 'ANY', '', #222, .NOT_KNOWN. ) ;
#218 = SURFACE_SIDE_STYLE ('',( #306 ) ) ;
#219 = DIMENSIONAL_EXPONENTS ( 1.000000000000000000, 0.000000000000000000, 0.000000000000000000, 0.000000000000000000, 0.000000000000000000, 0.000000000000000000, 0.000000000000000000 ) ;
#220 = VERTEX_POINT ( 'NONE', #33 ) ;
#221 = FACE_OUTER_BOUND ( 'NONE', #174, .T. ) ;
#222 = PRODUCT ( '00510', '00510', '', ( #206 ) ) ;
#223 = LENGTH_MEASURE_WITH_UNIT ( LENGTH_MEASURE( 0.02539999999999999897 ), #248 );
#224 = FILL_AREA_STYLE_COLOUR ( '', #4 ) ;
#225 = FACE_OUTER_BOUND ( 'NONE', #106, .T. ) ;
#226 = CARTESIAN_POINT ( 'NONE',  ( 0.000000000000000000, 2.500000000000000000, 0.000000000000000000 ) ) ;
#227 = APPLICATION_PROTOCOL_DEFINITION ( 'draft international standard', 'automotive_design', 1998, #277 ) ;
#228 = EDGE_CURVE ( 'NONE', #147, #154, #167, .T. ) ;
#229 = FILL_AREA_STYLE_COLOUR ( '', #282 ) ;
#230 = VERTEX_POINT ( 'NONE', #190 ) ;
#231 = CARTESIAN_POINT ( 'NONE',  ( 0.000000000000000000, 0.000000000000000000, 0.000000000000000000 ) ) ;
#232 = FILL_AREA_STYLE ('',( #229 ) ) ;
#233 = CARTESIAN_POINT ( 'NONE',  ( -0.2500000000000000000, 2.500000000000000000, 0.000000000000000000 ) ) ;
#234 = COLOUR_RGB ( '',1.000000000000000000, 0.000000000000000000, 0.000000000000000000 ) ;
#235 = CIRCLE ( 'NONE', #11, 0.2500000000000000000 ) ;
#236 = DIRECTION ( 'NONE',  ( -4.898587196589413075E-17, 1.000000000000000000, -0.000000000000000000 ) ) ;
#237 = UNCERTAINTY_MEASURE_WITH_UNIT (LENGTH_MEASURE( 1.000000000000000082E-05 ), #112, 'distance_accuracy_value', 'NONE');
#238 = DIRECTION ( 'NONE',  ( 4.898587196589412459E-17, -1.000000000000000000, 0.000000000000000000 ) ) ;
#239 = DIRECTION ( 'NONE',  ( 0.000000000000000000, 0.000000000000000000, -1.000000000000000000 ) ) ;
#240 = FACE_OUTER_BOUND ( 'NONE', #243, .T. ) ;
#241 = SURFACE_SIDE_STYLE ('',( #191 ) ) ;
#242 =( NAMED_UNIT ( * ) PLANE_ANGLE_UNIT ( ) SI_UNIT ( $, .RADIAN. ) );
#243 = EDGE_LOOP ( 'NONE', ( #200, #249 ) ) ;
#244 = LENGTH_MEASURE_WITH_UNIT ( LENGTH_MEASURE( 0.02539999999999999897 ), #132 );
#245 = CYLINDRICAL_SURFACE ( 'NONE', #273, 0.2500000000000000555 ) ;
#246 = ORIENTED_EDGE ( 'NONE', *, *, #180, .T. ) ;
#247 = PRODUCT_DEFINITION_SHAPE ( 'NONE', 'NONE',  #250 ) ;
#248 =( LENGTH_UNIT ( ) NAMED_UNIT ( * ) SI_UNIT ( $, .METRE. ) );
#249 = ORIENTED_EDGE ( 'NONE', *, *, #159, .T. ) ;
#250 = PRODUCT_DEFINITION ( 'UNKNOWN', '', #217, #164 ) ;
#251 = CIRCLE ( 'NONE', #22, 0.2500000000000001110 ) ;
#252 = CARTESIAN_POINT ( 'NONE',  ( 0.2500000000000000555, 2.500000000000000000, 3.061616997868384251E-17 ) ) ;
#253 = DIRECTION ( 'NONE',  ( -1.000000000000000000, 0.000000000000000000, 0.000000000000000000 ) ) ;
#254 = EDGE_LOOP ( 'NONE', ( #128, #177, #189, #16 ) ) ;
#255 = DIMENSIONAL_EXPONENTS ( 1.000000000000000000, 0.000000000000000000, 0.000000000000000000, 0.000000000000000000, 0.000000000000000000, 0.000000000000000000, 0.000000000000000000 ) ;
#256 = VECTOR ( 'NONE', #32, 39.37007874015748143 ) ;
#257 = DIMENSIONAL_EXPONENTS ( 1.000000000000000000, 0.000000000000000000, 0.000000000000000000, 0.000000000000000000, 0.000000000000000000, 0.000000000000000000, 0.000000000000000000 ) ;
#258 = DIRECTION ( 'NONE',  ( -1.000000000000000000, 0.000000000000000000, 0.000000000000000000 ) ) ;
#259 = PLANE ( 'NONE',  #82 ) ;
#260 = CARTESIAN_POINT ( 'NONE',  ( 0.000000000000000000, 0.000000000000000000, -0.2500000000000000000 ) ) ;
#261 = DIRECTION ( 'NONE',  ( -1.000000000000000000, 0.000000000000000000, 0.000000000000000000 ) ) ;
#262 = DIRECTION ( 'NONE',  ( -0.000000000000000000, -1.000000000000000000, -0.000000000000000000 ) ) ;
#263 = EDGE_CURVE ( 'NONE', #39, #66, #235, .T. ) ;
#264 = ORIENTED_EDGE ( 'NONE', *, *, #192, .T. ) ;
#265 = FACE_OUTER_BOUND ( 'NONE', #14, .T. ) ;
#266 = DIRECTION ( 'NONE',  ( -4.898587196589413075E-17, 1.000000000000000000, -0.000000000000000000 ) ) ;
#267 = PRESENTATION_STYLE_ASSIGNMENT (( #283 ) ) ;
#268 = SURFACE_SIDE_STYLE ('',( #297 ) ) ;
#269 = ORIENTED_EDGE ( 'NONE', *, *, #136, .T. ) ;
#270 = DIRECTION ( 'NONE',  ( 0.000000000000000000, 0.000000000000000000, 1.000000000000000000 ) ) ;
#271 = PRESENTATION_STYLE_ASSIGNMENT (( #13 ) ) ;
#272 = ORIENTED_EDGE ( 'NONE', *, *, #86, .T. ) ;
#273 = AXIS2_PLACEMENT_3D ( 'NONE', #135, #129, #253 ) ;
#274 =( NAMED_UNIT ( * ) PLANE_ANGLE_UNIT ( ) SI_UNIT ( $, .RADIAN. ) );
#275 = AXIS2_PLACEMENT_3D ( 'NONE', #210, #165, #305 ) ;
#276 = ORIENTED_EDGE ( 'NONE', *, *, #80, .F. ) ;
#277 = APPLICATION_CONTEXT ( 'automotive_design' ) ;
#278 =( LENGTH_UNIT ( ) NAMED_UNIT ( * ) SI_UNIT ( $, .METRE. ) );
#279 = MANIFOLD_SOLID_BREP ( 'Revolve - Cutting Edge', #151 ) ;
#280 = LENGTH_MEASURE_WITH_UNIT ( LENGTH_MEASURE( 0.02539999999999999897 ), #278 );
#281 =( LENGTH_UNIT ( ) NAMED_UNIT ( * ) SI_UNIT ( $, .METRE. ) );
#282 = COLOUR_RGB ( '',1.000000000000000000, 0.000000000000000000, 0.000000000000000000 ) ;
#283 = SURFACE_STYLE_USAGE ( .BOTH. , #218 ) ;
#284 = CARTESIAN_POINT ( 'NONE',  ( 0.2500000000000000000, 5.000000000000000000, 0.000000000000000000 ) ) ;
#285 = CARTESIAN_POINT ( 'NONE',  ( 0.000000000000000000, 2.500000000000000000, 0.000000000000000000 ) ) ;
#286 = UNCERTAINTY_MEASURE_WITH_UNIT (LENGTH_MEASURE( 1.000000000000000082E-05 ), #25, 'distance_accuracy_value', 'NONE');
#287 = CARTESIAN_POINT ( 'NONE',  ( -1.224646799147353207E-16, 5.000000000000000000, 0.000000000000000000 ) ) ;
#288 = ORIENTED_EDGE ( 'NONE', *, *, #192, .F. ) ;
#289 = FILL_AREA_STYLE ('',( #8 ) ) ;
#290 = ORIENTED_EDGE ( 'NONE', *, *, #228, .F. ) ;
#291 = AXIS2_PLACEMENT_3D ( 'NONE', #285, #262, #125 ) ;
#292 = DIRECTION ( 'NONE',  ( -1.000000000000000000, 0.000000000000000000, 0.000000000000000000 ) ) ;
#293 = EDGE_LOOP ( 'NONE', ( #246, #46, #88, #158 ) ) ;
#294 = SURFACE_SIDE_STYLE ('',( #157 ) ) ;
#295 = SURFACE_SIDE_STYLE ('',( #9 ) ) ;
#296 =( NAMED_UNIT ( * ) SI_UNIT ( $, .STERADIAN. ) SOLID_ANGLE_UNIT ( ) );
#297 = SURFACE_STYLE_FILL_AREA ( #232 ) ;
#298 = VECTOR ( 'NONE', #47, 39.37007874015748143 ) ;
#299 = PRESENTATION_STYLE_ASSIGNMENT (( #149 ) ) ;
#300 = ADVANCED_FACE ( 'NONE', ( #225 ), #2, .F. ) ;
#301 =( NAMED_UNIT ( * ) PLANE_ANGLE_UNIT ( ) SI_UNIT ( $, .RADIAN. ) );
#302 = FILL_AREA_STYLE_COLOUR ( '', #173 ) ;
#303 = EDGE_CURVE ( 'NONE', #220, #39, #44, .T. ) ;
#304 =( NAMED_UNIT ( * ) SI_UNIT ( $, .STERADIAN. ) SOLID_ANGLE_UNIT ( ) );
#305 = DIRECTION ( 'NONE',  ( 0.000000000000000000, 0.000000000000000000, -1.000000000000000000 ) ) ;
#306 = SURFACE_STYLE_FILL_AREA ( #27 ) ;
#307 = CIRCLE ( 'NONE', #275, 0.2500000000000000000 ) ;
#308 = CARTESIAN_POINT ( 'NONE',  ( 0.000000000000000000, 0.000000000000000000, 0.000000000000000000 ) ) ;
#309 = CARTESIAN_POINT ( 'NONE',  ( 0.2499999999999999167, 5.000000000000000000, 3.061616997868383634E-17 ) ) ;
ENDSEC;
END-ISO-10303-21;
