ISO-10303-21;
HEADER;
FILE_DESCRIPTION (( 'STEP AP214' ),
    '1' );
FILE_NAME ('82662.STEP',
    '2023-07-12T13:07:23',
    ( '' ),
    ( '' ),
    'SwSTEP 2.0',
    'SolidWorks 2023',
    '' );
FILE_SCHEMA (( 'AUTOMOTIVE_DESIGN' ));
ENDSEC;

DATA;
#1 = LINE ( 'NONE', #246, #217 ) ;
#2 = ORIENTED_EDGE ( 'NONE', *, *, #31, .T. ) ;
#3 = LENGTH_MEASURE_WITH_UNIT ( LENGTH_MEASURE( 0.02539999999999999897 ), #23 );
#4 = CIRCLE ( 'NONE', #149, 0.4999999999999992228 ) ;
#5 = ORIENTED_EDGE ( 'NONE', *, *, #45, .T. ) ;
#6 = SURFACE_STYLE_USAGE ( .BOTH. , #225 ) ;
#7 = VECTOR ( 'NONE', #243, 39.37007874015748143 ) ;
#8 = SURFACE_SIDE_STYLE ('',( #174 ) ) ;
#9 =( GEOMETRIC_REPRESENTATION_CONTEXT ( 3 ) GLOBAL_UNCERTAINTY_ASSIGNED_CONTEXT ( ( #51 ) ) GLOBAL_UNIT_ASSIGNED_CONTEXT ( ( #175, #105, #167 ) ) REPRESENTATION_CONTEXT ( 'NONE', 'WORKASPACE' ) );
#10 = DIMENSIONAL_EXPONENTS ( 1.000000000000000000, 0.000000000000000000, 0.000000000000000000, 0.000000000000000000, 0.000000000000000000, 0.000000000000000000, 0.000000000000000000 ) ;
#11 = DIRECTION ( 'NONE',  ( -3.295404848943718549E-18, -1.000000000000000000, -0.000000000000000000 ) ) ;
#12 = FILL_AREA_STYLE ('',( #117 ) ) ;
#13 = COLOUR_RGB ( '',1.000000000000000000, 0.000000000000000000, 0.000000000000000000 ) ;
#14 = FACE_OUTER_BOUND ( 'NONE', #24, .T. ) ;
#15 = DIMENSIONAL_EXPONENTS ( 1.000000000000000000, 0.000000000000000000, 0.000000000000000000, 0.000000000000000000, 0.000000000000000000, 0.000000000000000000, 0.000000000000000000 ) ;
#16 = FILL_AREA_STYLE_COLOUR ( '', #208 ) ;
#17 = PRODUCT_CONTEXT ( 'NONE', #115, 'mechanical' ) ;
#18 = DIRECTION ( 'NONE',  ( -1.271658167389550129E-16, 1.000000000000000000, -0.000000000000000000 ) ) ;
#19 =( NAMED_UNIT ( * ) SI_UNIT ( $, .STERADIAN. ) SOLID_ANGLE_UNIT ( ) );
#20 = APPLICATION_PROTOCOL_DEFINITION ( 'draft international standard', 'automotive_design', 1998, #115 ) ;
#21 = LENGTH_MEASURE_WITH_UNIT ( LENGTH_MEASURE( 0.02539999999999999897 ), #71 );
#22 = CARTESIAN_POINT ( 'NONE',  ( -0.5000000000000000000, 0.4399999999999985034, 0.000000000000000000 ) ) ;
#23 =( LENGTH_UNIT ( ) NAMED_UNIT ( * ) SI_UNIT ( $, .METRE. ) );
#24 = EDGE_LOOP ( 'NONE', ( #188, #260 ) ) ;
#25 = EDGE_LOOP ( 'NONE', ( #220, #282, #239, #87 ) ) ;
#26 = CYLINDRICAL_SURFACE ( 'NONE', #249, 0.4999999999999995004 ) ;
#27 = ORIENTED_EDGE ( 'NONE', *, *, #183, .T. ) ;
#28 = EDGE_CURVE ( 'NONE', #173, #63, #303, .T. ) ;
#29 = AXIS2_PLACEMENT_3D ( 'NONE', #109, #308, #302 ) ;
#30 =( NAMED_UNIT ( * ) PLANE_ANGLE_UNIT ( ) SI_UNIT ( $, .RADIAN. ) );
#31 = EDGE_CURVE ( 'NONE', #284, #197, #122, .T. ) ;
#32 = CARTESIAN_POINT ( 'NONE',  ( 6.976396674201507034E-16, 0.4399999999999984479, 0.000000000000000000 ) ) ;
#33 = DIRECTION ( 'NONE',  ( 1.000000000000000000, 0.000000000000000000, 0.000000000000000000 ) ) ;
#34 = LINE ( 'NONE', #153, #254 ) ;
#35 = ADVANCED_FACE ( 'NONE', ( #194 ), #248, .T. ) ;
#36 = CARTESIAN_POINT ( 'NONE',  ( 2.449293598294707400E-16, 4.000000000000000000, 0.000000000000000000 ) ) ;
#37 = CIRCLE ( 'NONE', #139, 0.4999999999999997224 ) ;
#38 = EDGE_CURVE ( 'NONE', #284, #63, #34, .T. ) ;
#39 = CARTESIAN_POINT ( 'NONE',  ( 0.000000000000000000, 0.000000000000000000, 0.000000000000000000 ) ) ;
#40 = CIRCLE ( 'NONE', #224, 0.4999999999999992228 ) ;
#41 = FACE_OUTER_BOUND ( 'NONE', #245, .T. ) ;
#42 = DIRECTION ( 'NONE',  ( -1.271658167389550129E-16, 1.000000000000000000, -0.000000000000000000 ) ) ;
#43 = EDGE_CURVE ( 'NONE', #63, #173, #287, .T. ) ;
#44 = ORIENTED_EDGE ( 'NONE', *, *, #96, .F. ) ;
#45 = EDGE_CURVE ( 'NONE', #262, #58, #145, .T. ) ;
#46 = EDGE_LOOP ( 'NONE', ( #306, #266, #162, #169 ) ) ;
#47 = LINE ( 'NONE', #216, #7 ) ;
#48 = CARTESIAN_POINT ( 'NONE',  ( 1.449978133535231054E-18, 0.4399999999999984479, 0.000000000000000000 ) ) ;
#49 = AXIS2_PLACEMENT_3D ( 'NONE', #101, #11, #33 ) ;
#50 = CARTESIAN_POINT ( 'NONE',  ( -0.4999999999999994449, 4.000000000000000000, 0.000000000000000000 ) ) ;
#51 = UNCERTAINTY_MEASURE_WITH_UNIT (LENGTH_MEASURE( 1.000000000000000082E-05 ), #175, 'distance_accuracy_value', 'NONE');
#52 = DIMENSIONAL_EXPONENTS ( 1.000000000000000000, 0.000000000000000000, 0.000000000000000000, 0.000000000000000000, 0.000000000000000000, 0.000000000000000000, 0.000000000000000000 ) ;
#53 = SURFACE_STYLE_USAGE ( .BOTH. , #257 ) ;
#54 = DIRECTION ( 'NONE',  ( -1.271658167389550129E-16, 1.000000000000000000, -0.000000000000000000 ) ) ;
#55 = CARTESIAN_POINT ( 'NONE',  ( 2.449293598294707400E-16, 4.000000000000000000, 0.000000000000000000 ) ) ;
#56 = CARTESIAN_POINT ( 'NONE',  ( 6.976396674201507034E-16, 0.4399999999999985589, 0.000000000000000000 ) ) ;
#57 =( LENGTH_UNIT ( ) NAMED_UNIT ( * ) SI_UNIT ( $, .METRE. ) );
#58 = VERTEX_POINT ( 'NONE', #269 ) ;
#59 = CLOSED_SHELL ( 'NONE', ( #240, #35, #179, #99 ) ) ;
#60 = COLOUR_RGB ( '',1.000000000000000000, 0.000000000000000000, 0.000000000000000000 ) ;
#61 = PLANE ( 'NONE',  #118 ) ;
#62 = EDGE_LOOP ( 'NONE', ( #288, #165, #198, #44 ) ) ;
#63 = VERTEX_POINT ( 'NONE', #273 ) ;
#64 = ORIENTED_EDGE ( 'NONE', *, *, #28, .T. ) ;
#65 =( GEOMETRIC_REPRESENTATION_CONTEXT ( 3 ) GLOBAL_UNCERTAINTY_ASSIGNED_CONTEXT ( ( #230 ) ) GLOBAL_UNIT_ASSIGNED_CONTEXT ( ( #166, #129, #305 ) ) REPRESENTATION_CONTEXT ( 'NONE', 'WORKASPACE' ) );
#66 = DIRECTION ( 'NONE',  ( -1.000000000000000000, 0.000000000000000000, 0.000000000000000000 ) ) ;
#67 =( CONVERSION_BASED_UNIT ( 'INCH', #116 ) LENGTH_UNIT ( ) NAMED_UNIT ( #74 ) );
#68 = CARTESIAN_POINT ( 'NONE',  ( 2.449293598294707400E-16, 4.000000000000000000, 0.000000000000000000 ) ) ;
#69 = ADVANCED_FACE ( 'NONE', ( #206 ), #256, .T. ) ;
#70 =( GEOMETRIC_REPRESENTATION_CONTEXT ( 3 ) GLOBAL_UNCERTAINTY_ASSIGNED_CONTEXT ( ( #268 ) ) GLOBAL_UNIT_ASSIGNED_CONTEXT ( ( #67, #30, #204 ) ) REPRESENTATION_CONTEXT ( 'NONE', 'WORKASPACE' ) );
#71 =( LENGTH_UNIT ( ) NAMED_UNIT ( * ) SI_UNIT ( $, .METRE. ) );
#72 = PRESENTATION_STYLE_ASSIGNMENT (( #290 ) ) ;
#73 = UNCERTAINTY_MEASURE_WITH_UNIT (LENGTH_MEASURE( 1.000000000000000082E-05 ), #104, 'distance_accuracy_value', 'NONE');
#74 = DIMENSIONAL_EXPONENTS ( 1.000000000000000000, 0.000000000000000000, 0.000000000000000000, 0.000000000000000000, 0.000000000000000000, 0.000000000000000000, 0.000000000000000000 ) ;
#75 = DIRECTION ( 'NONE',  ( 0.7071067811865486830, 0.7071067811865462405, 8.659560562354947649E-17 ) ) ;
#76 = DIRECTION ( 'NONE',  ( -1.000000000000000000, 0.000000000000000000, 0.000000000000000000 ) ) ;
#77 = ADVANCED_FACE ( 'NONE', ( #14 ), #93, .F. ) ;
#78 = PRESENTATION_LAYER_ASSIGNMENT (  '', '', ( #108 ) ) ;
#79 = DIRECTION ( 'NONE',  ( 1.000000000000000000, 1.271658167389550129E-16, 0.000000000000000000 ) ) ;
#80 = FILL_AREA_STYLE ('',( #304 ) ) ;
#81 = FACE_OUTER_BOUND ( 'NONE', #281, .T. ) ;
#82 = APPLICATION_PROTOCOL_DEFINITION ( 'draft international standard', 'automotive_design', 1998, #94 ) ;
#83 = PRESENTATION_STYLE_ASSIGNMENT (( #192 ) ) ;
#84 = DIRECTION ( 'NONE',  ( 1.000000000000000000, 0.000000000000000000, 0.000000000000000000 ) ) ;
#85 = FILL_AREA_STYLE ('',( #16 ) ) ;
#86 =( NAMED_UNIT ( * ) PLANE_ANGLE_UNIT ( ) SI_UNIT ( $, .RADIAN. ) );
#87 = ORIENTED_EDGE ( 'NONE', *, *, #183, .F. ) ;
#88 = DIRECTION ( 'NONE',  ( -1.271658167389550129E-16, 1.000000000000000000, -0.000000000000000000 ) ) ;
#89 = DIRECTION ( 'NONE',  ( -3.295404848943718549E-18, -1.000000000000000000, -0.000000000000000000 ) ) ;
#90 = ORIENTED_EDGE ( 'NONE', *, *, #28, .F. ) ;
#91 = AXIS2_PLACEMENT_3D ( 'NONE', #301, #130, #235 ) ;
#92 = PRESENTATION_LAYER_ASSIGNMENT (  '', '', ( #236 ) ) ;
#93 = PLANE ( 'NONE',  #285 ) ;
#94 = APPLICATION_CONTEXT ( 'automotive_design' ) ;
#95 = PRESENTATION_STYLE_ASSIGNMENT (( #6 ) ) ;
#96 = EDGE_CURVE ( 'NONE', #58, #262, #37, .T. ) ;
#97 = COLOUR_RGB ( '',1.000000000000000000, 0.000000000000000000, 0.000000000000000000 ) ;
#98 = DIRECTION ( 'NONE',  ( -1.271658167389550129E-16, 1.000000000000000000, 0.000000000000000000 ) ) ;
#99 = ADVANCED_FACE ( 'NONE', ( #299 ), #180, .T. ) ;
#100 = FILL_AREA_STYLE ('',( #127 ) ) ;
#101 = CARTESIAN_POINT ( 'NONE',  ( 1.449978133535231054E-18, 0.4399999999999984479, 0.000000000000000000 ) ) ;
#102 =( GEOMETRIC_REPRESENTATION_CONTEXT ( 3 ) GLOBAL_UNCERTAINTY_ASSIGNED_CONTEXT ( ( #73 ) ) GLOBAL_UNIT_ASSIGNED_CONTEXT ( ( #104, #125, #123 ) ) REPRESENTATION_CONTEXT ( 'NONE', 'WORKASPACE' ) );
#103 = STYLED_ITEM ( 'NONE', ( #83 ), #179 ) ;
#104 =( CONVERSION_BASED_UNIT ( 'INCH', #298 ) LENGTH_UNIT ( ) NAMED_UNIT ( #52 ) );
#105 =( NAMED_UNIT ( * ) PLANE_ANGLE_UNIT ( ) SI_UNIT ( $, .RADIAN. ) );
#106 = DIRECTION ( 'NONE',  ( -0.7071067811865486830, 0.7071067811865462405, 0.000000000000000000 ) ) ;
#107 = PRODUCT_DEFINITION_SHAPE ( 'NONE', 'NONE',  #247 ) ;
#108 = STYLED_ITEM ( 'NONE', ( #222 ), #240 ) ;
#109 = CARTESIAN_POINT ( 'NONE',  ( 6.515815871065063637E-37, 1.977242909366231168E-19, 0.000000000000000000 ) ) ;
#110 = CARTESIAN_POINT ( 'NONE',  ( 1.449978133535231054E-18, 0.4399999999999984479, 0.000000000000000000 ) ) ;
#111 = PRODUCT ( '82662', '82662', '', ( #17 ) ) ;
#112 = VERTEX_POINT ( 'NONE', #307 ) ;
#113 = DIRECTION ( 'NONE',  ( 3.295404848943718549E-18, 1.000000000000000000, 0.000000000000000000 ) ) ;
#114 = ORIENTED_EDGE ( 'NONE', *, *, #124, .F. ) ;
#115 = APPLICATION_CONTEXT ( 'automotive_design' ) ;
#116 = LENGTH_MEASURE_WITH_UNIT ( LENGTH_MEASURE( 0.02539999999999999897 ), #203 );
#117 = FILL_AREA_STYLE_COLOUR ( '', #97 ) ;
#118 = AXIS2_PLACEMENT_3D ( 'NONE', #210, #163, #79 ) ;
#119 = SURFACE_STYLE_USAGE ( .BOTH. , #8 ) ;
#120 = VECTOR ( 'NONE', #106, 39.37007874015748854 ) ;
#121 = FACE_OUTER_BOUND ( 'NONE', #62, .T. ) ;
#122 = CIRCLE ( 'NONE', #160, 0.05999999999999999778 ) ;
#123 =( NAMED_UNIT ( * ) SI_UNIT ( $, .STERADIAN. ) SOLID_ANGLE_UNIT ( ) );
#124 = EDGE_CURVE ( 'NONE', #197, #284, #234, .T. ) ;
#125 =( NAMED_UNIT ( * ) PLANE_ANGLE_UNIT ( ) SI_UNIT ( $, .RADIAN. ) );
#126 = SURFACE_STYLE_FILL_AREA ( #12 ) ;
#127 = FILL_AREA_STYLE_COLOUR ( '', #13 ) ;
#128 = DIRECTION ( 'NONE',  ( -1.000000000000000000, -1.365923996832133828E-16, 0.000000000000000000 ) ) ;
#129 =( NAMED_UNIT ( * ) PLANE_ANGLE_UNIT ( ) SI_UNIT ( $, .RADIAN. ) );
#130 = DIRECTION ( 'NONE',  ( -3.295404848943718549E-18, -1.000000000000000000, -0.000000000000000000 ) ) ;
#131 = MECHANICAL_DESIGN_GEOMETRIC_PRESENTATION_REPRESENTATION (  '', ( #103 ), #200 ) ;
#132 = EDGE_CURVE ( 'NONE', #242, #112, #4, .T. ) ;
#133 = DIRECTION ( 'NONE',  ( 1.000000000000000000, 0.000000000000000000, 0.000000000000000000 ) ) ;
#134 = SURFACE_STYLE_USAGE ( .BOTH. , #211 ) ;
#135 = PRODUCT_DEFINITION_FORMATION_WITH_SPECIFIED_SOURCE ( 'ANY', '', #111, .NOT_KNOWN. ) ;
#136 = ORIENTED_EDGE ( 'NONE', *, *, #43, .F. ) ;
#137 = CARTESIAN_POINT ( 'NONE',  ( 0.05999999999999999778, 0.000000000000000000, 3.429011037612589399E-17 ) ) ;
#138 = EDGE_LOOP ( 'NONE', ( #279, #2 ) ) ;
#139 = AXIS2_PLACEMENT_3D ( 'NONE', #233, #209, #228 ) ;
#140 = DIRECTION ( 'NONE',  ( 1.000000000000000000, -3.295404848943718549E-18, 0.000000000000000000 ) ) ;
#141 = FILL_AREA_STYLE ('',( #286 ) ) ;
#142 = AXIS2_PLACEMENT_3D ( 'NONE', #267, #113, #201 ) ;
#143 = FILL_AREA_STYLE_COLOUR ( '', #189 ) ;
#144 = UNCERTAINTY_MEASURE_WITH_UNIT (LENGTH_MEASURE( 1.000000000000000082E-05 ), #215, 'distance_accuracy_value', 'NONE');
#145 = CIRCLE ( 'NONE', #276, 0.4999999999999997224 ) ;
#146 = DIMENSIONAL_EXPONENTS ( 1.000000000000000000, 0.000000000000000000, 0.000000000000000000, 0.000000000000000000, 0.000000000000000000, 0.000000000000000000, 0.000000000000000000 ) ;
#147 =( GEOMETRIC_REPRESENTATION_CONTEXT ( 3 ) GLOBAL_UNCERTAINTY_ASSIGNED_CONTEXT ( ( #255 ) ) GLOBAL_UNIT_ASSIGNED_CONTEXT ( ( #270, #265, #172 ) ) REPRESENTATION_CONTEXT ( 'NONE', 'WORKASPACE' ) );
#148 = PRESENTATION_LAYER_ASSIGNMENT (  '', '', ( #244 ) ) ;
#149 = AXIS2_PLACEMENT_3D ( 'NONE', #214, #18, #181 ) ;
#150 =( LENGTH_UNIT ( ) NAMED_UNIT ( * ) SI_UNIT ( $, .METRE. ) );
#151 = UNCERTAINTY_MEASURE_WITH_UNIT (LENGTH_MEASURE( 1.000000000000000082E-05 ), #241, 'distance_accuracy_value', 'NONE');
#152 = PRESENTATION_STYLE_ASSIGNMENT (( #53 ) ) ;
#153 = CARTESIAN_POINT ( 'NONE',  ( 0.05999999999999999778, 0.000000000000000000, 7.347880794884118380E-18 ) ) ;
#154 = DIRECTION ( 'NONE',  ( -1.000000000000000000, 3.295404848943718549E-18, 0.000000000000000000 ) ) ;
#155 = MECHANICAL_DESIGN_GEOMETRIC_PRESENTATION_REPRESENTATION (  '', ( #244 ), #9 ) ;
#156 = DIRECTION ( 'NONE',  ( -3.295404848943718549E-18, -1.000000000000000000, 0.000000000000000000 ) ) ;
#157 = LENGTH_MEASURE_WITH_UNIT ( LENGTH_MEASURE( 0.02539999999999999897 ), #57 );
#158 = STYLED_ITEM ( 'NONE', ( #95 ), #272 ) ;
#159 =( NAMED_UNIT ( * ) PLANE_ANGLE_UNIT ( ) SI_UNIT ( $, .RADIAN. ) );
#160 = AXIS2_PLACEMENT_3D ( 'NONE', #218, #89, #140 ) ;
#161 = PRESENTATION_LAYER_ASSIGNMENT (  '', '', ( #103 ) ) ;
#162 = ORIENTED_EDGE ( 'NONE', *, *, #45, .F. ) ;
#163 = DIRECTION ( 'NONE',  ( 1.271658167389550129E-16, -1.000000000000000000, 0.000000000000000000 ) ) ;
#164 = MANIFOLD_SOLID_BREP ( 'Revolve - Cutting Edge', #59 ) ;
#165 = ORIENTED_EDGE ( 'NONE', *, *, #132, .T. ) ;
#166 =( CONVERSION_BASED_UNIT ( 'INCH', #186 ) LENGTH_UNIT ( ) NAMED_UNIT ( #10 ) );
#167 =( NAMED_UNIT ( * ) SI_UNIT ( $, .STERADIAN. ) SOLID_ANGLE_UNIT ( ) );
#168 = CARTESIAN_POINT ( 'NONE',  ( -0.05999999999999999778, 3.954485818732462336E-19, 0.000000000000000000 ) ) ;
#169 = ORIENTED_EDGE ( 'NONE', *, *, #300, .F. ) ;
#170 = EDGE_CURVE ( 'NONE', #112, #242, #40, .T. ) ;
#171 = DIRECTION ( 'NONE',  ( -3.295404848943718549E-18, -1.000000000000000000, -0.000000000000000000 ) ) ;
#172 =( NAMED_UNIT ( * ) SI_UNIT ( $, .STERADIAN. ) SOLID_ANGLE_UNIT ( ) );
#173 = VERTEX_POINT ( 'NONE', #22 ) ;
#174 = SURFACE_STYLE_FILL_AREA ( #141 ) ;
#175 =( CONVERSION_BASED_UNIT ( 'INCH', #229 ) LENGTH_UNIT ( ) NAMED_UNIT ( #274 ) );
#176 = AXIS2_PLACEMENT_3D ( 'NONE', #110, #171, #84 ) ;
#177 = PRESENTATION_LAYER_ASSIGNMENT (  '', '', ( #158 ) ) ;
#178 =( GEOMETRIC_REPRESENTATION_CONTEXT ( 3 ) GLOBAL_UNCERTAINTY_ASSIGNED_CONTEXT ( ( #151 ) ) GLOBAL_UNIT_ASSIGNED_CONTEXT ( ( #241, #159, #212 ) ) REPRESENTATION_CONTEXT ( 'NONE', 'WORKASPACE' ) );
#179 = ADVANCED_FACE ( 'NONE', ( #81 ), #297, .T. ) ;
#180 = PLANE ( 'NONE',  #199 ) ;
#181 = DIRECTION ( 'NONE',  ( -1.000000000000000000, -1.365923996832133828E-16, 0.000000000000000000 ) ) ;
#182 = FACE_OUTER_BOUND ( 'NONE', #25, .T. ) ;
#183 = EDGE_CURVE ( 'NONE', #197, #173, #187, .T. ) ;
#184 = PRESENTATION_STYLE_ASSIGNMENT (( #134 ) ) ;
#185 = SURFACE_STYLE_FILL_AREA ( #80 ) ;
#186 = LENGTH_MEASURE_WITH_UNIT ( LENGTH_MEASURE( 0.02539999999999999897 ), #219 );
#187 = LINE ( 'NONE', #168, #120 ) ;
#188 = ORIENTED_EDGE ( 'NONE', *, *, #170, .F. ) ;
#189 = COLOUR_RGB ( '',0.7921568627450980005, 0.8196078431372548767, 0.9333333333333333481 ) ;
#190 = SHAPE_DEFINITION_REPRESENTATION ( #107, #261 ) ;
#191 = DIRECTION ( 'NONE',  ( 1.000000000000000000, -3.295404848943718549E-18, 0.000000000000000000 ) ) ;
#192 = SURFACE_STYLE_USAGE ( .BOTH. , #278 ) ;
#193 = AXIS2_PLACEMENT_3D ( 'NONE', #36, #271, #76 ) ;
#194 = FACE_OUTER_BOUND ( 'NONE', #264, .T. ) ;
#195 = SURFACE_STYLE_FILL_AREA ( #85 ) ;
#196 = PRODUCT_RELATED_PRODUCT_CATEGORY ( 'part', '', ( #111 ) ) ;
#197 = VERTEX_POINT ( 'NONE', #259 ) ;
#198 = ORIENTED_EDGE ( 'NONE', *, *, #300, .T. ) ;
#199 = AXIS2_PLACEMENT_3D ( 'NONE', #277, #156, #191 ) ;
#200 =( GEOMETRIC_REPRESENTATION_CONTEXT ( 3 ) GLOBAL_UNCERTAINTY_ASSIGNED_CONTEXT ( ( #144 ) ) GLOBAL_UNIT_ASSIGNED_CONTEXT ( ( #215, #86, #19 ) ) REPRESENTATION_CONTEXT ( 'NONE', 'WORKASPACE' ) );
#201 = DIRECTION ( 'NONE',  ( -1.000000000000000000, 3.295404848943718549E-18, 0.000000000000000000 ) ) ;
#202 = SURFACE_SIDE_STYLE ('',( #292 ) ) ;
#203 =( LENGTH_UNIT ( ) NAMED_UNIT ( * ) SI_UNIT ( $, .METRE. ) );
#204 =( NAMED_UNIT ( * ) SI_UNIT ( $, .STERADIAN. ) SOLID_ANGLE_UNIT ( ) );
#205 = DIRECTION ( 'NONE',  ( -1.000000000000000000, -1.271658167389550129E-16, 0.000000000000000000 ) ) ;
#206 = FACE_OUTER_BOUND ( 'NONE', #46, .T. ) ;
#207 = PRESENTATION_LAYER_ASSIGNMENT (  '', '', ( #258 ) ) ;
#208 = COLOUR_RGB ( '',0.7921568627450980005, 0.8196078431372548767, 0.9333333333333333481 ) ;
#209 = DIRECTION ( 'NONE',  ( -1.271658167389550129E-16, 1.000000000000000000, -0.000000000000000000 ) ) ;
#210 = CARTESIAN_POINT ( 'NONE',  ( 0.5000000000000000000, 4.000000000000000000, 0.000000000000000000 ) ) ;
#211 = SURFACE_SIDE_STYLE ('',( #195 ) ) ;
#212 =( NAMED_UNIT ( * ) SI_UNIT ( $, .STERADIAN. ) SOLID_ANGLE_UNIT ( ) );
#213 = ORIENTED_EDGE ( 'NONE', *, *, #96, .T. ) ;
#214 = CARTESIAN_POINT ( 'NONE',  ( 6.976396674201507034E-16, 0.4399999999999985589, 0.000000000000000000 ) ) ;
#215 =( CONVERSION_BASED_UNIT ( 'INCH', #157 ) LENGTH_UNIT ( ) NAMED_UNIT ( #146 ) );
#216 = CARTESIAN_POINT ( 'NONE',  ( 0.4999999999999997780, 4.000000000000000000, 6.123233995736759873E-17 ) ) ;
#217 = VECTOR ( 'NONE', #88, 39.37007874015748143 ) ;
#218 = CARTESIAN_POINT ( 'NONE',  ( 6.515815871065063637E-37, 1.977242909366231168E-19, 0.000000000000000000 ) ) ;
#219 =( LENGTH_UNIT ( ) NAMED_UNIT ( * ) SI_UNIT ( $, .METRE. ) );
#220 = ORIENTED_EDGE ( 'NONE', *, *, #31, .F. ) ;
#221 = ADVANCED_FACE ( 'NONE', ( #41 ), #61, .F. ) ;
#222 = PRESENTATION_STYLE_ASSIGNMENT (( #119 ) ) ;
#223 = CLOSED_SHELL ( 'NONE', ( #69, #77, #253, #221 ) ) ;
#224 = AXIS2_PLACEMENT_3D ( 'NONE', #56, #42, #128 ) ;
#225 = SURFACE_SIDE_STYLE ('',( #250 ) ) ;
#226 = MECHANICAL_DESIGN_GEOMETRIC_PRESENTATION_REPRESENTATION (  '', ( #108 ), #147 ) ;
#227 = MECHANICAL_DESIGN_GEOMETRIC_PRESENTATION_REPRESENTATION (  '', ( #258 ), #102 ) ;
#228 = DIRECTION ( 'NONE',  ( -1.000000000000000000, 0.000000000000000000, 0.000000000000000000 ) ) ;
#229 = LENGTH_MEASURE_WITH_UNIT ( LENGTH_MEASURE( 0.02539999999999999897 ), #150 );
#230 = UNCERTAINTY_MEASURE_WITH_UNIT (LENGTH_MEASURE( 1.000000000000000082E-05 ), #166, 'distance_accuracy_value', 'NONE');
#231 =( LENGTH_UNIT ( ) NAMED_UNIT ( * ) SI_UNIT ( $, .METRE. ) );
#232 = MECHANICAL_DESIGN_GEOMETRIC_PRESENTATION_REPRESENTATION (  '', ( #158 ), #70 ) ;
#233 = CARTESIAN_POINT ( 'NONE',  ( 2.449293598294707400E-16, 4.000000000000000000, 0.000000000000000000 ) ) ;
#234 = CIRCLE ( 'NONE', #91, 0.05999999999999999778 ) ;
#235 = DIRECTION ( 'NONE',  ( 1.000000000000000000, -3.295404848943718549E-18, 0.000000000000000000 ) ) ;
#236 = STYLED_ITEM ( 'NONE', ( #184 ), #164 ) ;
#237 = DIRECTION ( 'NONE',  ( 0.000000000000000000, 0.000000000000000000, 1.000000000000000000 ) ) ;
#238 = AXIS2_PLACEMENT_3D ( 'NONE', #39, #237, #133 ) ;
#239 = ORIENTED_EDGE ( 'NONE', *, *, #43, .T. ) ;
#240 = ADVANCED_FACE ( 'NONE', ( #182 ), #283, .T. ) ;
#241 =( CONVERSION_BASED_UNIT ( 'INCH', #21 ) LENGTH_UNIT ( ) NAMED_UNIT ( #293 ) );
#242 = VERTEX_POINT ( 'NONE', #289 ) ;
#243 = DIRECTION ( 'NONE',  ( -1.271658167389550129E-16, 1.000000000000000000, -0.000000000000000000 ) ) ;
#244 = STYLED_ITEM ( 'NONE', ( #72 ), #99 ) ;
#245 = EDGE_LOOP ( 'NONE', ( #5, #213 ) ) ;
#246 = CARTESIAN_POINT ( 'NONE',  ( -0.4999999999999992228, 4.000000000000000000, 0.000000000000000000 ) ) ;
#247 = PRODUCT_DEFINITION ( 'UNKNOWN', '', #135, #296 ) ;
#248 = PLANE ( 'NONE',  #280 ) ;
#249 = AXIS2_PLACEMENT_3D ( 'NONE', #68, #252, #66 ) ;
#250 = SURFACE_STYLE_FILL_AREA ( #263 ) ;
#251 = MECHANICAL_DESIGN_GEOMETRIC_PRESENTATION_REPRESENTATION (  '', ( #236 ), #178 ) ;
#252 = DIRECTION ( 'NONE',  ( -1.271658167389550129E-16, 1.000000000000000000, -0.000000000000000000 ) ) ;
#253 = ADVANCED_FACE ( 'NONE', ( #121 ), #26, .T. ) ;
#254 = VECTOR ( 'NONE', #75, 39.37007874015748854 ) ;
#255 = UNCERTAINTY_MEASURE_WITH_UNIT (LENGTH_MEASURE( 1.000000000000000082E-05 ), #270, 'distance_accuracy_value', 'NONE');
#256 = CYLINDRICAL_SURFACE ( 'NONE', #193, 0.4999999999999995004 ) ;
#257 = SURFACE_SIDE_STYLE ('',( #126 ) ) ;
#258 = STYLED_ITEM ( 'NONE', ( #152 ), #35 ) ;
#259 = CARTESIAN_POINT ( 'NONE',  ( -0.05999999999999999778, 3.954485818732462336E-19, 0.000000000000000000 ) ) ;
#260 = ORIENTED_EDGE ( 'NONE', *, *, #132, .F. ) ;
#261 = ADVANCED_BREP_SHAPE_REPRESENTATION ( '82662', ( #164, #272, #238 ), #65 ) ;
#262 = VERTEX_POINT ( 'NONE', #50 ) ;
#263 = FILL_AREA_STYLE ('',( #143 ) ) ;
#264 = EDGE_LOOP ( 'NONE', ( #90, #136 ) ) ;
#265 =( NAMED_UNIT ( * ) PLANE_ANGLE_UNIT ( ) SI_UNIT ( $, .RADIAN. ) );
#266 = ORIENTED_EDGE ( 'NONE', *, *, #291, .T. ) ;
#267 = CARTESIAN_POINT ( 'NONE',  ( 6.515815871065063637E-37, 1.977242909366231168E-19, 0.000000000000000000 ) ) ;
#268 = UNCERTAINTY_MEASURE_WITH_UNIT (LENGTH_MEASURE( 1.000000000000000082E-05 ), #67, 'distance_accuracy_value', 'NONE');
#269 = CARTESIAN_POINT ( 'NONE',  ( 0.5000000000000000000, 4.000000000000000000, 6.123233995736761105E-17 ) ) ;
#270 =( CONVERSION_BASED_UNIT ( 'INCH', #3 ) LENGTH_UNIT ( ) NAMED_UNIT ( #15 ) );
#271 = DIRECTION ( 'NONE',  ( -1.271658167389550129E-16, 1.000000000000000000, -0.000000000000000000 ) ) ;
#272 = MANIFOLD_SOLID_BREP ( 'Revolve - Tool Body (Tipped Off)', #223 ) ;
#273 = CARTESIAN_POINT ( 'NONE',  ( 0.5000000000000000000, 0.4399999999999985034, 6.123233995736766036E-17 ) ) ;
#274 = DIMENSIONAL_EXPONENTS ( 1.000000000000000000, 0.000000000000000000, 0.000000000000000000, 0.000000000000000000, 0.000000000000000000, 0.000000000000000000, 0.000000000000000000 ) ;
#275 = DIRECTION ( 'NONE',  ( 3.295404848943718549E-18, 1.000000000000000000, 0.000000000000000000 ) ) ;
#276 = AXIS2_PLACEMENT_3D ( 'NONE', #55, #54, #295 ) ;
#277 = CARTESIAN_POINT ( 'NONE',  ( 3.257907935532531819E-37, 9.886214546831155839E-20, 0.000000000000000000 ) ) ;
#278 = SURFACE_SIDE_STYLE ('',( #185 ) ) ;
#279 = ORIENTED_EDGE ( 'NONE', *, *, #124, .T. ) ;
#280 = AXIS2_PLACEMENT_3D ( 'NONE', #48, #275, #154 ) ;
#281 = EDGE_LOOP ( 'NONE', ( #309, #114, #27, #64 ) ) ;
#282 = ORIENTED_EDGE ( 'NONE', *, *, #38, .T. ) ;
#283 = CONICAL_SURFACE ( 'NONE', #142, 0.05999999999999999778, 0.7853981633974500554 ) ;
#284 = VERTEX_POINT ( 'NONE', #137 ) ;
#285 = AXIS2_PLACEMENT_3D ( 'NONE', #32, #98, #205 ) ;
#286 = FILL_AREA_STYLE_COLOUR ( '', #294 ) ;
#287 = CIRCLE ( 'NONE', #49, 0.5000000000000000000 ) ;
#288 = ORIENTED_EDGE ( 'NONE', *, *, #291, .F. ) ;
#289 = CARTESIAN_POINT ( 'NONE',  ( 0.5000000000000000000, 0.4399999999999986700, 6.123233995736761105E-17 ) ) ;
#290 = SURFACE_STYLE_USAGE ( .BOTH. , #202 ) ;
#291 = EDGE_CURVE ( 'NONE', #242, #58, #47, .T. ) ;
#292 = SURFACE_STYLE_FILL_AREA ( #100 ) ;
#293 = DIMENSIONAL_EXPONENTS ( 1.000000000000000000, 0.000000000000000000, 0.000000000000000000, 0.000000000000000000, 0.000000000000000000, 0.000000000000000000, 0.000000000000000000 ) ;
#294 = COLOUR_RGB ( '',1.000000000000000000, 0.000000000000000000, 0.000000000000000000 ) ;
#295 = DIRECTION ( 'NONE',  ( -1.000000000000000000, 0.000000000000000000, 0.000000000000000000 ) ) ;
#296 = PRODUCT_DEFINITION_CONTEXT ( 'detailed design', #94, 'design' ) ;
#297 = CONICAL_SURFACE ( 'NONE', #29, 0.05999999999999999778, 0.7853981633974500554 ) ;
#298 = LENGTH_MEASURE_WITH_UNIT ( LENGTH_MEASURE( 0.02539999999999999897 ), #231 );
#299 = FACE_OUTER_BOUND ( 'NONE', #138, .T. ) ;
#300 = EDGE_CURVE ( 'NONE', #112, #262, #1, .T. ) ;
#301 = CARTESIAN_POINT ( 'NONE',  ( 6.515815871065063637E-37, 1.977242909366231168E-19, 0.000000000000000000 ) ) ;
#302 = DIRECTION ( 'NONE',  ( -1.000000000000000000, 3.295404848943718549E-18, 0.000000000000000000 ) ) ;
#303 = CIRCLE ( 'NONE', #176, 0.5000000000000000000 ) ;
#304 = FILL_AREA_STYLE_COLOUR ( '', #60 ) ;
#305 =( NAMED_UNIT ( * ) SI_UNIT ( $, .STERADIAN. ) SOLID_ANGLE_UNIT ( ) );
#306 = ORIENTED_EDGE ( 'NONE', *, *, #170, .T. ) ;
#307 = CARTESIAN_POINT ( 'NONE',  ( -0.4999999999999985567, 0.4399999999999985034, 0.000000000000000000 ) ) ;
#308 = DIRECTION ( 'NONE',  ( 3.295404848943718549E-18, 1.000000000000000000, 0.000000000000000000 ) ) ;
#309 = ORIENTED_EDGE ( 'NONE', *, *, #38, .F. ) ;
ENDSEC;
END-ISO-10303-21;
