ISO-10303-21;
HEADER;
FILE_DESCRIPTION (( 'STEP AP214' ),
    '1' );
FILE_NAME ('Micro_BMS-028-2X.STEP',
    '2021-09-03T15:05:46',
    ( '' ),
    ( '' ),
    'SwSTEP 2.0',
    'SolidWorks 2020',
    '' );
FILE_SCHEMA (( 'AUTOMOTIVE_DESIGN' ));
ENDSEC;

DATA;
#1 = DIRECTION ( 'NONE',  ( -1.000000000000000000, 0.0000000000000000000, 1.224646799147353207E-16 ) ) ;
#2 = ORIENTED_EDGE ( 'NONE', *, *, #144, .F. ) ;
#3 = ADVANCED_FACE ( 'NONE', ( #255 ), #34, .T. ) ;
#4 = LINE ( 'NONE', #244, #316 ) ;
#5 = EDGE_LOOP ( 'NONE', ( #138, #293, #30, #56 ) ) ;
#6 = CARTESIAN_POINT ( 'NONE',  ( 0.0000000000000000000, 0.0000000000000000000, 1.485000000000000764 ) ) ;
#7 = VERTEX_POINT ( 'NONE', #10 ) ;
#8 = AXIS2_PLACEMENT_3D ( 'NONE', #165, #145, #223 ) ;
#9 = AXIS2_PLACEMENT_3D ( 'NONE', #154, #39, #131 ) ;
#10 = CARTESIAN_POINT ( 'NONE',  ( -0.01398599999999999670, 0.0000000000000000000, 0.01398600000000000190 ) ) ;
#11 = EDGE_LOOP ( 'NONE', ( #249, #49, #226, #282 ) ) ;
#12 = LENGTH_MEASURE_WITH_UNIT ( LENGTH_MEASURE( 0.02539999999999999897 ), #48 );
#13 = DIRECTION ( 'NONE',  ( 0.0000000000000000000, 1.000000000000000000, 0.0000000000000000000 ) ) ;
#14 = AXIS2_PLACEMENT_3D ( 'NONE', #135, #109, #87 ) ;
#15 = DIRECTION ( 'NONE',  ( -1.000000000000000000, 0.0000000000000000000, 0.0000000000000000000 ) ) ;
#16 = MECHANICAL_DESIGN_GEOMETRIC_PRESENTATION_REPRESENTATION (  '', ( #254 ), #137 ) ;
#17 = EDGE_CURVE ( 'NONE', #102, #7, #319, .T. ) ;
#18 = DIRECTION ( 'NONE',  ( -1.224646799147353454E-16, -0.0000000000000000000, -1.000000000000000000 ) ) ;
#19 = LINE ( 'NONE', #86, #297 ) ;
#20 = DIRECTION ( 'NONE',  ( -0.7071067811865456854, 0.0000000000000000000, -0.7071067811865493491 ) ) ;
#21 = ORIENTED_EDGE ( 'NONE', *, *, #317, .T. ) ;
#22 = DIRECTION ( 'NONE',  ( 0.0000000000000000000, 0.0000000000000000000, -1.000000000000000000 ) ) ;
#23 = ORIENTED_EDGE ( 'NONE', *, *, #168, .T. ) ;
#24 = DIRECTION ( 'NONE',  ( -0.0000000000000000000, -0.0000000000000000000, -1.000000000000000000 ) ) ;
#25 = CIRCLE ( 'NONE', #190, 0.01398600000000000017 ) ;
#26 = DIRECTION ( 'NONE',  ( 1.000000000000000000, 0.0000000000000000000, 0.0000000000000000000 ) ) ;
#27 = ORIENTED_EDGE ( 'NONE', *, *, #294, .F. ) ;
#28 = FACE_OUTER_BOUND ( 'NONE', #242, .T. ) ;
#29 = MANIFOLD_SOLID_BREP ( 'Fillet1', #153 ) ;
#30 = ORIENTED_EDGE ( 'NONE', *, *, #59, .T. ) ;
#31 = EDGE_CURVE ( 'NONE', #224, #152, #228, .T. ) ;
#32 = ORIENTED_EDGE ( 'NONE', *, *, #85, .F. ) ;
#33 = AXIS2_PLACEMENT_3D ( 'NONE', #197, #188, #136 ) ;
#34 = CONICAL_SURFACE ( 'NONE', #54, 0.01398600000000000190, 0.1745329251994338915 ) ;
#35 = PRESENTATION_STYLE_ASSIGNMENT (( #253 ) ) ;
#36 = DIRECTION ( 'NONE',  ( -0.1736481776669311916, 2.126576849575783316E-17, 0.9848077530122080203 ) ) ;
#37 = FACE_OUTER_BOUND ( 'NONE', #160, .T. ) ;
#38 = EDGE_CURVE ( 'NONE', #224, #70, #245, .T. ) ;
#39 = DIRECTION ( 'NONE',  ( 0.0000000000000000000, 0.0000000000000000000, 1.000000000000000000 ) ) ;
#40 = AXIS2_PLACEMENT_3D ( 'NONE', #232, #216, #15 ) ;
#41 = DIRECTION ( 'NONE',  ( -1.224646799147353454E-16, -0.0000000000000000000, -1.000000000000000000 ) ) ;
#42 = FACE_OUTER_BOUND ( 'NONE', #11, .T. ) ;
#43 = DIRECTION ( 'NONE',  ( 1.000000000000000000, 0.0000000000000000000, 0.0000000000000000000 ) ) ;
#44 = UNCERTAINTY_MEASURE_WITH_UNIT (LENGTH_MEASURE( 1.000000000000000082E-05 ), #149, 'distance_accuracy_value', 'NONE');
#45 = FACE_OUTER_BOUND ( 'NONE', #172, .T. ) ;
#46 = ORIENTED_EDGE ( 'NONE', *, *, #151, .F. ) ;
#47 =( GEOMETRIC_REPRESENTATION_CONTEXT ( 3 ) GLOBAL_UNCERTAINTY_ASSIGNED_CONTEXT ( ( #296 ) ) GLOBAL_UNIT_ASSIGNED_CONTEXT ( ( #98, #181, #134 ) ) REPRESENTATION_CONTEXT ( 'NONE', 'WORKASPACE' ) );
#48 =( LENGTH_UNIT ( ) NAMED_UNIT ( * ) SI_UNIT ( $, .METRE. ) );
#49 = ORIENTED_EDGE ( 'NONE', *, *, #64, .T. ) ;
#50 = DIRECTION ( 'NONE',  ( 1.000000000000000000, 0.0000000000000000000, 0.0000000000000000000 ) ) ;
#51 = EDGE_CURVE ( 'NONE', #265, #321, #202, .T. ) ;
#52 = ORIENTED_EDGE ( 'NONE', *, *, #17, .F. ) ;
#53 = CARTESIAN_POINT ( 'NONE',  ( 1.712791013287488357E-18, 0.0000000000000000000, 0.01398600000000000017 ) ) ;
#54 = AXIS2_PLACEMENT_3D ( 'NONE', #103, #174, #127 ) ;
#55 = LINE ( 'NONE', #300, #116 ) ;
#56 = ORIENTED_EDGE ( 'NONE', *, *, #263, .F. ) ;
#57 = SHAPE_DEFINITION_REPRESENTATION ( #260, #322 ) ;
#58 = EDGE_LOOP ( 'NONE', ( #52, #23, #46 ) ) ;
#59 = EDGE_CURVE ( 'NONE', #272, #152, #276, .T. ) ;
#60 = SURFACE_SIDE_STYLE ('',( #220 ) ) ;
#61 =( NAMED_UNIT ( * ) SI_UNIT ( $, .STERADIAN. ) SOLID_ANGLE_UNIT ( ) );
#62 = FILL_AREA_STYLE ('',( #280 ) ) ;
#63 = SURFACE_STYLE_USAGE ( .BOTH. , #177 ) ;
#64 = EDGE_CURVE ( 'NONE', #100, #224, #19, .T. ) ;
#65 = FACE_OUTER_BOUND ( 'NONE', #79, .T. ) ;
#66 = AXIS2_PLACEMENT_3D ( 'NONE', #185, #115, #234 ) ;
#67 = DIRECTION ( 'NONE',  ( -1.224646799147353454E-16, -0.0000000000000000000, -1.000000000000000000 ) ) ;
#68 = AXIS2_PLACEMENT_3D ( 'NONE', #258, #41, #162 ) ;
#69 = CARTESIAN_POINT ( 'NONE',  ( 0.06250000000000000000, 7.654042494670956004E-18, 1.500000000000000222 ) ) ;
#70 = VERTEX_POINT ( 'NONE', #105 ) ;
#71 = ADVANCED_FACE ( 'NONE', ( #37 ), #133, .T. ) ;
#72 = CARTESIAN_POINT ( 'NONE',  ( -0.01398599999999999670, 1.712791013287488357E-18, 0.04200000000000000955 ) ) ;
#73 = CARTESIAN_POINT ( 'NONE',  ( -0.06250000000000000000, 0.0000000000000000000, 1.500000000000000222 ) ) ;
#74 = CIRCLE ( 'NONE', #252, 0.04750000000000064587 ) ;
#75 = FACE_OUTER_BOUND ( 'NONE', #193, .T. ) ;
#76 = CARTESIAN_POINT ( 'NONE',  ( -0.04750000000000064587, 0.0000000000000000000, 1.500000000000000222 ) ) ;
#77 = ORIENTED_EDGE ( 'NONE', *, *, #64, .F. ) ;
#78 = CARTESIAN_POINT ( 'NONE',  ( 0.0000000000000000000, 0.0000000000000000000, 0.0000000000000000000 ) ) ;
#79 = EDGE_LOOP ( 'NONE', ( #166, #291, #82, #175 ) ) ;
#80 = CIRCLE ( 'NONE', #304, 0.04750000000000064587 ) ;
#81 = DIRECTION ( 'NONE',  ( 0.0000000000000000000, 0.0000000000000000000, 1.000000000000000000 ) ) ;
#82 = ORIENTED_EDGE ( 'NONE', *, *, #211, .T. ) ;
#83 = DIRECTION ( 'NONE',  ( -1.000000000000000000, 1.224646799147353207E-16, 0.0000000000000000000 ) ) ;
#84 = CONICAL_SURFACE ( 'NONE', #8, 0.04750000000000064587, 0.7853981633974457255 ) ;
#85 = EDGE_CURVE ( 'NONE', #265, #272, #129, .T. ) ;
#86 = CARTESIAN_POINT ( 'NONE',  ( 0.04750000000000064587, 5.817072295950006528E-18, 1.500000000000000222 ) ) ;
#87 = DIRECTION ( 'NONE',  ( -1.000000000000000000, 0.0000000000000000000, 1.525994741205638118E-16 ) ) ;
#88 = DIRECTION ( 'NONE',  ( 1.224646799147353454E-16, 0.0000000000000000000, 1.000000000000000000 ) ) ;
#89 = PRODUCT_RELATED_PRODUCT_CATEGORY ( 'part', '', ( #312 ) ) ;
#90 = DIRECTION ( 'NONE',  ( 1.000000000000000000, 0.0000000000000000000, 0.0000000000000000000 ) ) ;
#91 = PRESENTATION_LAYER_ASSIGNMENT (  '', '', ( #261 ) ) ;
#92 = DIRECTION ( 'NONE',  ( 1.000000000000000000, 0.0000000000000000000, 0.0000000000000000000 ) ) ;
#93 = ORIENTED_EDGE ( 'NONE', *, *, #288, .T. ) ;
#94 = DIRECTION ( 'NONE',  ( -1.224646799147353454E-16, -0.0000000000000000000, -1.000000000000000000 ) ) ;
#95 = FACE_OUTER_BOUND ( 'NONE', #122, .T. ) ;
#96 = CONICAL_SURFACE ( 'NONE', #157, 0.04750000000000064587, 0.7853981633974457255 ) ;
#97 = DIRECTION ( 'NONE',  ( -1.000000000000000000, 0.0000000000000000000, 0.0000000000000000000 ) ) ;
#98 =( CONVERSION_BASED_UNIT ( 'INCH', #274 ) LENGTH_UNIT ( ) NAMED_UNIT ( #271 ) );
#99 = CARTESIAN_POINT ( 'NONE',  ( -0.04750000000000064587, 0.0000000000000000000, 1.500000000000000222 ) ) ;
#100 = VERTEX_POINT ( 'NONE', #208 ) ;
#101 = CYLINDRICAL_SURFACE ( 'NONE', #259, 0.06250000000000000000 ) ;
#102 = VERTEX_POINT ( 'NONE', #205 ) ;
#103 = CARTESIAN_POINT ( 'NONE',  ( 5.143516556418885177E-18, 0.0000000000000000000, 0.04200000000000000955 ) ) ;
#104 =( NAMED_UNIT ( * ) PLANE_ANGLE_UNIT ( ) SI_UNIT ( $, .RADIAN. ) );
#105 = CARTESIAN_POINT ( 'NONE',  ( -0.06250000000000000000, 0.0000000000000000000, 1.485000000000000764 ) ) ;
#106 = AXIS2_PLACEMENT_3D ( 'NONE', #218, #81, #270 ) ;
#107 =( NAMED_UNIT ( * ) PLANE_ANGLE_UNIT ( ) SI_UNIT ( $, .RADIAN. ) );
#108 = ADVANCED_FACE ( 'NONE', ( #111 ), #290, .T. ) ;
#109 = DIRECTION ( 'NONE',  ( 1.224646799147353454E-16, 0.0000000000000000000, 1.000000000000000000 ) ) ;
#110 = LENGTH_MEASURE_WITH_UNIT ( LENGTH_MEASURE( 0.02539999999999999897 ), #147 );
#111 = FACE_OUTER_BOUND ( 'NONE', #124, .T. ) ;
#112 = ADVANCED_FACE ( 'NONE', ( #161 ), #310, .T. ) ;
#113 = MECHANICAL_DESIGN_GEOMETRIC_PRESENTATION_REPRESENTATION (  '', ( #261 ), #47 ) ;
#114 = DIRECTION ( 'NONE',  ( 0.0000000000000000000, 0.0000000000000000000, -1.000000000000000000 ) ) ;
#115 = DIRECTION ( 'NONE',  ( 1.224646799147353454E-16, 0.0000000000000000000, 1.000000000000000000 ) ) ;
#116 = VECTOR ( 'NONE', #94, 39.37007874015748143 ) ;
#117 = CARTESIAN_POINT ( 'NONE',  ( 0.0000000000000000000, 0.0000000000000000000, 1.500000000000000222 ) ) ;
#118 = DIRECTION ( 'NONE',  ( -0.0000000000000000000, -0.0000000000000000000, -1.000000000000000000 ) ) ;
#119 = VECTOR ( 'NONE', #303, 39.37007874015748143 ) ;
#120 = ORIENTED_EDGE ( 'NONE', *, *, #151, .T. ) ;
#121 = SPHERICAL_SURFACE ( 'NONE', #206, 0.01398600000000000017 ) ;
#122 = EDGE_LOOP ( 'NONE', ( #247, #277, #199, #203 ) ) ;
#123 = ORIENTED_EDGE ( 'NONE', *, *, #201, .T. ) ;
#124 = EDGE_LOOP ( 'NONE', ( #305, #302, #2 ) ) ;
#125 = AXIS2_PLACEMENT_3D ( 'NONE', #78, #248, #1 ) ;
#126 = ADVANCED_FACE ( 'NONE', ( #65 ), #313, .T. ) ;
#127 = DIRECTION ( 'NONE',  ( 1.000000000000000000, 0.0000000000000000000, 0.0000000000000000000 ) ) ;
#128 = PRODUCT_DEFINITION_CONTEXT ( 'detailed design', #227, 'design' ) ;
#129 = LINE ( 'NONE', #72, #236 ) ;
#130 = APPLICATION_CONTEXT ( 'automotive_design' ) ;
#131 = DIRECTION ( 'NONE',  ( 1.000000000000000000, 0.0000000000000000000, 0.0000000000000000000 ) ) ;
#132 = DIRECTION ( 'NONE',  ( 0.7071067811865456854, 8.659560562354911904E-17, -0.7071067811865493491 ) ) ;
#133 = CONICAL_SURFACE ( 'NONE', #66, 0.01398600000000000190, 0.1745329251994338915 ) ;
#134 =( NAMED_UNIT ( * ) SI_UNIT ( $, .STERADIAN. ) SOLID_ANGLE_UNIT ( ) );
#135 = CARTESIAN_POINT ( 'NONE',  ( 1.712791013287488357E-18, 0.0000000000000000000, 0.01398600000000000017 ) ) ;
#136 = DIRECTION ( 'NONE',  ( -1.000000000000000000, 0.0000000000000000000, 0.0000000000000000000 ) ) ;
#137 =( GEOMETRIC_REPRESENTATION_CONTEXT ( 3 ) GLOBAL_UNCERTAINTY_ASSIGNED_CONTEXT ( ( #44 ) ) GLOBAL_UNIT_ASSIGNED_CONTEXT ( ( #149, #107, #311 ) ) REPRESENTATION_CONTEXT ( 'NONE', 'WORKASPACE' ) );
#138 = ORIENTED_EDGE ( 'NONE', *, *, #51, .F. ) ;
#139 = DIRECTION ( 'NONE',  ( 0.0000000000000000000, 1.000000000000000000, 0.0000000000000000000 ) ) ;
#140 = ORIENTED_EDGE ( 'NONE', *, *, #263, .T. ) ;
#141 = CARTESIAN_POINT ( 'NONE',  ( 0.01398600000000000537, 0.0000000000000000000, 0.04200000000000000955 ) ) ;
#142 = VECTOR ( 'NONE', #118, 39.37007874015748143 ) ;
#143 = ORIENTED_EDGE ( 'NONE', *, *, #267, .F. ) ;
#144 = EDGE_CURVE ( 'NONE', #146, #7, #268, .T. ) ;
#145 = DIRECTION ( 'NONE',  ( 0.0000000000000000000, 0.0000000000000000000, -1.000000000000000000 ) ) ;
#146 = VERTEX_POINT ( 'NONE', #284 ) ;
#147 =( LENGTH_UNIT ( ) NAMED_UNIT ( * ) SI_UNIT ( $, .METRE. ) );
#148 = EDGE_LOOP ( 'NONE', ( #150, #222, #123, #120 ) ) ;
#149 =( CONVERSION_BASED_UNIT ( 'INCH', #110 ) LENGTH_UNIT ( ) NAMED_UNIT ( #299 ) );
#150 = ORIENTED_EDGE ( 'NONE', *, *, #180, .F. ) ;
#151 = EDGE_CURVE ( 'NONE', #7, #146, #25, .T. ) ;
#152 = VERTEX_POINT ( 'NONE', #262 ) ;
#153 = CLOSED_SHELL ( 'NONE', ( #108, #231, #3, #159, #257, #126, #198, #195, #71, #112, #207 ) ) ;
#154 = CARTESIAN_POINT ( 'NONE',  ( 0.0000000000000000000, 0.0000000000000000000, 0.0000000000000000000 ) ) ;
#155 = DIRECTION ( 'NONE',  ( -0.0000000000000000000, -0.0000000000000000000, -1.000000000000000000 ) ) ;
#156 = EDGE_CURVE ( 'NONE', #152, #272, #184, .T. ) ;
#157 = AXIS2_PLACEMENT_3D ( 'NONE', #320, #114, #213 ) ;
#158 = DIRECTION ( 'NONE',  ( 1.000000000000000000, 0.0000000000000000000, 0.0000000000000000000 ) ) ;
#159 = ADVANCED_FACE ( 'NONE', ( #42 ), #96, .T. ) ;
#160 = EDGE_LOOP ( 'NONE', ( #32, #143, #140, #307 ) ) ;
#161 = FACE_OUTER_BOUND ( 'NONE', #148, .T. ) ;
#162 = DIRECTION ( 'NONE',  ( -1.000000000000000000, 0.0000000000000000000, 0.0000000000000000000 ) ) ;
#163 = CARTESIAN_POINT ( 'NONE',  ( 0.0000000000000000000, 0.0000000000000000000, 1.500000000000000222 ) ) ;
#164 = CIRCLE ( 'NONE', #33, 0.01398600000000000190 ) ;
#165 = CARTESIAN_POINT ( 'NONE',  ( 0.0000000000000000000, 0.0000000000000000000, 1.500000000000000222 ) ) ;
#166 = ORIENTED_EDGE ( 'NONE', *, *, #31, .F. ) ;
#167 = CYLINDRICAL_SURFACE ( 'NONE', #125, 0.01398600000000000017 ) ;
#168 = EDGE_CURVE ( 'NONE', #102, #146, #215, .T. ) ;
#169 = ORIENTED_EDGE ( 'NONE', *, *, #59, .F. ) ;
#170 = CARTESIAN_POINT ( 'NONE',  ( -0.01398599999999999670, 4.683416753979223143E-18, 0.04200000000000000955 ) ) ;
#171 = COLOUR_RGB ( '',0.7921568627450980005, 0.8196078431372548767, 0.9333333333333333481 ) ;
#172 = EDGE_LOOP ( 'NONE', ( #301, #250, #169, #187 ) ) ;
#173 = PRODUCT_CONTEXT ( 'NONE', #130, 'mechanical' ) ;
#174 = DIRECTION ( 'NONE',  ( 1.224646799147353454E-16, 0.0000000000000000000, 1.000000000000000000 ) ) ;
#175 = ORIENTED_EDGE ( 'NONE', *, *, #156, .F. ) ;
#176 = AXIS2_PLACEMENT_3D ( 'NONE', #6, #22, #50 ) ;
#177 = SURFACE_SIDE_STYLE ('',( #278 ) ) ;
#178 = CARTESIAN_POINT ( 'NONE',  ( 0.0000000000000000000, 0.0000000000000000000, 0.0000000000000000000 ) ) ;
#179 =( CONVERSION_BASED_UNIT ( 'INCH', #12 ) LENGTH_UNIT ( ) NAMED_UNIT ( #214 ) );
#180 = EDGE_CURVE ( 'NONE', #321, #146, #298, .T. ) ;
#181 =( NAMED_UNIT ( * ) PLANE_ANGLE_UNIT ( ) SI_UNIT ( $, .RADIAN. ) );
#182 = DIRECTION ( 'NONE',  ( -1.000000000000000000, 0.0000000000000000000, 1.525994741205638118E-16 ) ) ;
#183 = CIRCLE ( 'NONE', #176, 0.06250000000000000000 ) ;
#184 = CIRCLE ( 'NONE', #318, 0.06250000000000000000 ) ;
#185 = CARTESIAN_POINT ( 'NONE',  ( 5.143516556418885177E-18, 0.0000000000000000000, 0.04200000000000000955 ) ) ;
#186 = CARTESIAN_POINT ( 'NONE',  ( 1.712791013287488357E-18, 0.0000000000000000000, 0.01398600000000000017 ) ) ;
#187 = ORIENTED_EDGE ( 'NONE', *, *, #211, .F. ) ;
#188 = DIRECTION ( 'NONE',  ( -1.224646799147353454E-16, -0.0000000000000000000, -1.000000000000000000 ) ) ;
#189 = CARTESIAN_POINT ( 'NONE',  ( 0.0000000000000000000, 0.0000000000000000000, 1.500000000000000222 ) ) ;
#190 = AXIS2_PLACEMENT_3D ( 'NONE', #315, #88, #182 ) ;
#191 = AXIS2_PLACEMENT_3D ( 'NONE', #292, #18, #90 ) ;
#192 = UNCERTAINTY_MEASURE_WITH_UNIT (LENGTH_MEASURE( 1.000000000000000082E-05 ), #179, 'distance_accuracy_value', 'NONE');
#193 = EDGE_LOOP ( 'NONE', ( #77, #27, #93, #264 ) ) ;
#194 = CARTESIAN_POINT ( 'NONE',  ( -0.06249999999999995837, 0.0000000000000000000, 0.3171365661969320349 ) ) ;
#195 = ADVANCED_FACE ( 'NONE', ( #75 ), #84, .T. ) ;
#196 = ORIENTED_EDGE ( 'NONE', *, *, #294, .T. ) ;
#197 = CARTESIAN_POINT ( 'NONE',  ( 5.143516556418885177E-18, 0.0000000000000000000, 0.04200000000000000955 ) ) ;
#198 = ADVANCED_FACE ( 'NONE', ( #28 ), #323, .T. ) ;
#199 = ORIENTED_EDGE ( 'NONE', *, *, #144, .T. ) ;
#200 = DIRECTION ( 'NONE',  ( 0.1736481776669313859, 0.0000000000000000000, 0.9848077530122077983 ) ) ;
#201 = EDGE_CURVE ( 'NONE', #265, #7, #55, .T. ) ;
#202 = CIRCLE ( 'NONE', #68, 0.01398600000000000190 ) ;
#203 = ORIENTED_EDGE ( 'NONE', *, *, #201, .F. ) ;
#204 = DIRECTION ( 'NONE',  ( 1.224646799147353207E-16, 1.000000000000000000, -0.0000000000000000000 ) ) ;
#205 = CARTESIAN_POINT ( 'NONE',  ( 2.569186519931232342E-18, 0.0000000000000000000, 0.0000000000000000000 ) ) ;
#206 = AXIS2_PLACEMENT_3D ( 'NONE', #53, #139, #243 ) ;
#207 = ADVANCED_FACE ( 'NONE', ( #219 ), #121, .T. ) ;
#208 = CARTESIAN_POINT ( 'NONE',  ( 0.04750000000000064587, 6.735557395310482421E-18, 1.500000000000000222 ) ) ;
#209 = APPLICATION_PROTOCOL_DEFINITION ( 'draft international standard', 'automotive_design', 1998, #130 ) ;
#210 = DIRECTION ( 'NONE',  ( -1.000000000000000000, 0.0000000000000000000, 1.224646799147353207E-16 ) ) ;
#211 = EDGE_CURVE ( 'NONE', #70, #272, #275, .T. ) ;
#212 = VECTOR ( 'NONE', #20, 39.37007874015748143 ) ;
#213 = DIRECTION ( 'NONE',  ( -1.000000000000000000, 0.0000000000000000000, 0.0000000000000000000 ) ) ;
#214 = DIMENSIONAL_EXPONENTS ( 1.000000000000000000, 0.0000000000000000000, 0.0000000000000000000, 0.0000000000000000000, 0.0000000000000000000, 0.0000000000000000000, 0.0000000000000000000 ) ;
#215 = CIRCLE ( 'NONE', #325, 0.01398600000000000017 ) ;
#216 = DIRECTION ( 'NONE',  ( -0.0000000000000000000, -0.0000000000000000000, -1.000000000000000000 ) ) ;
#217 = DIRECTION ( 'NONE',  ( 0.0000000000000000000, 0.0000000000000000000, 1.000000000000000000 ) ) ;
#218 = CARTESIAN_POINT ( 'NONE',  ( 0.0000000000000000000, 0.0000000000000000000, 1.500000000000000222 ) ) ;
#219 = FACE_OUTER_BOUND ( 'NONE', #58, .T. ) ;
#220 = SURFACE_STYLE_FILL_AREA ( #62 ) ;
#221 = CARTESIAN_POINT ( 'NONE',  ( 0.01398600000000000017, 1.712791013287488164E-18, -1.712791013287488357E-18 ) ) ;
#222 = ORIENTED_EDGE ( 'NONE', *, *, #267, .T. ) ;
#223 = DIRECTION ( 'NONE',  ( -1.000000000000000000, 0.0000000000000000000, 0.0000000000000000000 ) ) ;
#224 = VERTEX_POINT ( 'NONE', #241 ) ;
#225 = AXIS2_PLACEMENT_3D ( 'NONE', #230, #13, #43 ) ;
#226 = ORIENTED_EDGE ( 'NONE', *, *, #235, .F. ) ;
#227 = APPLICATION_CONTEXT ( 'automotive_design' ) ;
#228 = LINE ( 'NONE', #69, #233 ) ;
#229 = PRESENTATION_STYLE_ASSIGNMENT (( #63 ) ) ;
#230 = CARTESIAN_POINT ( 'NONE',  ( 1.712791013287488357E-18, 0.0000000000000000000, 0.01398600000000000017 ) ) ;
#231 = ADVANCED_FACE ( 'NONE', ( #95 ), #167, .T. ) ;
#232 = CARTESIAN_POINT ( 'NONE',  ( 0.0000000000000000000, 0.0000000000000000000, 1.500000000000000222 ) ) ;
#233 = VECTOR ( 'NONE', #155, 39.37007874015748143 ) ;
#234 = DIRECTION ( 'NONE',  ( 1.000000000000000000, 0.0000000000000000000, 0.0000000000000000000 ) ) ;
#235 = EDGE_CURVE ( 'NONE', #70, #224, #183, .T. ) ;
#236 = VECTOR ( 'NONE', #36, 39.37007874015747433 ) ;
#237 = DIRECTION ( 'NONE',  ( 0.0000000000000000000, 0.0000000000000000000, -1.000000000000000000 ) ) ;
#238 = AXIS2_PLACEMENT_3D ( 'NONE', #279, #204, #83 ) ;
#239 = LINE ( 'NONE', #76, #212 ) ;
#240 = COLOUR_RGB ( '',0.7921568627450980005, 0.8196078431372548767, 0.9333333333333333481 ) ;
#241 = CARTESIAN_POINT ( 'NONE',  ( 0.06250000000000000000, 7.654042494670956004E-18, 1.485000000000000764 ) ) ;
#242 = EDGE_LOOP ( 'NONE', ( #196, #21 ) ) ;
#243 = DIRECTION ( 'NONE',  ( 1.000000000000000000, 0.0000000000000000000, 0.0000000000000000000 ) ) ;
#244 = CARTESIAN_POINT ( 'NONE',  ( 0.01398600000000000537, 0.0000000000000000000, 0.04200000000000000955 ) ) ;
#245 = CIRCLE ( 'NONE', #289, 0.06250000000000000000 ) ;
#246 = PRESENTATION_LAYER_ASSIGNMENT (  '', '', ( #254 ) ) ;
#247 = ORIENTED_EDGE ( 'NONE', *, *, #51, .T. ) ;
#248 = DIRECTION ( 'NONE',  ( -1.224646799147353454E-16, -0.0000000000000000000, -1.000000000000000000 ) ) ;
#249 = ORIENTED_EDGE ( 'NONE', *, *, #317, .F. ) ;
#250 = ORIENTED_EDGE ( 'NONE', *, *, #31, .T. ) ;
#251 = APPLICATION_PROTOCOL_DEFINITION ( 'draft international standard', 'automotive_design', 1998, #227 ) ;
#252 = AXIS2_PLACEMENT_3D ( 'NONE', #163, #273, #269 ) ;
#253 = SURFACE_STYLE_USAGE ( .BOTH. , #60 ) ;
#254 = STYLED_ITEM ( 'NONE', ( #229 ), #322 ) ;
#255 = FACE_OUTER_BOUND ( 'NONE', #5, .T. ) ;
#256 = CARTESIAN_POINT ( 'NONE',  ( 0.0000000000000000000, 0.0000000000000000000, 1.485000000000000764 ) ) ;
#257 = ADVANCED_FACE ( 'NONE', ( #45 ), #101, .T. ) ;
#258 = CARTESIAN_POINT ( 'NONE',  ( 5.143516556418885177E-18, 0.0000000000000000000, 0.04200000000000000955 ) ) ;
#259 = AXIS2_PLACEMENT_3D ( 'NONE', #189, #24, #97 ) ;
#260 = PRODUCT_DEFINITION_SHAPE ( 'NONE', 'NONE',  #287 ) ;
#261 = STYLED_ITEM ( 'NONE', ( #35 ), #29 ) ;
#262 = CARTESIAN_POINT ( 'NONE',  ( 0.06250000000000004163, 7.654042494670960626E-18, 0.3171365661969320349 ) ) ;
#263 = EDGE_CURVE ( 'NONE', #321, #152, #4, .T. ) ;
#264 = ORIENTED_EDGE ( 'NONE', *, *, #38, .F. ) ;
#265 = VERTEX_POINT ( 'NONE', #170 ) ;
#266 = DIRECTION ( 'NONE',  ( 0.0000000000000000000, -1.000000000000000000, 0.0000000000000000000 ) ) ;
#267 = EDGE_CURVE ( 'NONE', #321, #265, #164, .T. ) ;
#268 = CIRCLE ( 'NONE', #14, 0.01398600000000000017 ) ;
#269 = DIRECTION ( 'NONE',  ( 1.000000000000000000, 0.0000000000000000000, 0.0000000000000000000 ) ) ;
#270 = DIRECTION ( 'NONE',  ( 1.000000000000000000, 0.0000000000000000000, -0.0000000000000000000 ) ) ;
#271 = DIMENSIONAL_EXPONENTS ( 1.000000000000000000, 0.0000000000000000000, 0.0000000000000000000, 0.0000000000000000000, 0.0000000000000000000, 0.0000000000000000000, 0.0000000000000000000 ) ;
#272 = VERTEX_POINT ( 'NONE', #194 ) ;
#273 = DIRECTION ( 'NONE',  ( 0.0000000000000000000, 0.0000000000000000000, 1.000000000000000000 ) ) ;
#274 = LENGTH_MEASURE_WITH_UNIT ( LENGTH_MEASURE( 0.02539999999999999897 ), #308 );
#275 = LINE ( 'NONE', #73, #142 ) ;
#276 = CIRCLE ( 'NONE', #191, 0.06250000000000000000 ) ;
#277 = ORIENTED_EDGE ( 'NONE', *, *, #180, .T. ) ;
#278 = SURFACE_STYLE_FILL_AREA ( #306 ) ;
#279 = CARTESIAN_POINT ( 'NONE',  ( 1.712791013287488357E-18, 0.0000000000000000000, 0.01398600000000000017 ) ) ;
#280 = FILL_AREA_STYLE_COLOUR ( '', #171 ) ;
#281 = PRODUCT_DEFINITION_FORMATION_WITH_SPECIFIED_SOURCE ( 'ANY', '', #312, .NOT_KNOWN. ) ;
#282 = ORIENTED_EDGE ( 'NONE', *, *, #288, .F. ) ;
#283 = DIRECTION ( 'NONE',  ( -1.224646799147353454E-16, -0.0000000000000000000, -1.000000000000000000 ) ) ;
#284 = CARTESIAN_POINT ( 'NONE',  ( 0.01398600000000000190, 1.712791013287488164E-18, 0.01398599999999999670 ) ) ;
#285 = CARTESIAN_POINT ( 'NONE',  ( 3.883802806856555380E-17, 0.0000000000000000000, 0.3171365661969320349 ) ) ;
#286 = AXIS2_PLACEMENT_3D ( 'NONE', #178, #283, #210 ) ;
#287 = PRODUCT_DEFINITION ( 'UNKNOWN', '', #281, #128 ) ;
#288 = EDGE_CURVE ( 'NONE', #324, #70, #239, .T. ) ;
#289 = AXIS2_PLACEMENT_3D ( 'NONE', #256, #237, #92 ) ;
#290 = SPHERICAL_SURFACE ( 'NONE', #225, 0.01398600000000000017 ) ;
#291 = ORIENTED_EDGE ( 'NONE', *, *, #38, .T. ) ;
#292 = CARTESIAN_POINT ( 'NONE',  ( 3.883802806856555380E-17, 0.0000000000000000000, 0.3171365661969320349 ) ) ;
#293 = ORIENTED_EDGE ( 'NONE', *, *, #85, .T. ) ;
#294 = EDGE_CURVE ( 'NONE', #324, #100, #74, .T. ) ;
#295 = DIRECTION ( 'NONE',  ( 0.0000000000000000000, 0.0000000000000000000, -1.000000000000000000 ) ) ;
#296 = UNCERTAINTY_MEASURE_WITH_UNIT (LENGTH_MEASURE( 1.000000000000000082E-05 ), #98, 'distance_accuracy_value', 'NONE');
#297 = VECTOR ( 'NONE', #132, 39.37007874015748143 ) ;
#298 = LINE ( 'NONE', #221, #119 ) ;
#299 = DIMENSIONAL_EXPONENTS ( 1.000000000000000000, 0.0000000000000000000, 0.0000000000000000000, 0.0000000000000000000, 0.0000000000000000000, 0.0000000000000000000, 0.0000000000000000000 ) ;
#300 = CARTESIAN_POINT ( 'NONE',  ( -0.01398600000000000017, 0.0000000000000000000, 1.712791013287488357E-18 ) ) ;
#301 = ORIENTED_EDGE ( 'NONE', *, *, #235, .T. ) ;
#302 = ORIENTED_EDGE ( 'NONE', *, *, #17, .T. ) ;
#303 = DIRECTION ( 'NONE',  ( -1.224646799147353454E-16, -0.0000000000000000000, -1.000000000000000000 ) ) ;
#304 = AXIS2_PLACEMENT_3D ( 'NONE', #117, #217, #26 ) ;
#305 = ORIENTED_EDGE ( 'NONE', *, *, #168, .F. ) ;
#306 = FILL_AREA_STYLE ('',( #314 ) ) ;
#307 = ORIENTED_EDGE ( 'NONE', *, *, #156, .T. ) ;
#308 =( LENGTH_UNIT ( ) NAMED_UNIT ( * ) SI_UNIT ( $, .METRE. ) );
#309 =( GEOMETRIC_REPRESENTATION_CONTEXT ( 3 ) GLOBAL_UNCERTAINTY_ASSIGNED_CONTEXT ( ( #192 ) ) GLOBAL_UNIT_ASSIGNED_CONTEXT ( ( #179, #104, #61 ) ) REPRESENTATION_CONTEXT ( 'NONE', 'WORKASPACE' ) );
#310 = CYLINDRICAL_SURFACE ( 'NONE', #286, 0.01398600000000000017 ) ;
#311 =( NAMED_UNIT ( * ) SI_UNIT ( $, .STERADIAN. ) SOLID_ANGLE_UNIT ( ) );
#312 = PRODUCT ( 'Micro_BMS-028-2X', 'Micro_BMS-028-2X', '', ( #173 ) ) ;
#313 = CYLINDRICAL_SURFACE ( 'NONE', #40, 0.06250000000000000000 ) ;
#314 = FILL_AREA_STYLE_COLOUR ( '', #240 ) ;
#315 = CARTESIAN_POINT ( 'NONE',  ( 1.712791013287488357E-18, 0.0000000000000000000, 0.01398600000000000017 ) ) ;
#316 = VECTOR ( 'NONE', #200, 39.37007874015748143 ) ;
#317 = EDGE_CURVE ( 'NONE', #100, #324, #80, .T. ) ;
#318 = AXIS2_PLACEMENT_3D ( 'NONE', #285, #67, #158 ) ;
#319 = CIRCLE ( 'NONE', #238, 0.01398600000000000017 ) ;
#320 = CARTESIAN_POINT ( 'NONE',  ( 0.0000000000000000000, 0.0000000000000000000, 1.500000000000000222 ) ) ;
#321 = VERTEX_POINT ( 'NONE', #141 ) ;
#322 = ADVANCED_BREP_SHAPE_REPRESENTATION ( 'Micro_BMS-028-2X', ( #29, #9 ), #309 ) ;
#323 = PLANE ( 'NONE',  #106 ) ;
#324 = VERTEX_POINT ( 'NONE', #99 ) ;
#325 = AXIS2_PLACEMENT_3D ( 'NONE', #186, #266, #295 ) ;
ENDSEC;
END-ISO-10303-21;
