ISO-10303-21;
HEADER;
FILE_DESCRIPTION (( 'STEP AP214' ),
    '1' );
FILE_NAME ('Micro_RDD-90.STEP',
    '2021-08-31T15:21:08',
    ( '' ),
    ( '' ),
    'SwSTEP 2.0',
    'SolidWorks 2020',
    '' );
FILE_SCHEMA (( 'AUTOMOTIVE_DESIGN' ));
ENDSEC;

DATA;
#1 = CYLINDRICAL_SURFACE ( 'NONE', #35, 0.1562500000000000000 ) ;
#2 =( LENGTH_UNIT ( ) NAMED_UNIT ( * ) SI_UNIT ( $, .METRE. ) );
#3 = PRODUCT_DEFINITION_FORMATION_WITH_SPECIFIED_SOURCE ( 'ANY', '', #223, .NOT_KNOWN. ) ;
#4 = CARTESIAN_POINT ( 'NONE',  ( 0.0000000000000000000, 0.0000000000000000000, 2.500000000000000000 ) ) ;
#5 = LENGTH_MEASURE_WITH_UNIT ( LENGTH_MEASURE( 0.02539999999999999897 ), #54 );
#6 = COLOUR_RGB ( '',0.7921568627450980005, 0.8196078431372548767, 0.9333333333333333481 ) ;
#7 = APPLICATION_PROTOCOL_DEFINITION ( 'draft international standard', 'automotive_design', 1998, #38 ) ;
#8 = EDGE_CURVE ( 'NONE', #312, #112, #271, .T. ) ;
#9 = CARTESIAN_POINT ( 'NONE',  ( 0.0000000000000000000, 0.0000000000000000000, 2.500000000000000000 ) ) ;
#10 = ORIENTED_EDGE ( 'NONE', *, *, #295, .F. ) ;
#11 = LINE ( 'NONE', #51, #126 ) ;
#12 = CIRCLE ( 'NONE', #278, 0.1560937499999999756 ) ;
#13 = DIRECTION ( 'NONE',  ( 1.000000000000000000, 0.0000000000000000000, -0.0000000000000000000 ) ) ;
#14 = VERTEX_POINT ( 'NONE', #277 ) ;
#15 = EDGE_LOOP ( 'NONE', ( #25, #156, #290, #72 ) ) ;
#16 = DIRECTION ( 'NONE',  ( 1.224646799147353207E-16, 0.0000000000000000000, 1.000000000000000000 ) ) ;
#17 = EDGE_LOOP ( 'NONE', ( #220, #187, #89, #192 ) ) ;
#18 = ORIENTED_EDGE ( 'NONE', *, *, #180, .T. ) ;
#19 = CARTESIAN_POINT ( 'NONE',  ( 1.224646799147353207E-16, 0.0000000000000000000, 1.000000000000000000 ) ) ;
#20 = CONICAL_SURFACE ( 'NONE', #218, 0.1412499999999994871, 0.7853981633974391752 ) ;
#21 = SURFACE_STYLE_USAGE ( .BOTH. , #133 ) ;
#22 = ORIENTED_EDGE ( 'NONE', *, *, #162, .T. ) ;
#23 = CARTESIAN_POINT ( 'NONE',  ( 4.821444091131312288E-15, 0.0000000000000000000, 39.37007874015748143 ) ) ;
#24 = EDGE_CURVE ( 'NONE', #239, #264, #253, .T. ) ;
#25 = ORIENTED_EDGE ( 'NONE', *, *, #255, .F. ) ;
#26 = DIRECTION ( 'NONE',  ( -1.224646799147353207E-16, -0.0000000000000000000, -1.000000000000000000 ) ) ;
#27 = PRESENTATION_STYLE_ASSIGNMENT (( #292 ) ) ;
#28 = CONICAL_SURFACE ( 'NONE', #195, 95.04777804618574066, 1.178097245096175749 ) ;
#29 = DIRECTION ( 'NONE',  ( -1.224646799147353207E-16, -0.0000000000000000000, -1.000000000000000000 ) ) ;
#30 = SURFACE_SIDE_STYLE ('',( #189 ) ) ;
#31 = ADVANCED_FACE ( 'NONE', ( #227 ), #20, .T. ) ;
#32 = SHAPE_DEFINITION_REPRESENTATION ( #296, #173 ) ;
#33 = UNCERTAINTY_MEASURE_WITH_UNIT (LENGTH_MEASURE( 1.000000000000000082E-05 ), #58, 'distance_accuracy_value', 'NONE');
#34 = DIRECTION ( 'NONE',  ( -1.224646799147353207E-16, -0.0000000000000000000, -1.000000000000000000 ) ) ;
#35 = AXIS2_PLACEMENT_3D ( 'NONE', #219, #165, #294 ) ;
#36 = DIRECTION ( 'NONE',  ( 1.000000000000000000, 0.0000000000000000000, 0.0000000000000000000 ) ) ;
#37 =( NAMED_UNIT ( * ) SI_UNIT ( $, .STERADIAN. ) SOLID_ANGLE_UNIT ( ) );
#38 = APPLICATION_CONTEXT ( 'automotive_design' ) ;
#39 = CIRCLE ( 'NONE', #238, 0.1562500000000000000 ) ;
#40 = VECTOR ( 'NONE', #78, 39.37007874015748143 ) ;
#41 =( GEOMETRIC_REPRESENTATION_CONTEXT ( 3 ) GLOBAL_UNCERTAINTY_ASSIGNED_CONTEXT ( ( #33 ) ) GLOBAL_UNIT_ASSIGNED_CONTEXT ( ( #58, #245, #37 ) ) REPRESENTATION_CONTEXT ( 'NONE', 'WORKASPACE' ) );
#42 = EDGE_CURVE ( 'NONE', #213, #112, #303, .T. ) ;
#43 = DIRECTION ( 'NONE',  ( 0.0000000000000000000, 0.0000000000000000000, -1.000000000000000000 ) ) ;
#44 = LINE ( 'NONE', #237, #146 ) ;
#45 = AXIS2_PLACEMENT_3D ( 'NONE', #49, #43, #310 ) ;
#46 = DIMENSIONAL_EXPONENTS ( 1.000000000000000000, 0.0000000000000000000, 0.0000000000000000000, 0.0000000000000000000, 0.0000000000000000000, 0.0000000000000000000, 0.0000000000000000000 ) ;
#47 = EDGE_LOOP ( 'NONE', ( #287, #317, #258 ) ) ;
#48 = DIRECTION ( 'NONE',  ( 1.224646799147353207E-16, 0.0000000000000000000, 1.000000000000000000 ) ) ;
#49 = CARTESIAN_POINT ( 'NONE',  ( 0.0000000000000000000, 0.0000000000000000000, 2.484999999999999432 ) ) ;
#50 = ORIENTED_EDGE ( 'NONE', *, *, #24, .F. ) ;
#51 = CARTESIAN_POINT ( 'NONE',  ( 0.0000000000000000000, 0.0000000000000000000, 0.0000000000000000000 ) ) ;
#52 = CLOSED_SHELL ( 'NONE', ( #64, #321, #247, #59, #170, #263, #124, #31, #252, #68, #288 ) ) ;
#53 = VECTOR ( 'NONE', #175, 39.37007874015748143 ) ;
#54 =( LENGTH_UNIT ( ) NAMED_UNIT ( * ) SI_UNIT ( $, .METRE. ) );
#55 = VERTEX_POINT ( 'NONE', #62 ) ;
#56 = DIRECTION ( 'NONE',  ( -1.224646799147353207E-16, -0.0000000000000000000, -1.000000000000000000 ) ) ;
#57 = VECTOR ( 'NONE', #29, 39.37007874015748143 ) ;
#58 =( CONVERSION_BASED_UNIT ( 'INCH', #144 ) LENGTH_UNIT ( ) NAMED_UNIT ( #46 ) );
#59 = ADVANCED_FACE ( 'NONE', ( #171 ), #304, .T. ) ;
#60 = DIRECTION ( 'NONE',  ( 0.0000000000000000000, 0.0000000000000000000, -1.000000000000000000 ) ) ;
#61 = VECTOR ( 'NONE', #67, 39.37007874015748143 ) ;
#62 = CARTESIAN_POINT ( 'NONE',  ( -0.1560937499999999756, 1.911597113044071690E-17, 0.06465614825167470547 ) ) ;
#63 = DIRECTION ( 'NONE',  ( 0.0000000000000000000, 0.0000000000000000000, -1.000000000000000000 ) ) ;
#64 = ADVANCED_FACE ( 'NONE', ( #182 ), #177, .T. ) ;
#65 =( GEOMETRIC_REPRESENTATION_CONTEXT ( 3 ) GLOBAL_UNCERTAINTY_ASSIGNED_CONTEXT ( ( #216 ) ) GLOBAL_UNIT_ASSIGNED_CONTEXT ( ( #98, #119, #214 ) ) REPRESENTATION_CONTEXT ( 'NONE', 'WORKASPACE' ) );
#66 = DIRECTION ( 'NONE',  ( -1.000000000000000000, 0.0000000000000000000, 0.0000000000000000000 ) ) ;
#67 = DIRECTION ( 'NONE',  ( -0.0000000000000000000, -0.0000000000000000000, -1.000000000000000000 ) ) ;
#68 = ADVANCED_FACE ( 'NONE', ( #222 ), #28, .T. ) ;
#69 = ORIENTED_EDGE ( 'NONE', *, *, #221, .F. ) ;
#70 = CIRCLE ( 'NONE', #272, 0.1560937499999999478 ) ;
#71 = FACE_OUTER_BOUND ( 'NONE', #132, .T. ) ;
#72 = ORIENTED_EDGE ( 'NONE', *, *, #162, .F. ) ;
#73 = CARTESIAN_POINT ( 'NONE',  ( 0.1560937500000000866, 0.0000000000000000000, 1.000000000000000000 ) ) ;
#74 = ORIENTED_EDGE ( 'NONE', *, *, #180, .F. ) ;
#75 = ORIENTED_EDGE ( 'NONE', *, *, #226, .F. ) ;
#76 = CARTESIAN_POINT ( 'NONE',  ( 0.1412499999999994871, 1.821662113731684786E-17, 2.500000000000000000 ) ) ;
#77 = CIRCLE ( 'NONE', #109, 0.1412499999999994871 ) ;
#78 = DIRECTION ( 'NONE',  ( -1.224646799147353207E-16, -0.0000000000000000000, -1.000000000000000000 ) ) ;
#79 = DIRECTION ( 'NONE',  ( 0.9238795325112879597, 0.0000000000000000000, 0.3826834323650865621 ) ) ;
#80 = EDGE_CURVE ( 'NONE', #213, #114, #70, .T. ) ;
#81 = FILL_AREA_STYLE_COLOUR ( '', #6 ) ;
#82 = DIRECTION ( 'NONE',  ( 1.000000000000000000, 0.0000000000000000000, -1.379608302175842567E-16 ) ) ;
#83 = CARTESIAN_POINT ( 'NONE',  ( -0.1560937499999998090, 1.911597113044071073E-17, 1.000000000000000000 ) ) ;
#84 = DIMENSIONAL_EXPONENTS ( 1.000000000000000000, 0.0000000000000000000, 0.0000000000000000000, 0.0000000000000000000, 0.0000000000000000000, 0.0000000000000000000, 0.0000000000000000000 ) ;
#85 = LINE ( 'NONE', #110, #136 ) ;
#86 = CARTESIAN_POINT ( 'NONE',  ( 0.0000000000000000000, 0.0000000000000000000, 2.484999999999999432 ) ) ;
#87 =( NAMED_UNIT ( * ) PLANE_ANGLE_UNIT ( ) SI_UNIT ( $, .RADIAN. ) );
#88 = MANIFOLD_SOLID_BREP ( 'Cut-Revolve1', #52 ) ;
#89 = ORIENTED_EDGE ( 'NONE', *, *, #106, .T. ) ;
#90 =( CONVERSION_BASED_UNIT ( 'INCH', #5 ) LENGTH_UNIT ( ) NAMED_UNIT ( #260 ) );
#91 = EDGE_LOOP ( 'NONE', ( #94, #141, #313, #10 ) ) ;
#92 = EDGE_LOOP ( 'NONE', ( #269, #183, #178, #205 ) ) ;
#93 = DIRECTION ( 'NONE',  ( 0.0000000000000000000, 0.0000000000000000000, 1.000000000000000000 ) ) ;
#94 = ORIENTED_EDGE ( 'NONE', *, *, #80, .T. ) ;
#95 = CARTESIAN_POINT ( 'NONE',  ( 0.0000000000000000000, 0.0000000000000000000, 0.0000000000000000000 ) ) ;
#96 = PRODUCT_RELATED_PRODUCT_CATEGORY ( 'part', '', ( #223 ) ) ;
#97 = DIRECTION ( 'NONE',  ( -1.000000000000000000, 0.0000000000000000000, 0.0000000000000000000 ) ) ;
#98 =( CONVERSION_BASED_UNIT ( 'INCH', #139 ) LENGTH_UNIT ( ) NAMED_UNIT ( #84 ) );
#99 = VECTOR ( 'NONE', #279, 39.37007874015748143 ) ;
#100 = EDGE_CURVE ( 'NONE', #14, #212, #315, .T. ) ;
#101 = CARTESIAN_POINT ( 'NONE',  ( 0.0000000000000000000, 0.0000000000000000000, 2.500000000000000000 ) ) ;
#102 = DIRECTION ( 'NONE',  ( 1.000000000000000000, 0.0000000000000000000, 0.0000000000000000000 ) ) ;
#103 = VECTOR ( 'NONE', #259, 39.37007874015748854 ) ;
#104 = MECHANICAL_DESIGN_GEOMETRIC_PRESENTATION_REPRESENTATION (  '', ( #308 ), #41 ) ;
#105 = DIRECTION ( 'NONE',  ( -0.9238795325112879597, 1.131426112287701740E-16, 0.3826834323650867842 ) ) ;
#106 = EDGE_CURVE ( 'NONE', #112, #312, #281, .T. ) ;
#107 = AXIS2_PLACEMENT_3D ( 'NONE', #198, #34, #36 ) ;
#108 =( NAMED_UNIT ( * ) SI_UNIT ( $, .STERADIAN. ) SOLID_ANGLE_UNIT ( ) );
#109 = AXIS2_PLACEMENT_3D ( 'NONE', #240, #93, #273 ) ;
#110 = CARTESIAN_POINT ( 'NONE',  ( 0.1560937500000000866, 0.0000000000000000000, 1.000000000000000000 ) ) ;
#111 = EDGE_LOOP ( 'NONE', ( #275, #241, #22 ) ) ;
#112 = VERTEX_POINT ( 'NONE', #230 ) ;
#113 = DIRECTION ( 'NONE',  ( 1.000000000000000000, 0.0000000000000000000, 0.0000000000000000000 ) ) ;
#114 = VERTEX_POINT ( 'NONE', #73 ) ;
#115 = CARTESIAN_POINT ( 'NONE',  ( -0.1562500000000000000, 0.0000000000000000000, 2.500000000000000000 ) ) ;
#116 = EDGE_CURVE ( 'NONE', #212, #312, #282, .T. ) ;
#117 = PRESENTATION_STYLE_ASSIGNMENT (( #21 ) ) ;
#118 = ORIENTED_EDGE ( 'NONE', *, *, #155, .T. ) ;
#119 =( NAMED_UNIT ( * ) PLANE_ANGLE_UNIT ( ) SI_UNIT ( $, .RADIAN. ) );
#120 = ORIENTED_EDGE ( 'NONE', *, *, #116, .F. ) ;
#121 = DIRECTION ( 'NONE',  ( -1.000000000000000000, 0.0000000000000000000, 1.224646799147353207E-16 ) ) ;
#122 = EDGE_CURVE ( 'NONE', #114, #312, #85, .T. ) ;
#123 = AXIS2_PLACEMENT_3D ( 'NONE', #318, #16, #113 ) ;
#124 = ADVANCED_FACE ( 'NONE', ( #71 ), #184, .T. ) ;
#125 =( LENGTH_UNIT ( ) NAMED_UNIT ( * ) SI_UNIT ( $, .METRE. ) );
#126 = VECTOR ( 'NONE', #105, 39.37007874015748854 ) ;
#127 = DIRECTION ( 'NONE',  ( 0.1736481776669314969, 0.0000000000000000000, 0.9848077530122077983 ) ) ;
#128 = CARTESIAN_POINT ( 'NONE',  ( 0.1412499999999994871, 1.729813603795630110E-17, 2.500000000000000000 ) ) ;
#129 = ORIENTED_EDGE ( 'NONE', *, *, #267, .F. ) ;
#130 = DIRECTION ( 'NONE',  ( 1.000000000000000000, 0.0000000000000000000, 0.0000000000000000000 ) ) ;
#131 = FACE_OUTER_BOUND ( 'NONE', #92, .T. ) ;
#132 = EDGE_LOOP ( 'NONE', ( #206, #211 ) ) ;
#133 = SURFACE_SIDE_STYLE ('',( #172 ) ) ;
#134 = VERTEX_POINT ( 'NONE', #202 ) ;
#135 = CARTESIAN_POINT ( 'NONE',  ( 0.0000000000000000000, 0.0000000000000000000, 0.0000000000000000000 ) ) ;
#136 = VECTOR ( 'NONE', #127, 39.37007874015748143 ) ;
#137 = CONICAL_SURFACE ( 'NONE', #254, 95.04777804618574066, 1.178097245096175749 ) ;
#138 = ORIENTED_EDGE ( 'NONE', *, *, #274, .F. ) ;
#139 = LENGTH_MEASURE_WITH_UNIT ( LENGTH_MEASURE( 0.02539999999999999897 ), #2 );
#140 = UNCERTAINTY_MEASURE_WITH_UNIT (LENGTH_MEASURE( 1.000000000000000082E-05 ), #90, 'distance_accuracy_value', 'NONE');
#141 = ORIENTED_EDGE ( 'NONE', *, *, #255, .T. ) ;
#142 = CONICAL_SURFACE ( 'NONE', #307, 0.1560937499999999478, 0.1745329251994340025 ) ;
#143 = VECTOR ( 'NONE', #79, 39.37007874015748854 ) ;
#144 = LENGTH_MEASURE_WITH_UNIT ( LENGTH_MEASURE( 0.02539999999999999897 ), #125 );
#145 = CARTESIAN_POINT ( 'NONE',  ( 0.0000000000000000000, 0.0000000000000000000, 0.0000000000000000000 ) ) ;
#146 = VECTOR ( 'NONE', #179, 39.37007874015748854 ) ;
#147 = PRODUCT_DEFINITION ( 'UNKNOWN', '', #3, #224 ) ;
#148 = DIRECTION ( 'NONE',  ( -1.000000000000000000, 0.0000000000000000000, 0.0000000000000000000 ) ) ;
#149 = AXIS2_PLACEMENT_3D ( 'NONE', #9, #232, #176 ) ;
#150 = DIRECTION ( 'NONE',  ( 1.000000000000000000, 0.0000000000000000000, 0.0000000000000000000 ) ) ;
#151 = APPLICATION_CONTEXT ( 'automotive_design' ) ;
#152 = EDGE_LOOP ( 'NONE', ( #75, #50, #188, #74 ) ) ;
#153 = ORIENTED_EDGE ( 'NONE', *, *, #100, .F. ) ;
#154 = AXIS2_PLACEMENT_3D ( 'NONE', #280, #63, #148 ) ;
#155 = EDGE_CURVE ( 'NONE', #14, #112, #186, .T. ) ;
#156 = ORIENTED_EDGE ( 'NONE', *, *, #267, .T. ) ;
#157 = DIRECTION ( 'NONE',  ( -1.224646799147353207E-16, -0.0000000000000000000, -1.000000000000000000 ) ) ;
#158 = DIRECTION ( 'NONE',  ( 0.0000000000000000000, 0.0000000000000000000, 1.000000000000000000 ) ) ;
#159 = EDGE_LOOP ( 'NONE', ( #120, #18, #118, #309 ) ) ;
#160 = DIRECTION ( 'NONE',  ( -1.224646799147353207E-16, -0.0000000000000000000, -1.000000000000000000 ) ) ;
#161 = CONICAL_SURFACE ( 'NONE', #123, 0.1560937499999999478, 0.1745329251994340025 ) ;
#162 = EDGE_CURVE ( 'NONE', #134, #55, #250, .T. ) ;
#163 = LINE ( 'NONE', #95, #143 ) ;
#164 = DIRECTION ( 'NONE',  ( 1.224646799147353207E-16, 0.0000000000000000000, 1.000000000000000000 ) ) ;
#165 = DIRECTION ( 'NONE',  ( -0.0000000000000000000, -0.0000000000000000000, -1.000000000000000000 ) ) ;
#166 = ORIENTED_EDGE ( 'NONE', *, *, #42, .F. ) ;
#167 = STYLED_ITEM ( 'NONE', ( #117 ), #88 ) ;
#168 = CYLINDRICAL_SURFACE ( 'NONE', #196, 0.1560937499999999478 ) ;
#169 = CARTESIAN_POINT ( 'NONE',  ( 1.224646799147353207E-16, 0.0000000000000000000, 1.000000000000000000 ) ) ;
#170 = ADVANCED_FACE ( 'NONE', ( #131 ), #262, .T. ) ;
#171 = FACE_OUTER_BOUND ( 'NONE', #319, .T. ) ;
#172 = SURFACE_STYLE_FILL_AREA ( #181 ) ;
#173 = ADVANCED_BREP_SHAPE_REPRESENTATION ( 'Micro_RDD-90', ( #88, #234 ), #65 ) ;
#174 = AXIS2_PLACEMENT_3D ( 'NONE', #4, #248, #102 ) ;
#175 = DIRECTION ( 'NONE',  ( -0.0000000000000000000, -0.0000000000000000000, -1.000000000000000000 ) ) ;
#176 = DIRECTION ( 'NONE',  ( -1.000000000000000000, 0.0000000000000000000, 0.0000000000000000000 ) ) ;
#177 = CYLINDRICAL_SURFACE ( 'NONE', #286, 0.1560937499999999478 ) ;
#178 = ORIENTED_EDGE ( 'NONE', *, *, #106, .F. ) ;
#179 = DIRECTION ( 'NONE',  ( -0.7071067811865410224, 0.0000000000000000000, -0.7071067811865539010 ) ) ;
#180 = EDGE_CURVE ( 'NONE', #212, #14, #39, .T. ) ;
#181 = FILL_AREA_STYLE ('',( #268 ) ) ;
#182 = FACE_OUTER_BOUND ( 'NONE', #91, .T. ) ;
#183 = ORIENTED_EDGE ( 'NONE', *, *, #116, .T. ) ;
#184 = PLANE ( 'NONE',  #243 ) ;
#185 = CIRCLE ( 'NONE', #316, 0.1560937499999999478 ) ;
#186 = LINE ( 'NONE', #115, #61 ) ;
#187 = ORIENTED_EDGE ( 'NONE', *, *, #42, .T. ) ;
#188 = ORIENTED_EDGE ( 'NONE', *, *, #221, .T. ) ;
#189 = SURFACE_STYLE_FILL_AREA ( #242 ) ;
#190 = CARTESIAN_POINT ( 'NONE',  ( 0.1560937499999999478, 1.911597113044071073E-17, -1.911597113044071073E-17 ) ) ;
#191 = CARTESIAN_POINT ( 'NONE',  ( -0.1560937499999999478, 0.0000000000000000000, 1.911597113044071073E-17 ) ) ;
#192 = ORIENTED_EDGE ( 'NONE', *, *, #122, .F. ) ;
#193 = FACE_OUTER_BOUND ( 'NONE', #15, .T. ) ;
#194 = FACE_OUTER_BOUND ( 'NONE', #47, .T. ) ;
#195 = AXIS2_PLACEMENT_3D ( 'NONE', #197, #302, #82 ) ;
#196 = AXIS2_PLACEMENT_3D ( 'NONE', #135, #56, #121 ) ;
#197 = CARTESIAN_POINT ( 'NONE',  ( 4.821444091131312288E-15, 0.0000000000000000000, 39.37007874015748143 ) ) ;
#198 = CARTESIAN_POINT ( 'NONE',  ( 1.225732004948518823E-16, 0.0000000000000000000, 1.000886137784315455 ) ) ;
#199 = DIRECTION ( 'NONE',  ( -1.000000000000000000, 0.0000000000000000000, 0.0000000000000000000 ) ) ;
#200 = AXIS2_PLACEMENT_3D ( 'NONE', #314, #157, #289 ) ;
#201 = EDGE_CURVE ( 'NONE', #299, #55, #11, .T. ) ;
#202 = CARTESIAN_POINT ( 'NONE',  ( 0.1560937499999999756, 0.0000000000000000000, 0.06465614825167467772 ) ) ;
#203 = CARTESIAN_POINT ( 'NONE',  ( 7.918094500161015312E-18, 0.0000000000000000000, 0.06465614825167469160 ) ) ;
#204 = DIRECTION ( 'NONE',  ( 0.0000000000000000000, 0.0000000000000000000, -1.000000000000000000 ) ) ;
#205 = ORIENTED_EDGE ( 'NONE', *, *, #155, .F. ) ;
#206 = ORIENTED_EDGE ( 'NONE', *, *, #24, .T. ) ;
#207 = DIRECTION ( 'NONE',  ( -1.224646799147353207E-16, -0.0000000000000000000, -1.000000000000000000 ) ) ;
#208 = ORIENTED_EDGE ( 'NONE', *, *, #8, .T. ) ;
#209 = CARTESIAN_POINT ( 'NONE',  ( -0.1412499999999994871, 0.0000000000000000000, 2.500000000000000000 ) ) ;
#210 = PRESENTATION_LAYER_ASSIGNMENT (  '', '', ( #308 ) ) ;
#211 = ORIENTED_EDGE ( 'NONE', *, *, #274, .T. ) ;
#212 = VERTEX_POINT ( 'NONE', #284 ) ;
#213 = VERTEX_POINT ( 'NONE', #256 ) ;
#214 =( NAMED_UNIT ( * ) SI_UNIT ( $, .STERADIAN. ) SOLID_ANGLE_UNIT ( ) );
#215 = LINE ( 'NONE', #191, #40 ) ;
#216 = UNCERTAINTY_MEASURE_WITH_UNIT (LENGTH_MEASURE( 1.000000000000000082E-05 ), #98, 'distance_accuracy_value', 'NONE');
#217 = FACE_OUTER_BOUND ( 'NONE', #159, .T. ) ;
#218 = AXIS2_PLACEMENT_3D ( 'NONE', #101, #60, #199 ) ;
#219 = CARTESIAN_POINT ( 'NONE',  ( 0.0000000000000000000, 0.0000000000000000000, 2.500000000000000000 ) ) ;
#220 = ORIENTED_EDGE ( 'NONE', *, *, #80, .F. ) ;
#221 = EDGE_CURVE ( 'NONE', #239, #14, #44, .T. ) ;
#222 = FACE_OUTER_BOUND ( 'NONE', #111, .T. ) ;
#223 = PRODUCT ( 'Micro_RDD-90', 'Micro_RDD-90', '', ( #229 ) ) ;
#224 = PRODUCT_DEFINITION_CONTEXT ( 'detailed design', #38, 'design' ) ;
#225 = MECHANICAL_DESIGN_GEOMETRIC_PRESENTATION_REPRESENTATION (  '', ( #167 ), #228 ) ;
#226 = EDGE_CURVE ( 'NONE', #264, #212, #285, .T. ) ;
#227 = FACE_OUTER_BOUND ( 'NONE', #152, .T. ) ;
#228 =( GEOMETRIC_REPRESENTATION_CONTEXT ( 3 ) GLOBAL_UNCERTAINTY_ASSIGNED_CONTEXT ( ( #140 ) ) GLOBAL_UNIT_ASSIGNED_CONTEXT ( ( #90, #87, #108 ) ) REPRESENTATION_CONTEXT ( 'NONE', 'WORKASPACE' ) );
#229 = PRODUCT_CONTEXT ( 'NONE', #151, 'mechanical' ) ;
#230 = CARTESIAN_POINT ( 'NONE',  ( -0.1562499999999998612, 0.0000000000000000000, 1.000886137784315455 ) ) ;
#231 = ORIENTED_EDGE ( 'NONE', *, *, #226, .T. ) ;
#232 = DIRECTION ( 'NONE',  ( -0.0000000000000000000, -0.0000000000000000000, -1.000000000000000000 ) ) ;
#233 = PRESENTATION_LAYER_ASSIGNMENT (  '', '', ( #167 ) ) ;
#234 = AXIS2_PLACEMENT_3D ( 'NONE', #145, #251, #301 ) ;
#235 = CARTESIAN_POINT ( 'NONE',  ( 0.1562500000000000000, 1.913510623667739463E-17, 2.500000000000000000 ) ) ;
#236 = FACE_OUTER_BOUND ( 'NONE', #291, .T. ) ;
#237 = CARTESIAN_POINT ( 'NONE',  ( -0.1412499999999994871, 0.0000000000000000000, 2.500000000000000000 ) ) ;
#238 = AXIS2_PLACEMENT_3D ( 'NONE', #86, #204, #150 ) ;
#239 = VERTEX_POINT ( 'NONE', #209 ) ;
#240 = CARTESIAN_POINT ( 'NONE',  ( 0.0000000000000000000, 0.0000000000000000000, 2.500000000000000000 ) ) ;
#241 = ORIENTED_EDGE ( 'NONE', *, *, #305, .T. ) ;
#242 = FILL_AREA_STYLE ('',( #81 ) ) ;
#243 = AXIS2_PLACEMENT_3D ( 'NONE', #261, #158, #13 ) ;
#244 = DIRECTION ( 'NONE',  ( 1.000000000000000000, 0.0000000000000000000, -1.379608302175842567E-16 ) ) ;
#245 =( NAMED_UNIT ( * ) PLANE_ANGLE_UNIT ( ) SI_UNIT ( $, .RADIAN. ) );
#246 = DIRECTION ( 'NONE',  ( -1.224646799147353207E-16, -0.0000000000000000000, -1.000000000000000000 ) ) ;
#247 = ADVANCED_FACE ( 'NONE', ( #306 ), #142, .T. ) ;
#248 = DIRECTION ( 'NONE',  ( 0.0000000000000000000, 0.0000000000000000000, 1.000000000000000000 ) ) ;
#249 = DIRECTION ( 'NONE',  ( -1.224646799147353207E-16, -0.0000000000000000000, -1.000000000000000000 ) ) ;
#250 = CIRCLE ( 'NONE', #293, 0.1560937499999999756 ) ;
#251 = DIRECTION ( 'NONE',  ( 0.0000000000000000000, 0.0000000000000000000, 1.000000000000000000 ) ) ;
#252 = ADVANCED_FACE ( 'NONE', ( #236 ), #161, .T. ) ;
#253 = CIRCLE ( 'NONE', #174, 0.1412499999999994871 ) ;
#254 = AXIS2_PLACEMENT_3D ( 'NONE', #23, #164, #244 ) ;
#255 = EDGE_CURVE ( 'NONE', #114, #134, #265, .T. ) ;
#256 = CARTESIAN_POINT ( 'NONE',  ( -0.1560937499999998090, 1.912553868355905422E-17, 1.000000000000000000 ) ) ;
#257 = ORIENTED_EDGE ( 'NONE', *, *, #122, .T. ) ;
#258 = ORIENTED_EDGE ( 'NONE', *, *, #283, .T. ) ;
#259 = DIRECTION ( 'NONE',  ( 0.7071067811865410224, 8.659560562354852739E-17, -0.7071067811865539010 ) ) ;
#260 = DIMENSIONAL_EXPONENTS ( 1.000000000000000000, 0.0000000000000000000, 0.0000000000000000000, 0.0000000000000000000, 0.0000000000000000000, 0.0000000000000000000, 0.0000000000000000000 ) ;
#261 = CARTESIAN_POINT ( 'NONE',  ( 0.0000000000000000000, 0.0000000000000000000, 2.500000000000000000 ) ) ;
#262 = CYLINDRICAL_SURFACE ( 'NONE', #149, 0.1562500000000000000 ) ;
#263 = ADVANCED_FACE ( 'NONE', ( #217 ), #1, .T. ) ;
#264 = VERTEX_POINT ( 'NONE', #76 ) ;
#265 = LINE ( 'NONE', #190, #57 ) ;
#266 = CARTESIAN_POINT ( 'NONE',  ( 0.1562500000000001388, 1.913510623667741004E-17, 1.000886137784315455 ) ) ;
#267 = EDGE_CURVE ( 'NONE', #114, #213, #185, .T. ) ;
#268 = FILL_AREA_STYLE_COLOUR ( '', #322 ) ;
#269 = ORIENTED_EDGE ( 'NONE', *, *, #100, .T. ) ;
#270 = CARTESIAN_POINT ( 'NONE',  ( 1.224646799147353207E-16, 0.0000000000000000000, 1.000000000000000000 ) ) ;
#271 = CIRCLE ( 'NONE', #107, 0.1562500000000000000 ) ;
#272 = AXIS2_PLACEMENT_3D ( 'NONE', #169, #249, #66 ) ;
#273 = DIRECTION ( 'NONE',  ( 1.000000000000000000, 0.0000000000000000000, 0.0000000000000000000 ) ) ;
#274 = EDGE_CURVE ( 'NONE', #264, #239, #77, .T. ) ;
#275 = ORIENTED_EDGE ( 'NONE', *, *, #201, .F. ) ;
#276 = CARTESIAN_POINT ( 'NONE',  ( 0.0000000000000000000, 0.0000000000000000000, 0.0000000000000000000 ) ) ;
#277 = CARTESIAN_POINT ( 'NONE',  ( -0.1562500000000000000, 0.0000000000000000000, 2.484999999999999432 ) ) ;
#278 = AXIS2_PLACEMENT_3D ( 'NONE', #323, #160, #297 ) ;
#279 = DIRECTION ( 'NONE',  ( -0.1736481776669312749, 2.126576849575784241E-17, 0.9848077530122077983 ) ) ;
#280 = CARTESIAN_POINT ( 'NONE',  ( 0.0000000000000000000, 0.0000000000000000000, 2.500000000000000000 ) ) ;
#281 = CIRCLE ( 'NONE', #200, 0.1562500000000000000 ) ;
#282 = LINE ( 'NONE', #235, #53 ) ;
#283 = EDGE_CURVE ( 'NONE', #55, #134, #12, .T. ) ;
#284 = CARTESIAN_POINT ( 'NONE',  ( 0.1562500000000000000, 1.913510623667739463E-17, 2.484999999999999432 ) ) ;
#285 = LINE ( 'NONE', #128, #103 ) ;
#286 = AXIS2_PLACEMENT_3D ( 'NONE', #276, #246, #300 ) ;
#287 = ORIENTED_EDGE ( 'NONE', *, *, #305, .F. ) ;
#288 = ADVANCED_FACE ( 'NONE', ( #193 ), #168, .T. ) ;
#289 = DIRECTION ( 'NONE',  ( 1.000000000000000000, 0.0000000000000000000, 0.0000000000000000000 ) ) ;
#290 = ORIENTED_EDGE ( 'NONE', *, *, #295, .T. ) ;
#291 = EDGE_LOOP ( 'NONE', ( #166, #129, #257, #208 ) ) ;
#292 = SURFACE_STYLE_USAGE ( .BOTH. , #30 ) ;
#293 = AXIS2_PLACEMENT_3D ( 'NONE', #203, #207, #311 ) ;
#294 = DIRECTION ( 'NONE',  ( -1.000000000000000000, 0.0000000000000000000, 0.0000000000000000000 ) ) ;
#295 = EDGE_CURVE ( 'NONE', #213, #55, #215, .T. ) ;
#296 = PRODUCT_DEFINITION_SHAPE ( 'NONE', 'NONE',  #147 ) ;
#297 = DIRECTION ( 'NONE',  ( -1.000000000000000000, 0.0000000000000000000, 1.093833030496201609E-16 ) ) ;
#298 = APPLICATION_PROTOCOL_DEFINITION ( 'draft international standard', 'automotive_design', 1998, #151 ) ;
#299 = VERTEX_POINT ( 'NONE', #320 ) ;
#300 = DIRECTION ( 'NONE',  ( -1.000000000000000000, 0.0000000000000000000, 1.224646799147353207E-16 ) ) ;
#301 = DIRECTION ( 'NONE',  ( 1.000000000000000000, 0.0000000000000000000, 0.0000000000000000000 ) ) ;
#302 = DIRECTION ( 'NONE',  ( 1.224646799147353207E-16, 0.0000000000000000000, 1.000000000000000000 ) ) ;
#303 = LINE ( 'NONE', #83, #99 ) ;
#304 = CONICAL_SURFACE ( 'NONE', #154, 0.1412499999999994871, 0.7853981633974391752 ) ;
#305 = EDGE_CURVE ( 'NONE', #299, #134, #163, .T. ) ;
#306 = FACE_OUTER_BOUND ( 'NONE', #17, .T. ) ;
#307 = AXIS2_PLACEMENT_3D ( 'NONE', #19, #48, #130 ) ;
#308 = STYLED_ITEM ( 'NONE', ( #27 ), #173 ) ;
#309 = ORIENTED_EDGE ( 'NONE', *, *, #8, .F. ) ;
#310 = DIRECTION ( 'NONE',  ( 1.000000000000000000, 0.0000000000000000000, 0.0000000000000000000 ) ) ;
#311 = DIRECTION ( 'NONE',  ( -1.000000000000000000, 0.0000000000000000000, 1.093833030496201609E-16 ) ) ;
#312 = VERTEX_POINT ( 'NONE', #266 ) ;
#313 = ORIENTED_EDGE ( 'NONE', *, *, #283, .F. ) ;
#314 = CARTESIAN_POINT ( 'NONE',  ( 1.225732004948518823E-16, 0.0000000000000000000, 1.000886137784315455 ) ) ;
#315 = CIRCLE ( 'NONE', #45, 0.1562500000000000000 ) ;
#316 = AXIS2_PLACEMENT_3D ( 'NONE', #270, #26, #97 ) ;
#317 = ORIENTED_EDGE ( 'NONE', *, *, #201, .T. ) ;
#318 = CARTESIAN_POINT ( 'NONE',  ( 1.224646799147353207E-16, 0.0000000000000000000, 1.000000000000000000 ) ) ;
#319 = EDGE_LOOP ( 'NONE', ( #138, #231, #153, #69 ) ) ;
#320 = CARTESIAN_POINT ( 'NONE',  ( 0.0000000000000000000, 0.0000000000000000000, 0.0000000000000000000 ) ) ;
#321 = ADVANCED_FACE ( 'NONE', ( #194 ), #137, .T. ) ;
#322 = COLOUR_RGB ( '',0.7921568627450980005, 0.8196078431372548767, 0.9333333333333333481 ) ;
#323 = CARTESIAN_POINT ( 'NONE',  ( 7.918094500161015312E-18, 0.0000000000000000000, 0.06465614825167469160 ) ) ;
ENDSEC;
END-ISO-10303-21;
