ISO-10303-21;
HEADER;
FILE_DESCRIPTION (( 'STEP AP214' ),
    '1' );
FILE_NAME ('82275.STEP',
    '2023-06-23T05:25:18',
    ( '' ),
    ( '' ),
    'SwSTEP 2.0',
    'SolidWorks 2023',
    '' );
FILE_SCHEMA (( 'AUTOMOTIVE_DESIGN' ));
ENDSEC;

DATA;
#1 = ORIENTED_EDGE ( 'NONE', *, *, #48, .T. ) ;
#2 = SURFACE_STYLE_FILL_AREA ( #221 ) ;
#3 = VERTEX_POINT ( 'NONE', #201 ) ;
#4 =( NAMED_UNIT ( * ) SI_UNIT ( $, .STERADIAN. ) SOLID_ANGLE_UNIT ( ) );
#5 = PRESENTATION_LAYER_ASSIGNMENT (  '', '', ( #90 ) ) ;
#6 = ADVANCED_FACE ( 'NONE', ( #58 ), #77, .T. ) ;
#7 = LENGTH_MEASURE_WITH_UNIT ( LENGTH_MEASURE( 0.02539999999999999897 ), #207 );
#8 = FACE_OUTER_BOUND ( 'NONE', #121, .T. ) ;
#9 = SURFACE_SIDE_STYLE ('',( #249 ) ) ;
#10 = AXIS2_PLACEMENT_3D ( 'NONE', #254, #111, #39 ) ;
#11 = CARTESIAN_POINT ( 'NONE',  ( 0.3750000000000000555, 5.000000000000000000, 4.592425496802576684E-17 ) ) ;
#12 = UNCERTAINTY_MEASURE_WITH_UNIT (LENGTH_MEASURE( 1.000000000000000082E-05 ), #203, 'distance_accuracy_value', 'NONE');
#13 = PLANE ( 'NONE',  #126 ) ;
#14 = ADVANCED_FACE ( 'NONE', ( #239 ), #269, .T. ) ;
#15 = CARTESIAN_POINT ( 'NONE',  ( 0.000000000000000000, 0.000000000000000000, 0.000000000000000000 ) ) ;
#16 = COLOUR_RGB ( '',1.000000000000000000, 0.000000000000000000, 0.000000000000000000 ) ;
#17 = AXIS2_PLACEMENT_3D ( 'NONE', #205, #109, #187 ) ;
#18 = DIMENSIONAL_EXPONENTS ( 1.000000000000000000, 0.000000000000000000, 0.000000000000000000, 0.000000000000000000, 0.000000000000000000, 0.000000000000000000, 0.000000000000000000 ) ;
#19 = CARTESIAN_POINT ( 'NONE',  ( 1.516480271171051896E-32, 2.250000000000000444, 0.000000000000000000 ) ) ;
#20 = FILL_AREA_STYLE ('',( #264 ) ) ;
#21 = EDGE_CURVE ( 'NONE', #291, #28, #188, .T. ) ;
#22 = PRESENTATION_LAYER_ASSIGNMENT (  '', '', ( #59 ) ) ;
#23 = EDGE_LOOP ( 'NONE', ( #271, #185 ) ) ;
#24 = ORIENTED_EDGE ( 'NONE', *, *, #145, .T. ) ;
#25 = CLOSED_SHELL ( 'NONE', ( #233, #259, #6, #186 ) ) ;
#26 = SURFACE_STYLE_USAGE ( .BOTH. , #290 ) ;
#27 = STYLED_ITEM ( 'NONE', ( #130 ), #71 ) ;
#28 = VERTEX_POINT ( 'NONE', #123 ) ;
#29 = EDGE_LOOP ( 'NONE', ( #214, #87 ) ) ;
#30 =( LENGTH_UNIT ( ) NAMED_UNIT ( * ) SI_UNIT ( $, .METRE. ) );
#31 = ADVANCED_FACE ( 'NONE', ( #309 ), #142, .T. ) ;
#32 = PRESENTATION_LAYER_ASSIGNMENT (  '', '', ( #101 ) ) ;
#33 = DIRECTION ( 'NONE',  ( -1.000000000000000000, -4.453261087808557677E-17, 0.000000000000000000 ) ) ;
#34 = MANIFOLD_SOLID_BREP ( 'Revolve - Cutting Edge', #196 ) ;
#35 = EDGE_CURVE ( 'NONE', #99, #218, #41, .T. ) ;
#36 = CARTESIAN_POINT ( 'NONE',  ( 0.3749999999999999445, 5.000000000000000000, 4.592425496802576068E-17 ) ) ;
#37 = MANIFOLD_SOLID_BREP ( 'Revolve - Tool Body (Straight Shanked)', #25 ) ;
#38 = SURFACE_SIDE_STYLE ('',( #279 ) ) ;
#39 = DIRECTION ( 'NONE',  ( -1.000000000000000000, 0.000000000000000000, 0.000000000000000000 ) ) ;
#40 = PLANE ( 'NONE',  #147 ) ;
#41 = CIRCLE ( 'NONE', #74, 0.3750000000000000555 ) ;
#42 = CARTESIAN_POINT ( 'NONE',  ( 4.592425496802575451E-17, 0.000000000000000000, 0.3750000000000000555 ) ) ;
#43 = PRODUCT_RELATED_PRODUCT_CATEGORY ( 'part', '', ( #149 ) ) ;
#44 = DIRECTION ( 'NONE',  ( 0.000000000000000000, 0.000000000000000000, -1.000000000000000000 ) ) ;
#45 = DIRECTION ( 'NONE',  ( -0.000000000000000000, -1.000000000000000000, -0.000000000000000000 ) ) ;
#46 = UNCERTAINTY_MEASURE_WITH_UNIT (LENGTH_MEASURE( 1.000000000000000082E-05 ), #167, 'distance_accuracy_value', 'NONE');
#47 = AXIS2_PLACEMENT_3D ( 'NONE', #232, #72, #141 ) ;
#48 = EDGE_CURVE ( 'NONE', #28, #291, #67, .T. ) ;
#49 = MECHANICAL_DESIGN_GEOMETRIC_PRESENTATION_REPRESENTATION (  '', ( #211 ), #272 ) ;
#50 = DIMENSIONAL_EXPONENTS ( 1.000000000000000000, 0.000000000000000000, 0.000000000000000000, 0.000000000000000000, 0.000000000000000000, 0.000000000000000000, 0.000000000000000000 ) ;
#51 = MECHANICAL_DESIGN_GEOMETRIC_PRESENTATION_REPRESENTATION (  '', ( #59 ), #227 ) ;
#52 = SURFACE_STYLE_USAGE ( .BOTH. , #263 ) ;
#53 = MECHANICAL_DESIGN_GEOMETRIC_PRESENTATION_REPRESENTATION (  '', ( #27 ), #257 ) ;
#54 = DIRECTION ( 'NONE',  ( -1.000000000000000000, 0.000000000000000000, 0.000000000000000000 ) ) ;
#55 = DIRECTION ( 'NONE',  ( 0.000000000000000000, 0.000000000000000000, -1.000000000000000000 ) ) ;
#56 = LENGTH_MEASURE_WITH_UNIT ( LENGTH_MEASURE( 0.02539999999999999897 ), #82 );
#57 =( GEOMETRIC_REPRESENTATION_CONTEXT ( 3 ) GLOBAL_UNCERTAINTY_ASSIGNED_CONTEXT ( ( #114 ) ) GLOBAL_UNIT_ASSIGNED_CONTEXT ( ( #284, #118, #166 ) ) REPRESENTATION_CONTEXT ( 'NONE', 'WORKASPACE' ) );
#58 = FACE_OUTER_BOUND ( 'NONE', #288, .T. ) ;
#59 = STYLED_ITEM ( 'NONE', ( #163 ), #248 ) ;
#60 =( LENGTH_UNIT ( ) NAMED_UNIT ( * ) SI_UNIT ( $, .METRE. ) );
#61 =( NAMED_UNIT ( * ) PLANE_ANGLE_UNIT ( ) SI_UNIT ( $, .RADIAN. ) );
#62 =( CONVERSION_BASED_UNIT ( 'INCH', #7 ) LENGTH_UNIT ( ) NAMED_UNIT ( #50 ) );
#63 = DIRECTION ( 'NONE',  ( -4.453261087808557677E-17, 1.000000000000000000, -0.000000000000000000 ) ) ;
#64 = DIRECTION ( 'NONE',  ( -0.000000000000000000, -1.000000000000000000, -0.000000000000000000 ) ) ;
#65 = ADVANCED_BREP_SHAPE_REPRESENTATION ( '82275', ( #34, #37, #47 ), #103 ) ;
#66 = DIRECTION ( 'NONE',  ( -4.453261087808557677E-17, 1.000000000000000000, 0.000000000000000000 ) ) ;
#67 = CIRCLE ( 'NONE', #191, 0.3750000000000000555 ) ;
#68 = SURFACE_STYLE_USAGE ( .BOTH. , #38 ) ;
#69 = CARTESIAN_POINT ( 'NONE',  ( 0.000000000000000000, 0.000000000000000000, -0.3750000000000000555 ) ) ;
#70 = DIMENSIONAL_EXPONENTS ( 1.000000000000000000, 0.000000000000000000, 0.000000000000000000, 0.000000000000000000, 0.000000000000000000, 0.000000000000000000, 0.000000000000000000 ) ;
#71 = ADVANCED_FACE ( 'NONE', ( #273 ), #100, .T. ) ;
#72 = DIRECTION ( 'NONE',  ( 0.000000000000000000, 0.000000000000000000, 1.000000000000000000 ) ) ;
#73 = APPLICATION_CONTEXT ( 'automotive_design' ) ;
#74 = AXIS2_PLACEMENT_3D ( 'NONE', #19, #85, #129 ) ;
#75 = UNCERTAINTY_MEASURE_WITH_UNIT (LENGTH_MEASURE( 1.000000000000000082E-05 ), #62, 'distance_accuracy_value', 'NONE');
#76 = DIRECTION ( 'NONE',  ( -0.000000000000000000, -1.000000000000000000, -0.000000000000000000 ) ) ;
#77 = CYLINDRICAL_SURFACE ( 'NONE', #110, 0.3750000000000001110 ) ;
#78 = COLOUR_RGB ( '',1.000000000000000000, 0.000000000000000000, 0.000000000000000000 ) ;
#79 = ORIENTED_EDGE ( 'NONE', *, *, #280, .F. ) ;
#80 = FILL_AREA_STYLE ('',( #202 ) ) ;
#81 = ORIENTED_EDGE ( 'NONE', *, *, #113, .T. ) ;
#82 =( LENGTH_UNIT ( ) NAMED_UNIT ( * ) SI_UNIT ( $, .METRE. ) );
#83 = LENGTH_MEASURE_WITH_UNIT ( LENGTH_MEASURE( 0.02539999999999999897 ), #265 );
#84 = ORIENTED_EDGE ( 'NONE', *, *, #35, .T. ) ;
#85 = DIRECTION ( 'NONE',  ( -4.453261087808557677E-17, 1.000000000000000000, -0.000000000000000000 ) ) ;
#86 = PRESENTATION_LAYER_ASSIGNMENT (  '', '', ( #262 ) ) ;
#87 = ORIENTED_EDGE ( 'NONE', *, *, #145, .F. ) ;
#88 = CARTESIAN_POINT ( 'NONE',  ( 4.592425496802575451E-17, 2.250000000000000000, 0.3750000000000000555 ) ) ;
#89 = SURFACE_STYLE_USAGE ( .BOTH. , #105 ) ;
#90 = STYLED_ITEM ( 'NONE', ( #151 ), #34 ) ;
#91 = CARTESIAN_POINT ( 'NONE',  ( -1.224646799147353207E-16, 5.000000000000000000, 0.000000000000000000 ) ) ;
#92 = DIRECTION ( 'NONE',  ( -1.000000000000000000, 0.000000000000000000, 0.000000000000000000 ) ) ;
#93 =( NAMED_UNIT ( * ) PLANE_ANGLE_UNIT ( ) SI_UNIT ( $, .RADIAN. ) );
#94 = AXIS2_PLACEMENT_3D ( 'NONE', #277, #256, #134 ) ;
#95 = DIRECTION ( 'NONE',  ( -4.453261087808557677E-17, 1.000000000000000000, -0.000000000000000000 ) ) ;
#96 = DIRECTION ( 'NONE',  ( 0.000000000000000000, -1.000000000000000000, -0.000000000000000000 ) ) ;
#97 = AXIS2_PLACEMENT_3D ( 'NONE', #169, #76, #241 ) ;
#98 =( LENGTH_UNIT ( ) NAMED_UNIT ( * ) SI_UNIT ( $, .METRE. ) );
#99 = VERTEX_POINT ( 'NONE', #278 ) ;
#100 = CYLINDRICAL_SURFACE ( 'NONE', #94, 0.3750000000000000555 ) ;
#101 = STYLED_ITEM ( 'NONE', ( #217 ), #14 ) ;
#102 = EDGE_LOOP ( 'NONE', ( #1, #81, #220, #143 ) ) ;
#103 =( GEOMETRIC_REPRESENTATION_CONTEXT ( 3 ) GLOBAL_UNCERTAINTY_ASSIGNED_CONTEXT ( ( #46 ) ) GLOBAL_UNIT_ASSIGNED_CONTEXT ( ( #167, #119, #206 ) ) REPRESENTATION_CONTEXT ( 'NONE', 'WORKASPACE' ) );
#104 = ORIENTED_EDGE ( 'NONE', *, *, #172, .F. ) ;
#105 = SURFACE_SIDE_STYLE ('',( #226 ) ) ;
#106 = LINE ( 'NONE', #36, #168 ) ;
#107 = CARTESIAN_POINT ( 'NONE',  ( 0.3750000000000000555, 5.000000000000000000, 0.000000000000000000 ) ) ;
#108 = EDGE_CURVE ( 'NONE', #150, #3, #153, .T. ) ;
#109 = DIRECTION ( 'NONE',  ( -4.453261087808557677E-17, 1.000000000000000000, -0.000000000000000000 ) ) ;
#110 = AXIS2_PLACEMENT_3D ( 'NONE', #154, #177, #54 ) ;
#111 = DIRECTION ( 'NONE',  ( -4.453261087808557677E-17, 1.000000000000000000, -0.000000000000000000 ) ) ;
#112 = LINE ( 'NONE', #276, #116 ) ;
#113 = EDGE_CURVE ( 'NONE', #291, #146, #204, .T. ) ;
#114 = UNCERTAINTY_MEASURE_WITH_UNIT (LENGTH_MEASURE( 1.000000000000000082E-05 ), #284, 'distance_accuracy_value', 'NONE');
#115 = APPLICATION_PROTOCOL_DEFINITION ( 'draft international standard', 'automotive_design', 1998, #158 ) ;
#116 = VECTOR ( 'NONE', #63, 39.37007874015748143 ) ;
#117 = FILL_AREA_STYLE ('',( #234 ) ) ;
#118 =( NAMED_UNIT ( * ) PLANE_ANGLE_UNIT ( ) SI_UNIT ( $, .RADIAN. ) );
#119 =( NAMED_UNIT ( * ) PLANE_ANGLE_UNIT ( ) SI_UNIT ( $, .RADIAN. ) );
#120 = CIRCLE ( 'NONE', #294, 0.3750000000000001665 ) ;
#121 = EDGE_LOOP ( 'NONE', ( #125, #179 ) ) ;
#122 = ORIENTED_EDGE ( 'NONE', *, *, #21, .T. ) ;
#123 = CARTESIAN_POINT ( 'NONE',  ( 0.000000000000000000, 2.250000000000000000, -0.3750000000000000555 ) ) ;
#124 = SURFACE_STYLE_USAGE ( .BOTH. , #308 ) ;
#125 = ORIENTED_EDGE ( 'NONE', *, *, #260, .T. ) ;
#126 = AXIS2_PLACEMENT_3D ( 'NONE', #15, #96, #292 ) ;
#127 = DIRECTION ( 'NONE',  ( -0.000000000000000000, -1.000000000000000000, -0.000000000000000000 ) ) ;
#128 = ORIENTED_EDGE ( 'NONE', *, *, #113, .F. ) ;
#129 = DIRECTION ( 'NONE',  ( -1.000000000000000000, 0.000000000000000000, 0.000000000000000000 ) ) ;
#130 = PRESENTATION_STYLE_ASSIGNMENT (( #124 ) ) ;
#131 = AXIS2_PLACEMENT_3D ( 'NONE', #107, #161, #190 ) ;
#132 = CARTESIAN_POINT ( 'NONE',  ( 1.516480271171051896E-32, 2.250000000000000444, 0.000000000000000000 ) ) ;
#133 = AXIS2_PLACEMENT_3D ( 'NONE', #258, #252, #44 ) ;
#134 = DIRECTION ( 'NONE',  ( 0.000000000000000000, 0.000000000000000000, -1.000000000000000000 ) ) ;
#135 =( NAMED_UNIT ( * ) PLANE_ANGLE_UNIT ( ) SI_UNIT ( $, .RADIAN. ) );
#136 = COLOUR_RGB ( '',0.7921568627450980005, 0.8196078431372548767, 0.9333333333333333481 ) ;
#137 = CARTESIAN_POINT ( 'NONE',  ( 3.718412684285598933E-34, 2.250000000000000000, 0.000000000000000000 ) ) ;
#138 = UNCERTAINTY_MEASURE_WITH_UNIT (LENGTH_MEASURE( 1.000000000000000082E-05 ), #219, 'distance_accuracy_value', 'NONE');
#139 = VECTOR ( 'NONE', #178, 39.37007874015748143 ) ;
#140 = CARTESIAN_POINT ( 'NONE',  ( 0.3750000000000000555, 2.250000000000000444, 4.592425496802576684E-17 ) ) ;
#141 = DIRECTION ( 'NONE',  ( 1.000000000000000000, 0.000000000000000000, 0.000000000000000000 ) ) ;
#142 = CYLINDRICAL_SURFACE ( 'NONE', #301, 0.3750000000000000555 ) ;
#143 = ORIENTED_EDGE ( 'NONE', *, *, #250, .F. ) ;
#144 = MECHANICAL_DESIGN_GEOMETRIC_PRESENTATION_REPRESENTATION (  '', ( #90 ), #287 ) ;
#145 = EDGE_CURVE ( 'NONE', #218, #99, #281, .T. ) ;
#146 = VERTEX_POINT ( 'NONE', #42 ) ;
#147 = AXIS2_PLACEMENT_3D ( 'NONE', #137, #66, #33 ) ;
#148 = DIRECTION ( 'NONE',  ( 0.000000000000000000, -0.000000000000000000, 1.000000000000000000 ) ) ;
#149 = PRODUCT ( '82275', '82275', '', ( #170 ) ) ;
#150 = VERTEX_POINT ( 'NONE', #11 ) ;
#151 = PRESENTATION_STYLE_ASSIGNMENT (( #89 ) ) ;
#152 = EDGE_LOOP ( 'NONE', ( #84, #173, #104, #268 ) ) ;
#153 = CIRCLE ( 'NONE', #10, 0.3750000000000001665 ) ;
#154 = CARTESIAN_POINT ( 'NONE',  ( -1.224646799147353207E-16, 5.000000000000000000, 0.000000000000000000 ) ) ;
#155 = FILL_AREA_STYLE ('',( #194 ) ) ;
#156 = LINE ( 'NONE', #174, #139 ) ;
#157 = DIRECTION ( 'NONE',  ( 0.000000000000000000, 0.000000000000000000, -1.000000000000000000 ) ) ;
#158 = APPLICATION_CONTEXT ( 'automotive_design' ) ;
#159 =( NAMED_UNIT ( * ) SI_UNIT ( $, .STERADIAN. ) SOLID_ANGLE_UNIT ( ) );
#160 = FACE_OUTER_BOUND ( 'NONE', #29, .T. ) ;
#161 = DIRECTION ( 'NONE',  ( 4.453261087808557677E-17, -1.000000000000000000, 0.000000000000000000 ) ) ;
#162 = CYLINDRICAL_SURFACE ( 'NONE', #17, 0.3750000000000001110 ) ;
#163 = PRESENTATION_STYLE_ASSIGNMENT (( #68 ) ) ;
#164 = LENGTH_MEASURE_WITH_UNIT ( LENGTH_MEASURE( 0.02539999999999999897 ), #165 );
#165 =( LENGTH_UNIT ( ) NAMED_UNIT ( * ) SI_UNIT ( $, .METRE. ) );
#166 =( NAMED_UNIT ( * ) SI_UNIT ( $, .STERADIAN. ) SOLID_ANGLE_UNIT ( ) );
#167 =( CONVERSION_BASED_UNIT ( 'INCH', #164 ) LENGTH_UNIT ( ) NAMED_UNIT ( #70 ) );
#168 = VECTOR ( 'NONE', #296, 39.37007874015748143 ) ;
#169 = CARTESIAN_POINT ( 'NONE',  ( 0.000000000000000000, 2.250000000000000000, 0.000000000000000000 ) ) ;
#170 = PRODUCT_CONTEXT ( 'NONE', #73, 'mechanical' ) ;
#171 = DIRECTION ( 'NONE',  ( -0.000000000000000000, -1.000000000000000000, -0.000000000000000000 ) ) ;
#172 = EDGE_CURVE ( 'NONE', #3, #150, #120, .T. ) ;
#173 = ORIENTED_EDGE ( 'NONE', *, *, #280, .T. ) ;
#174 = CARTESIAN_POINT ( 'NONE',  ( 0.000000000000000000, 0.000000000000000000, -0.3750000000000000555 ) ) ;
#175 = CIRCLE ( 'NONE', #251, 0.3750000000000000555 ) ;
#176 = SURFACE_STYLE_USAGE ( .BOTH. , #9 ) ;
#177 = DIRECTION ( 'NONE',  ( -4.453261087808557677E-17, 1.000000000000000000, -0.000000000000000000 ) ) ;
#178 = DIRECTION ( 'NONE',  ( -0.000000000000000000, -1.000000000000000000, -0.000000000000000000 ) ) ;
#179 = ORIENTED_EDGE ( 'NONE', *, *, #197, .T. ) ;
#180 = LENGTH_MEASURE_WITH_UNIT ( LENGTH_MEASURE( 0.02539999999999999897 ), #30 );
#181 = ORIENTED_EDGE ( 'NONE', *, *, #224, .T. ) ;
#182 =( CONVERSION_BASED_UNIT ( 'INCH', #56 ) LENGTH_UNIT ( ) NAMED_UNIT ( #18 ) );
#183 = COLOUR_RGB ( '',1.000000000000000000, 0.000000000000000000, 0.000000000000000000 ) ;
#184 = PRODUCT_DEFINITION_SHAPE ( 'NONE', 'NONE',  #209 ) ;
#185 = ORIENTED_EDGE ( 'NONE', *, *, #108, .T. ) ;
#186 = ADVANCED_FACE ( 'NONE', ( #230 ), #193, .F. ) ;
#187 = DIRECTION ( 'NONE',  ( -1.000000000000000000, 0.000000000000000000, 0.000000000000000000 ) ) ;
#188 = CIRCLE ( 'NONE', #97, 0.3750000000000000555 ) ;
#189 = CARTESIAN_POINT ( 'NONE',  ( 0.000000000000000000, 0.000000000000000000, 0.000000000000000000 ) ) ;
#190 = DIRECTION ( 'NONE',  ( 1.000000000000000000, 4.453261087808557677E-17, 0.000000000000000000 ) ) ;
#191 = AXIS2_PLACEMENT_3D ( 'NONE', #240, #127, #157 ) ;
#192 = APPLICATION_PROTOCOL_DEFINITION ( 'draft international standard', 'automotive_design', 1998, #73 ) ;
#193 = PLANE ( 'NONE',  #131 ) ;
#194 = FILL_AREA_STYLE_COLOUR ( '', #255 ) ;
#195 = SURFACE_STYLE_FILL_AREA ( #20 ) ;
#196 = CLOSED_SHELL ( 'NONE', ( #71, #14, #31, #248 ) ) ;
#197 = EDGE_CURVE ( 'NONE', #146, #305, #175, .T. ) ;
#198 = DIMENSIONAL_EXPONENTS ( 1.000000000000000000, 0.000000000000000000, 0.000000000000000000, 0.000000000000000000, 0.000000000000000000, 0.000000000000000000, 0.000000000000000000 ) ;
#199 = EDGE_LOOP ( 'NONE', ( #307, #289 ) ) ;
#200 = PRESENTATION_LAYER_ASSIGNMENT (  '', '', ( #211 ) ) ;
#201 = CARTESIAN_POINT ( 'NONE',  ( -0.3750000000000002776, 5.000000000000000000, 0.000000000000000000 ) ) ;
#202 = FILL_AREA_STYLE_COLOUR ( '', #183 ) ;
#203 =( CONVERSION_BASED_UNIT ( 'INCH', #223 ) LENGTH_UNIT ( ) NAMED_UNIT ( #198 ) );
#204 = LINE ( 'NONE', #300, #237 ) ;
#205 = CARTESIAN_POINT ( 'NONE',  ( -1.224646799147353207E-16, 5.000000000000000000, 0.000000000000000000 ) ) ;
#206 =( NAMED_UNIT ( * ) SI_UNIT ( $, .STERADIAN. ) SOLID_ANGLE_UNIT ( ) );
#207 =( LENGTH_UNIT ( ) NAMED_UNIT ( * ) SI_UNIT ( $, .METRE. ) );
#208 = PRESENTATION_LAYER_ASSIGNMENT (  '', '', ( #27 ) ) ;
#209 = PRODUCT_DEFINITION ( 'UNKNOWN', '', #274, #215 ) ;
#210 = PRESENTATION_STYLE_ASSIGNMENT (( #52 ) ) ;
#211 = STYLED_ITEM ( 'NONE', ( #210 ), #31 ) ;
#212 =( GEOMETRIC_REPRESENTATION_CONTEXT ( 3 ) GLOBAL_UNCERTAINTY_ASSIGNED_CONTEXT ( ( #236 ) ) GLOBAL_UNIT_ASSIGNED_CONTEXT ( ( #182, #295, #247 ) ) REPRESENTATION_CONTEXT ( 'NONE', 'WORKASPACE' ) );
#213 = CARTESIAN_POINT ( 'NONE',  ( 0.000000000000000000, 0.000000000000000000, 0.000000000000000000 ) ) ;
#214 = ORIENTED_EDGE ( 'NONE', *, *, #35, .F. ) ;
#215 = PRODUCT_DEFINITION_CONTEXT ( 'detailed design', #158, 'design' ) ;
#216 = SURFACE_STYLE_FILL_AREA ( #80 ) ;
#217 = PRESENTATION_STYLE_ASSIGNMENT (( #176 ) ) ;
#218 = VERTEX_POINT ( 'NONE', #140 ) ;
#219 =( CONVERSION_BASED_UNIT ( 'INCH', #180 ) LENGTH_UNIT ( ) NAMED_UNIT ( #267 ) );
#220 = ORIENTED_EDGE ( 'NONE', *, *, #260, .F. ) ;
#221 = FILL_AREA_STYLE ('',( #243 ) ) ;
#222 = EDGE_LOOP ( 'NONE', ( #128, #122, #242, #286 ) ) ;
#223 = LENGTH_MEASURE_WITH_UNIT ( LENGTH_MEASURE( 0.02539999999999999897 ), #60 );
#224 = EDGE_CURVE ( 'NONE', #99, #3, #112, .T. ) ;
#225 = AXIS2_PLACEMENT_3D ( 'NONE', #283, #285, #148 ) ;
#226 = SURFACE_STYLE_FILL_AREA ( #117 ) ;
#227 =( GEOMETRIC_REPRESENTATION_CONTEXT ( 3 ) GLOBAL_UNCERTAINTY_ASSIGNED_CONTEXT ( ( #75 ) ) GLOBAL_UNIT_ASSIGNED_CONTEXT ( ( #62, #135, #229 ) ) REPRESENTATION_CONTEXT ( 'NONE', 'WORKASPACE' ) );
#228 = DIRECTION ( 'NONE',  ( -4.453261087808557677E-17, 1.000000000000000000, -0.000000000000000000 ) ) ;
#229 =( NAMED_UNIT ( * ) SI_UNIT ( $, .STERADIAN. ) SOLID_ANGLE_UNIT ( ) );
#230 = FACE_OUTER_BOUND ( 'NONE', #23, .T. ) ;
#231 = FACE_OUTER_BOUND ( 'NONE', #152, .T. ) ;
#232 = CARTESIAN_POINT ( 'NONE',  ( 0.000000000000000000, 0.000000000000000000, 0.000000000000000000 ) ) ;
#233 = ADVANCED_FACE ( 'NONE', ( #231 ), #162, .T. ) ;
#234 = FILL_AREA_STYLE_COLOUR ( '', #235 ) ;
#235 = COLOUR_RGB ( '',0.7921568627450980005, 0.8196078431372548767, 0.9333333333333333481 ) ;
#236 = UNCERTAINTY_MEASURE_WITH_UNIT (LENGTH_MEASURE( 1.000000000000000082E-05 ), #182, 'distance_accuracy_value', 'NONE');
#237 = VECTOR ( 'NONE', #45, 39.37007874015748143 ) ;
#238 = CIRCLE ( 'NONE', #133, 0.3750000000000000555 ) ;
#239 = FACE_OUTER_BOUND ( 'NONE', #199, .T. ) ;
#240 = CARTESIAN_POINT ( 'NONE',  ( 0.000000000000000000, 2.250000000000000000, 0.000000000000000000 ) ) ;
#241 = DIRECTION ( 'NONE',  ( 0.000000000000000000, 0.000000000000000000, -1.000000000000000000 ) ) ;
#242 = ORIENTED_EDGE ( 'NONE', *, *, #250, .T. ) ;
#243 = FILL_AREA_STYLE_COLOUR ( '', #136 ) ;
#244 = ORIENTED_EDGE ( 'NONE', *, *, #108, .F. ) ;
#245 = PRESENTATION_STYLE_ASSIGNMENT (( #26 ) ) ;
#246 =( CONVERSION_BASED_UNIT ( 'INCH', #83 ) LENGTH_UNIT ( ) NAMED_UNIT ( #282 ) );
#247 =( NAMED_UNIT ( * ) SI_UNIT ( $, .STERADIAN. ) SOLID_ANGLE_UNIT ( ) );
#248 = ADVANCED_FACE ( 'NONE', ( #8 ), #13, .T. ) ;
#249 = SURFACE_STYLE_FILL_AREA ( #155 ) ;
#250 = EDGE_CURVE ( 'NONE', #28, #305, #156, .T. ) ;
#251 = AXIS2_PLACEMENT_3D ( 'NONE', #189, #64, #253 ) ;
#252 = DIRECTION ( 'NONE',  ( -0.000000000000000000, -1.000000000000000000, -0.000000000000000000 ) ) ;
#253 = DIRECTION ( 'NONE',  ( 0.000000000000000000, 0.000000000000000000, -1.000000000000000000 ) ) ;
#254 = CARTESIAN_POINT ( 'NONE',  ( -1.224646799147353207E-16, 5.000000000000000000, 0.000000000000000000 ) ) ;
#255 = COLOUR_RGB ( '',1.000000000000000000, 0.000000000000000000, 0.000000000000000000 ) ;
#256 = DIRECTION ( 'NONE',  ( -0.000000000000000000, -1.000000000000000000, -0.000000000000000000 ) ) ;
#257 =( GEOMETRIC_REPRESENTATION_CONTEXT ( 3 ) GLOBAL_UNCERTAINTY_ASSIGNED_CONTEXT ( ( #12 ) ) GLOBAL_UNIT_ASSIGNED_CONTEXT ( ( #203, #93, #159 ) ) REPRESENTATION_CONTEXT ( 'NONE', 'WORKASPACE' ) );
#258 = CARTESIAN_POINT ( 'NONE',  ( 0.000000000000000000, 0.000000000000000000, 0.000000000000000000 ) ) ;
#259 = ADVANCED_FACE ( 'NONE', ( #160 ), #40, .F. ) ;
#260 = EDGE_CURVE ( 'NONE', #305, #146, #238, .T. ) ;
#261 = LENGTH_MEASURE_WITH_UNIT ( LENGTH_MEASURE( 0.02539999999999999897 ), #98 );
#262 = STYLED_ITEM ( 'NONE', ( #245 ), #37 ) ;
#263 = SURFACE_SIDE_STYLE ('',( #195 ) ) ;
#264 = FILL_AREA_STYLE_COLOUR ( '', #78 ) ;
#265 =( LENGTH_UNIT ( ) NAMED_UNIT ( * ) SI_UNIT ( $, .METRE. ) );
#266 = AXIS2_PLACEMENT_3D ( 'NONE', #132, #95, #298 ) ;
#267 = DIMENSIONAL_EXPONENTS ( 1.000000000000000000, 0.000000000000000000, 0.000000000000000000, 0.000000000000000000, 0.000000000000000000, 0.000000000000000000, 0.000000000000000000 ) ;
#268 = ORIENTED_EDGE ( 'NONE', *, *, #224, .F. ) ;
#269 = PLANE ( 'NONE',  #225 ) ;
#270 = SHAPE_DEFINITION_REPRESENTATION ( #184, #65 ) ;
#271 = ORIENTED_EDGE ( 'NONE', *, *, #172, .T. ) ;
#272 =( GEOMETRIC_REPRESENTATION_CONTEXT ( 3 ) GLOBAL_UNCERTAINTY_ASSIGNED_CONTEXT ( ( #303 ) ) GLOBAL_UNIT_ASSIGNED_CONTEXT ( ( #246, #61, #306 ) ) REPRESENTATION_CONTEXT ( 'NONE', 'WORKASPACE' ) );
#273 = FACE_OUTER_BOUND ( 'NONE', #102, .T. ) ;
#274 = PRODUCT_DEFINITION_FORMATION_WITH_SPECIFIED_SOURCE ( 'ANY', '', #149, .NOT_KNOWN. ) ;
#275 = MECHANICAL_DESIGN_GEOMETRIC_PRESENTATION_REPRESENTATION (  '', ( #101 ), #57 ) ;
#276 = CARTESIAN_POINT ( 'NONE',  ( -0.3750000000000002220, 5.000000000000000000, 0.000000000000000000 ) ) ;
#277 = CARTESIAN_POINT ( 'NONE',  ( 0.000000000000000000, 0.000000000000000000, 0.000000000000000000 ) ) ;
#278 = CARTESIAN_POINT ( 'NONE',  ( -0.3750000000000000555, 2.250000000000000444, 0.000000000000000000 ) ) ;
#279 = SURFACE_STYLE_FILL_AREA ( #297 ) ;
#280 = EDGE_CURVE ( 'NONE', #218, #150, #106, .T. ) ;
#281 = CIRCLE ( 'NONE', #266, 0.3750000000000000555 ) ;
#282 = DIMENSIONAL_EXPONENTS ( 1.000000000000000000, 0.000000000000000000, 0.000000000000000000, 0.000000000000000000, 0.000000000000000000, 0.000000000000000000, 0.000000000000000000 ) ;
#283 = CARTESIAN_POINT ( 'NONE',  ( 0.000000000000000000, 2.250000000000000000, 0.000000000000000000 ) ) ;
#284 =( CONVERSION_BASED_UNIT ( 'INCH', #261 ) LENGTH_UNIT ( ) NAMED_UNIT ( #302 ) );
#285 = DIRECTION ( 'NONE',  ( 0.000000000000000000, 1.000000000000000000, 0.000000000000000000 ) ) ;
#286 = ORIENTED_EDGE ( 'NONE', *, *, #197, .F. ) ;
#287 =( GEOMETRIC_REPRESENTATION_CONTEXT ( 3 ) GLOBAL_UNCERTAINTY_ASSIGNED_CONTEXT ( ( #138 ) ) GLOBAL_UNIT_ASSIGNED_CONTEXT ( ( #219, #293, #4 ) ) REPRESENTATION_CONTEXT ( 'NONE', 'WORKASPACE' ) );
#288 = EDGE_LOOP ( 'NONE', ( #79, #24, #181, #244 ) ) ;
#289 = ORIENTED_EDGE ( 'NONE', *, *, #21, .F. ) ;
#290 = SURFACE_SIDE_STYLE ('',( #2 ) ) ;
#291 = VERTEX_POINT ( 'NONE', #88 ) ;
#292 = DIRECTION ( 'NONE',  ( 0.000000000000000000, 0.000000000000000000, -1.000000000000000000 ) ) ;
#293 =( NAMED_UNIT ( * ) PLANE_ANGLE_UNIT ( ) SI_UNIT ( $, .RADIAN. ) );
#294 = AXIS2_PLACEMENT_3D ( 'NONE', #91, #228, #92 ) ;
#295 =( NAMED_UNIT ( * ) PLANE_ANGLE_UNIT ( ) SI_UNIT ( $, .RADIAN. ) );
#296 = DIRECTION ( 'NONE',  ( -4.453261087808557677E-17, 1.000000000000000000, -0.000000000000000000 ) ) ;
#297 = FILL_AREA_STYLE ('',( #299 ) ) ;
#298 = DIRECTION ( 'NONE',  ( -1.000000000000000000, 0.000000000000000000, 0.000000000000000000 ) ) ;
#299 = FILL_AREA_STYLE_COLOUR ( '', #16 ) ;
#300 = CARTESIAN_POINT ( 'NONE',  ( 4.592425496802575451E-17, 0.000000000000000000, 0.3750000000000000555 ) ) ;
#301 = AXIS2_PLACEMENT_3D ( 'NONE', #213, #171, #55 ) ;
#302 = DIMENSIONAL_EXPONENTS ( 1.000000000000000000, 0.000000000000000000, 0.000000000000000000, 0.000000000000000000, 0.000000000000000000, 0.000000000000000000, 0.000000000000000000 ) ;
#303 = UNCERTAINTY_MEASURE_WITH_UNIT (LENGTH_MEASURE( 1.000000000000000082E-05 ), #246, 'distance_accuracy_value', 'NONE');
#304 = MECHANICAL_DESIGN_GEOMETRIC_PRESENTATION_REPRESENTATION (  '', ( #262 ), #212 ) ;
#305 = VERTEX_POINT ( 'NONE', #69 ) ;
#306 =( NAMED_UNIT ( * ) SI_UNIT ( $, .STERADIAN. ) SOLID_ANGLE_UNIT ( ) );
#307 = ORIENTED_EDGE ( 'NONE', *, *, #48, .F. ) ;
#308 = SURFACE_SIDE_STYLE ('',( #216 ) ) ;
#309 = FACE_OUTER_BOUND ( 'NONE', #222, .T. ) ;
ENDSEC;
END-ISO-10303-21;
