ISO-10303-21;
HEADER;
FILE_DESCRIPTION (( 'STEP AP214' ),
    '1' );
FILE_NAME ('59628.STEP',
    '2023-07-24T15:16:59',
    ( '' ),
    ( '' ),
    'SwSTEP 2.0',
    'SolidWorks 2023',
    '' );
FILE_SCHEMA (( 'AUTOMOTIVE_DESIGN' ));
ENDSEC;

DATA;
#1 = FACE_OUTER_BOUND ( 'NONE', #126, .T. ) ;
#2 = SURFACE_SIDE_STYLE ('',( #259 ) ) ;
#3 = AXIS2_PLACEMENT_3D ( 'NONE', #141, #282, #291 ) ;
#4 = CARTESIAN_POINT ( 'NONE',  ( 0.000000000000000000, 0.000000000000000000, 0.000000000000000000 ) ) ;
#5 = FILL_AREA_STYLE ('',( #7 ) ) ;
#6 = CIRCLE ( 'NONE', #14, 2.999999999999991562 ) ;
#7 = FILL_AREA_STYLE_COLOUR ( '', #355 ) ;
#8 = PRODUCT_DEFINITION_SHAPE ( 'NONE', 'NONE',  #116 ) ;
#9 = DIRECTION ( 'NONE',  ( -1.000000000000000000, -1.444848463910660280E-16, 0.000000000000000000 ) ) ;
#10 = FILL_AREA_STYLE_COLOUR ( '', #104 ) ;
#11 = FILL_AREA_STYLE ('',( #10 ) ) ;
#12 = AXIS2_PLACEMENT_3D ( 'NONE', #331, #165, #230 ) ;
#13 = AXIS2_PLACEMENT_3D ( 'NONE', #84, #317, #136 ) ;
#14 = AXIS2_PLACEMENT_3D ( 'NONE', #52, #258, #205 ) ;
#15 = ORIENTED_EDGE ( 'NONE', *, *, #56, .T. ) ;
#16 = UNCERTAINTY_MEASURE_WITH_UNIT (LENGTH_MEASURE( 1.000000000000000082E-05 ), #318, 'distance_accuracy_value', 'NONE');
#17 = CARTESIAN_POINT ( 'NONE',  ( 0.000000000000000000, 18.00000000000000355, 0.000000000000000000 ) ) ;
#18 = DIRECTION ( 'NONE',  ( -0.000000000000000000, -1.000000000000000000, -0.000000000000000000 ) ) ;
#19 =( LENGTH_UNIT ( ) NAMED_UNIT ( * ) SI_UNIT ( .MILLI., .METRE. ) );
#20 = FILL_AREA_STYLE_COLOUR ( '', #273 ) ;
#21 = AXIS2_PLACEMENT_3D ( 'NONE', #339, #190, #26 ) ;
#22 = SURFACE_STYLE_USAGE ( .BOTH. , #47 ) ;
#23 = AXIS2_PLACEMENT_3D ( 'NONE', #332, #256, #307 ) ;
#24 = FILL_AREA_STYLE ('',( #51 ) ) ;
#25 = LINE ( 'NONE', #231, #314 ) ;
#26 = DIRECTION ( 'NONE',  ( -1.000000000000000000, 0.000000000000000000, 0.000000000000000000 ) ) ;
#27 = CYLINDRICAL_SURFACE ( 'NONE', #200, 2.999999999999999556 ) ;
#28 = PRESENTATION_LAYER_ASSIGNMENT (  '', '', ( #157 ) ) ;
#29 = FILL_AREA_STYLE ('',( #147 ) ) ;
#30 = CYLINDRICAL_SURFACE ( 'NONE', #159, 2.999999999999999556 ) ;
#31 = MECHANICAL_DESIGN_GEOMETRIC_PRESENTATION_REPRESENTATION (  '', ( #192 ), #235 ) ;
#32 = PRODUCT_CONTEXT ( 'NONE', #146, 'mechanical' ) ;
#33 = PRESENTATION_STYLE_ASSIGNMENT (( #221 ) ) ;
#34 = PRODUCT_RELATED_PRODUCT_CATEGORY ( 'part', '', ( #124 ) ) ;
#35 = PRESENTATION_LAYER_ASSIGNMENT (  '', '', ( #96 ) ) ;
#36 = ORIENTED_EDGE ( 'NONE', *, *, #90, .T. ) ;
#37 = EDGE_CURVE ( 'NONE', #268, #66, #181, .T. ) ;
#38 = UNCERTAINTY_MEASURE_WITH_UNIT (LENGTH_MEASURE( 1.000000000000000082E-05 ), #294, 'distance_accuracy_value', 'NONE');
#39 = ORIENTED_EDGE ( 'NONE', *, *, #107, .T. ) ;
#40 = DIRECTION ( 'NONE',  ( -0.000000000000000000, -1.000000000000000000, -0.000000000000000000 ) ) ;
#41 = EDGE_LOOP ( 'NONE', ( #242, #78, #122, #300 ) ) ;
#42 =( GEOMETRIC_REPRESENTATION_CONTEXT ( 3 ) GLOBAL_UNCERTAINTY_ASSIGNED_CONTEXT ( ( #88 ) ) GLOBAL_UNIT_ASSIGNED_CONTEXT ( ( #319, #65, #284 ) ) REPRESENTATION_CONTEXT ( 'NONE', 'WORKASPACE' ) );
#43 = SURFACE_STYLE_FILL_AREA ( #138 ) ;
#44 = SURFACE_STYLE_USAGE ( .BOTH. , #305 ) ;
#45 = DIRECTION ( 'NONE',  ( 0.000000000000000000, 0.000000000000000000, -1.000000000000000000 ) ) ;
#46 = VERTEX_POINT ( 'NONE', #361 ) ;
#47 = SURFACE_SIDE_STYLE ('',( #210 ) ) ;
#48 =( LENGTH_UNIT ( ) NAMED_UNIT ( * ) SI_UNIT ( .MILLI., .METRE. ) );
#49 = EDGE_LOOP ( 'NONE', ( #365, #274 ) ) ;
#50 = CIRCLE ( 'NONE', #260, 2.999999999999999112 ) ;
#51 = FILL_AREA_STYLE_COLOUR ( '', #109 ) ;
#52 = CARTESIAN_POINT ( 'NONE',  ( 7.592810154713587074E-15, 63.00000000000000000, 0.000000000000000000 ) ) ;
#53 = MECHANICAL_DESIGN_GEOMETRIC_PRESENTATION_REPRESENTATION (  '', ( #187 ), #316 ) ;
#54 = PLANE ( 'NONE',  #301 ) ;
#55 = SURFACE_SIDE_STYLE ('',( #144 ) ) ;
#56 = EDGE_CURVE ( 'NONE', #46, #193, #276, .T. ) ;
#57 = CARTESIAN_POINT ( 'NONE',  ( 0.000000000000000000, 0.000000000000000000, 0.000000000000000000 ) ) ;
#58 = DIRECTION ( 'NONE',  ( 0.000000000000000000, 0.000000000000000000, -1.000000000000000000 ) ) ;
#59 = DIRECTION ( 'NONE',  ( 0.000000000000000000, 0.000000000000000000, 1.000000000000000000 ) ) ;
#60 = AXIS2_PLACEMENT_3D ( 'NONE', #179, #173, #312 ) ;
#61 = AXIS2_PLACEMENT_3D ( 'NONE', #241, #59, #290 ) ;
#62 = SURFACE_SIDE_STYLE ('',( #322 ) ) ;
#63 = ADVANCED_FACE ( 'NONE', ( #269 ), #245, .T. ) ;
#64 = COLOUR_RGB ( '',1.000000000000000000, 0.000000000000000000, 0.000000000000000000 ) ;
#65 =( NAMED_UNIT ( * ) PLANE_ANGLE_UNIT ( ) SI_UNIT ( $, .RADIAN. ) );
#66 = VERTEX_POINT ( 'NONE', #203 ) ;
#67 = PRODUCT_DEFINITION_FORMATION_WITH_SPECIFIED_SOURCE ( 'ANY', '', #124, .NOT_KNOWN. ) ;
#68 = EDGE_CURVE ( 'NONE', #254, #66, #218, .T. ) ;
#69 = ORIENTED_EDGE ( 'NONE', *, *, #278, .T. ) ;
#70 = MECHANICAL_DESIGN_GEOMETRIC_PRESENTATION_REPRESENTATION (  '', ( #96 ), #223 ) ;
#71 = CIRCLE ( 'NONE', #296, 1.000000000000000000 ) ;
#72 = CARTESIAN_POINT ( 'NONE',  ( 0.000000000000000000, 18.00000000000000355, 0.000000000000000000 ) ) ;
#73 = CARTESIAN_POINT ( 'NONE',  ( 0.000000000000000000, 0.000000000000000000, -2.000000000000000000 ) ) ;
#74 = FILL_AREA_STYLE_COLOUR ( '', #266 ) ;
#75 =( NAMED_UNIT ( * ) PLANE_ANGLE_UNIT ( ) SI_UNIT ( $, .RADIAN. ) );
#76 = ORIENTED_EDGE ( 'NONE', *, *, #37, .T. ) ;
#77 = ADVANCED_FACE ( 'NONE', ( #288 ), #257, .T. ) ;
#78 = ORIENTED_EDGE ( 'NONE', *, *, #292, .T. ) ;
#79 = VECTOR ( 'NONE', #216, 1000.000000000000000 ) ;
#80 = CARTESIAN_POINT ( 'NONE',  ( 7.592810154713587074E-15, 63.00000000000000000, 0.000000000000000000 ) ) ;
#81 =( NAMED_UNIT ( * ) SI_UNIT ( $, .STERADIAN. ) SOLID_ANGLE_UNIT ( ) );
#82 = PRESENTATION_STYLE_ASSIGNMENT (( #44 ) ) ;
#83 = ORIENTED_EDGE ( 'NONE', *, *, #302, .T. ) ;
#84 = CARTESIAN_POINT ( 'NONE',  ( 0.000000000000000000, 1.000000000000000000, 0.000000000000000000 ) ) ;
#85 =( NAMED_UNIT ( * ) PLANE_ANGLE_UNIT ( ) SI_UNIT ( $, .RADIAN. ) );
#86 = EDGE_CURVE ( 'NONE', #359, #227, #25, .T. ) ;
#87 = DIRECTION ( 'NONE',  ( -0.000000000000000000, -1.000000000000000000, -0.000000000000000000 ) ) ;
#88 = UNCERTAINTY_MEASURE_WITH_UNIT (LENGTH_MEASURE( 1.000000000000000082E-05 ), #319, 'distance_accuracy_value', 'NONE');
#89 =( GEOMETRIC_REPRESENTATION_CONTEXT ( 3 ) GLOBAL_UNCERTAINTY_ASSIGNED_CONTEXT ( ( #204 ) ) GLOBAL_UNIT_ASSIGNED_CONTEXT ( ( #134, #252, #81 ) ) REPRESENTATION_CONTEXT ( 'NONE', 'WORKASPACE' ) );
#90 = EDGE_CURVE ( 'NONE', #359, #338, #50, .T. ) ;
#91 = AXIS2_PLACEMENT_3D ( 'NONE', #92, #217, #189 ) ;
#92 = CARTESIAN_POINT ( 'NONE',  ( 7.592810154713587074E-15, 63.00000000000000000, 0.000000000000000000 ) ) ;
#93 = CIRCLE ( 'NONE', #271, 3.000000000000000000 ) ;
#94 = ORIENTED_EDGE ( 'NONE', *, *, #191, .F. ) ;
#95 = DIRECTION ( 'NONE',  ( -1.444848463910660280E-16, 1.000000000000000000, -0.000000000000000000 ) ) ;
#96 = STYLED_ITEM ( 'NONE', ( #262 ), #219 ) ;
#97 = FILL_AREA_STYLE ('',( #129 ) ) ;
#98 = CARTESIAN_POINT ( 'NONE',  ( 1.409462824231155764E-14, 18.00000000000000355, 0.000000000000000000 ) ) ;
#99 = PRESENTATION_STYLE_ASSIGNMENT (( #364 ) ) ;
#100 = EDGE_LOOP ( 'NONE', ( #39, #69 ) ) ;
#101 = EDGE_LOOP ( 'NONE', ( #308, #120, #103, #121 ) ) ;
#102 = FILL_AREA_STYLE ('',( #20 ) ) ;
#103 = ORIENTED_EDGE ( 'NONE', *, *, #107, .F. ) ;
#104 = COLOUR_RGB ( '',1.000000000000000000, 0.000000000000000000, 0.000000000000000000 ) ;
#105 = SURFACE_STYLE_FILL_AREA ( #102 ) ;
#106 = PLANE ( 'NONE',  #182 ) ;
#107 = EDGE_CURVE ( 'NONE', #193, #328, #6, .T. ) ;
#108 = CYLINDRICAL_SURFACE ( 'NONE', #110, 2.999999999999988454 ) ;
#109 = COLOUR_RGB ( '',0.7921568627450980005, 0.8196078431372548767, 0.9333333333333333481 ) ;
#110 = AXIS2_PLACEMENT_3D ( 'NONE', #80, #209, #311 ) ;
#111 = SURFACE_STYLE_USAGE ( .BOTH. , #62 ) ;
#112 = DIRECTION ( 'NONE',  ( 0.000000000000000000, 0.000000000000000000, -1.000000000000000000 ) ) ;
#113 = FACE_OUTER_BOUND ( 'NONE', #333, .T. ) ;
#114 = EDGE_CURVE ( 'NONE', #264, #328, #313, .T. ) ;
#115 = UNCERTAINTY_MEASURE_WITH_UNIT (LENGTH_MEASURE( 1.000000000000000082E-05 ), #343, 'distance_accuracy_value', 'NONE');
#116 = PRODUCT_DEFINITION ( 'UNKNOWN', '', #67, #347 ) ;
#117 = STYLED_ITEM ( 'NONE', ( #150 ), #77 ) ;
#118 = CYLINDRICAL_SURFACE ( 'NONE', #91, 2.999999999999988454 ) ;
#119 =( NAMED_UNIT ( * ) SI_UNIT ( $, .STERADIAN. ) SOLID_ANGLE_UNIT ( ) );
#120 = ORIENTED_EDGE ( 'NONE', *, *, #114, .T. ) ;
#121 = ORIENTED_EDGE ( 'NONE', *, *, #56, .F. ) ;
#122 = ORIENTED_EDGE ( 'NONE', *, *, #86, .T. ) ;
#123 = SURFACE_SIDE_STYLE ('',( #243 ) ) ;
#124 = PRODUCT ( '59628', '59628', '', ( #32 ) ) ;
#125 = SURFACE_STYLE_FILL_AREA ( #97 ) ;
#126 = EDGE_LOOP ( 'NONE', ( #353, #277, #15, #188 ) ) ;
#127 = CLOSED_SHELL ( 'NONE', ( #358, #63, #335, #232, #219, #77 ) ) ;
#128 = COLOUR_RGB ( '',1.000000000000000000, 0.000000000000000000, 0.000000000000000000 ) ;
#129 = FILL_AREA_STYLE_COLOUR ( '', #309 ) ;
#130 = SURFACE_SIDE_STYLE ('',( #43 ) ) ;
#131 = AXIS2_PLACEMENT_3D ( 'NONE', #286, #285, #58 ) ;
#132 = ORIENTED_EDGE ( 'NONE', *, *, #302, .F. ) ;
#133 = MECHANICAL_DESIGN_GEOMETRIC_PRESENTATION_REPRESENTATION (  '', ( #251 ), #42 ) ;
#134 =( LENGTH_UNIT ( ) NAMED_UNIT ( * ) SI_UNIT ( .MILLI., .METRE. ) );
#135 = ADVANCED_FACE ( 'NONE', ( #1 ), #108, .T. ) ;
#136 = DIRECTION ( 'NONE',  ( 0.000000000000000000, 0.000000000000000000, -1.000000000000000000 ) ) ;
#137 = CARTESIAN_POINT ( 'NONE',  ( 0.000000000000000000, 1.000000000000000000, -2.000000000000000000 ) ) ;
#138 = FILL_AREA_STYLE ('',( #74 ) ) ;
#139 = CARTESIAN_POINT ( 'NONE',  ( 0.000000000000000000, 18.00000000000000355, -2.999999999999999112 ) ) ;
#140 = DIRECTION ( 'NONE',  ( 0.000000000000000000, 0.000000000000000000, -1.000000000000000000 ) ) ;
#141 = CARTESIAN_POINT ( 'NONE',  ( 0.000000000000000000, 1.000000000000000000, 0.000000000000000000 ) ) ;
#142 = AXIS2_PLACEMENT_3D ( 'NONE', #202, #199, #275 ) ;
#143 = UNCERTAINTY_MEASURE_WITH_UNIT (LENGTH_MEASURE( 1.000000000000000082E-05 ), #234, 'distance_accuracy_value', 'NONE');
#144 = SURFACE_STYLE_FILL_AREA ( #24 ) ;
#145 = DIRECTION ( 'NONE',  ( -0.000000000000000000, -1.000000000000000000, -0.000000000000000000 ) ) ;
#146 = APPLICATION_CONTEXT ( 'automotive_design' ) ;
#147 = FILL_AREA_STYLE_COLOUR ( '', #64 ) ;
#148 = FILL_AREA_STYLE_COLOUR ( '', #128 ) ;
#149 =( NAMED_UNIT ( * ) SI_UNIT ( $, .STERADIAN. ) SOLID_ANGLE_UNIT ( ) );
#150 = PRESENTATION_STYLE_ASSIGNMENT (( #22 ) ) ;
#151 = MECHANICAL_DESIGN_GEOMETRIC_PRESENTATION_REPRESENTATION (  '', ( #237 ), #357 ) ;
#152 = APPLICATION_PROTOCOL_DEFINITION ( 'draft international standard', 'automotive_design', 1998, #283 ) ;
#153 = SURFACE_STYLE_USAGE ( .BOTH. , #2 ) ;
#154 = ADVANCED_BREP_SHAPE_REPRESENTATION ( '59628', ( #248, #366, #61 ), #220 ) ;
#155 = DIRECTION ( 'NONE',  ( 1.444848463910660280E-16, -1.000000000000000000, 0.000000000000000000 ) ) ;
#156 = ORIENTED_EDGE ( 'NONE', *, *, #86, .F. ) ;
#157 = STYLED_ITEM ( 'NONE', ( #33 ), #232 ) ;
#158 = SHAPE_DEFINITION_REPRESENTATION ( #8, #154 ) ;
#159 = AXIS2_PLACEMENT_3D ( 'NONE', #57, #163, #247 ) ;
#160 = PLANE ( 'NONE',  #267 ) ;
#161 = SURFACE_STYLE_USAGE ( .BOTH. , #123 ) ;
#162 = PRESENTATION_LAYER_ASSIGNMENT (  '', '', ( #187 ) ) ;
#163 = DIRECTION ( 'NONE',  ( -0.000000000000000000, -1.000000000000000000, -0.000000000000000000 ) ) ;
#164 = ORIENTED_EDGE ( 'NONE', *, *, #68, .F. ) ;
#165 = DIRECTION ( 'NONE',  ( 1.000000000000000000, 0.000000000000000000, -1.224646799147353207E-16 ) ) ;
#166 = EDGE_LOOP ( 'NONE', ( #169, #249 ) ) ;
#167 = CARTESIAN_POINT ( 'NONE',  ( -2.999999999999980460, 63.00000000000000000, 0.000000000000000000 ) ) ;
#168 =( NAMED_UNIT ( * ) PLANE_ANGLE_UNIT ( ) SI_UNIT ( $, .RADIAN. ) );
#169 = ORIENTED_EDGE ( 'NONE', *, *, #90, .F. ) ;
#170 = CARTESIAN_POINT ( 'NONE',  ( 0.000000000000000000, 1.000000000000000000, 0.000000000000000000 ) ) ;
#171 = CARTESIAN_POINT ( 'NONE',  ( 3.673940397442059375E-16, 1.000000000000000000, 3.000000000000000000 ) ) ;
#172 =( NAMED_UNIT ( * ) SI_UNIT ( $, .STERADIAN. ) SOLID_ANGLE_UNIT ( ) );
#173 = DIRECTION ( 'NONE',  ( -0.000000000000000000, -1.000000000000000000, -0.000000000000000000 ) ) ;
#174 = CARTESIAN_POINT ( 'NONE',  ( 2.999999999999996003, 63.00000000000000000, 3.673940397442045077E-16 ) ) ;
#175 =( NAMED_UNIT ( * ) PLANE_ANGLE_UNIT ( ) SI_UNIT ( $, .RADIAN. ) );
#176 = CARTESIAN_POINT ( 'NONE',  ( 3.673940397442059375E-16, 0.000000000000000000, 2.999999999999999556 ) ) ;
#177 = FACE_OUTER_BOUND ( 'NONE', #41, .T. ) ;
#178 = FACE_OUTER_BOUND ( 'NONE', #101, .T. ) ;
#179 = CARTESIAN_POINT ( 'NONE',  ( 0.000000000000000000, 0.000000000000000000, 0.000000000000000000 ) ) ;
#180 =( NAMED_UNIT ( * ) SI_UNIT ( $, .STERADIAN. ) SOLID_ANGLE_UNIT ( ) );
#181 = CIRCLE ( 'NONE', #12, 1.000000000000000000 ) ;
#182 = AXIS2_PLACEMENT_3D ( 'NONE', #238, #261, #112 ) ;
#183 = FILL_AREA_STYLE ('',( #148 ) ) ;
#184 =( NAMED_UNIT ( * ) SI_UNIT ( $, .STERADIAN. ) SOLID_ANGLE_UNIT ( ) );
#185 = CARTESIAN_POINT ( 'NONE',  ( 1.409462824231155764E-14, 18.00000000000000355, 0.000000000000000000 ) ) ;
#186 = VECTOR ( 'NONE', #369, 1000.000000000000000 ) ;
#187 = STYLED_ITEM ( 'NONE', ( #324 ), #358 ) ;
#188 = ORIENTED_EDGE ( 'NONE', *, *, #278, .F. ) ;
#189 = DIRECTION ( 'NONE',  ( -1.000000000000000000, 0.000000000000000000, 0.000000000000000000 ) ) ;
#190 = DIRECTION ( 'NONE',  ( -1.444848463910660280E-16, 1.000000000000000000, -0.000000000000000000 ) ) ;
#191 = EDGE_CURVE ( 'NONE', #227, #268, #93, .T. ) ;
#192 = STYLED_ITEM ( 'NONE', ( #197 ), #63 ) ;
#193 = VERTEX_POINT ( 'NONE', #255 ) ;
#194 = CIRCLE ( 'NONE', #195, 2.999999999999999112 ) ;
#195 = AXIS2_PLACEMENT_3D ( 'NONE', #17, #40, #225 ) ;
#196 = UNCERTAINTY_MEASURE_WITH_UNIT (LENGTH_MEASURE( 1.000000000000000082E-05 ), #48, 'distance_accuracy_value', 'NONE');
#197 = PRESENTATION_STYLE_ASSIGNMENT (( #337 ) ) ;
#198 = EDGE_CURVE ( 'NONE', #46, #264, #329, .T. ) ;
#199 = DIRECTION ( 'NONE',  ( -1.444848463910660280E-16, 1.000000000000000000, -0.000000000000000000 ) ) ;
#200 = AXIS2_PLACEMENT_3D ( 'NONE', #4, #87, #348 ) ;
#201 = CARTESIAN_POINT ( 'NONE',  ( 0.000000000000000000, 18.00000000000000355, 0.000000000000000000 ) ) ;
#202 = CARTESIAN_POINT ( 'NONE',  ( 7.592810154713587074E-15, 63.00000000000000000, 0.000000000000000000 ) ) ;
#203 = CARTESIAN_POINT ( 'NONE',  ( 3.061616997868383141E-16, 0.000000000000000000, 2.000000000000000000 ) ) ;
#204 = UNCERTAINTY_MEASURE_WITH_UNIT (LENGTH_MEASURE( 1.000000000000000082E-05 ), #134, 'distance_accuracy_value', 'NONE');
#205 = DIRECTION ( 'NONE',  ( -1.000000000000000000, 0.000000000000000000, 0.000000000000000000 ) ) ;
#206 =( GEOMETRIC_REPRESENTATION_CONTEXT ( 3 ) GLOBAL_UNCERTAINTY_ASSIGNED_CONTEXT ( ( #143 ) ) GLOBAL_UNIT_ASSIGNED_CONTEXT ( ( #234, #168, #172 ) ) REPRESENTATION_CONTEXT ( 'NONE', 'WORKASPACE' ) );
#207 = EDGE_CURVE ( 'NONE', #66, #254, #289, .T. ) ;
#208 = PRESENTATION_LAYER_ASSIGNMENT (  '', '', ( #237 ) ) ;
#209 = DIRECTION ( 'NONE',  ( -1.444848463910660280E-16, 1.000000000000000000, -0.000000000000000000 ) ) ;
#210 = SURFACE_STYLE_FILL_AREA ( #29 ) ;
#211 = APPLICATION_PROTOCOL_DEFINITION ( 'draft international standard', 'automotive_design', 1998, #146 ) ;
#212 = CARTESIAN_POINT ( 'NONE',  ( 0.000000000000000000, 1.000000000000000000, -3.000000000000000000 ) ) ;
#213 = FACE_OUTER_BOUND ( 'NONE', #363, .T. ) ;
#214 =( GEOMETRIC_REPRESENTATION_CONTEXT ( 3 ) GLOBAL_UNCERTAINTY_ASSIGNED_CONTEXT ( ( #16 ) ) GLOBAL_UNIT_ASSIGNED_CONTEXT ( ( #318, #344, #222 ) ) REPRESENTATION_CONTEXT ( 'NONE', 'WORKASPACE' ) );
#215 = CIRCLE ( 'NONE', #352, 2.999999999999984457 ) ;
#216 = DIRECTION ( 'NONE',  ( -0.000000000000000000, -1.000000000000000000, -0.000000000000000000 ) ) ;
#217 = DIRECTION ( 'NONE',  ( -1.444848463910660280E-16, 1.000000000000000000, -0.000000000000000000 ) ) ;
#218 = CIRCLE ( 'NONE', #60, 2.000000000000000000 ) ;
#219 = ADVANCED_FACE ( 'NONE', ( #177 ), #27, .T. ) ;
#220 =( GEOMETRIC_REPRESENTATION_CONTEXT ( 3 ) GLOBAL_UNCERTAINTY_ASSIGNED_CONTEXT ( ( #38 ) ) GLOBAL_UNIT_ASSIGNED_CONTEXT ( ( #294, #346, #180 ) ) REPRESENTATION_CONTEXT ( 'NONE', 'WORKASPACE' ) );
#221 = SURFACE_STYLE_USAGE ( .BOTH. , #244 ) ;
#222 =( NAMED_UNIT ( * ) SI_UNIT ( $, .STERADIAN. ) SOLID_ANGLE_UNIT ( ) );
#223 =( GEOMETRIC_REPRESENTATION_CONTEXT ( 3 ) GLOBAL_UNCERTAINTY_ASSIGNED_CONTEXT ( ( #115 ) ) GLOBAL_UNIT_ASSIGNED_CONTEXT ( ( #343, #265, #149 ) ) REPRESENTATION_CONTEXT ( 'NONE', 'WORKASPACE' ) );
#224 = EDGE_LOOP ( 'NONE', ( #367, #368 ) ) ;
#225 = DIRECTION ( 'NONE',  ( 0.000000000000000000, 0.000000000000000000, -1.000000000000000000 ) ) ;
#226 = PRESENTATION_STYLE_ASSIGNMENT (( #161 ) ) ;
#227 = VERTEX_POINT ( 'NONE', #212 ) ;
#228 = VECTOR ( 'NONE', #95, 1000.000000000000000 ) ;
#229 = STYLED_ITEM ( 'NONE', ( #99 ), #248 ) ;
#230 = DIRECTION ( 'NONE',  ( -1.224646799147353207E-16, 0.000000000000000000, -1.000000000000000000 ) ) ;
#231 = CARTESIAN_POINT ( 'NONE',  ( 0.000000000000000000, 0.000000000000000000, -2.999999999999999556 ) ) ;
#232 = ADVANCED_FACE ( 'NONE', ( #113 ), #336, .T. ) ;
#233 = ORIENTED_EDGE ( 'NONE', *, *, #37, .F. ) ;
#234 =( LENGTH_UNIT ( ) NAMED_UNIT ( * ) SI_UNIT ( .MILLI., .METRE. ) );
#235 =( GEOMETRIC_REPRESENTATION_CONTEXT ( 3 ) GLOBAL_UNCERTAINTY_ASSIGNED_CONTEXT ( ( #280 ) ) GLOBAL_UNIT_ASSIGNED_CONTEXT ( ( #19, #175, #320 ) ) REPRESENTATION_CONTEXT ( 'NONE', 'WORKASPACE' ) );
#236 =( LENGTH_UNIT ( ) NAMED_UNIT ( * ) SI_UNIT ( .MILLI., .METRE. ) );
#237 = STYLED_ITEM ( 'NONE', ( #82 ), #366 ) ;
#238 = CARTESIAN_POINT ( 'NONE',  ( 0.000000000000000000, 0.000000000000000000, 0.000000000000000000 ) ) ;
#239 = CARTESIAN_POINT ( 'NONE',  ( 2.999999999999999112, 63.00000000000000000, 0.000000000000000000 ) ) ;
#240 = CARTESIAN_POINT ( 'NONE',  ( 3.673940397442059375E-16, 18.00000000000000355, 2.999999999999999112 ) ) ;
#241 = CARTESIAN_POINT ( 'NONE',  ( 0.000000000000000000, 0.000000000000000000, 0.000000000000000000 ) ) ;
#242 = ORIENTED_EDGE ( 'NONE', *, *, #350, .F. ) ;
#243 = SURFACE_STYLE_FILL_AREA ( #11 ) ;
#244 = SURFACE_SIDE_STYLE ('',( #125 ) ) ;
#245 = TOROIDAL_SURFACE ( 'NONE', #3, 2.000000000000000000, 1.000000000000000000 ) ;
#246 = CIRCLE ( 'NONE', #23, 3.000000000000000000 ) ;
#247 = DIRECTION ( 'NONE',  ( 0.000000000000000000, 0.000000000000000000, -1.000000000000000000 ) ) ;
#248 = MANIFOLD_SOLID_BREP ( 'Revolve - Cutting Edge', #127 ) ;
#249 = ORIENTED_EDGE ( 'NONE', *, *, #292, .F. ) ;
#250 = DIRECTION ( 'NONE',  ( 0.000000000000000000, -0.000000000000000000, 1.000000000000000000 ) ) ;
#251 = STYLED_ITEM ( 'NONE', ( #226 ), #335 ) ;
#252 =( NAMED_UNIT ( * ) PLANE_ANGLE_UNIT ( ) SI_UNIT ( $, .RADIAN. ) );
#253 = ORIENTED_EDGE ( 'NONE', *, *, #191, .T. ) ;
#254 = VERTEX_POINT ( 'NONE', #73 ) ;
#255 = CARTESIAN_POINT ( 'NONE',  ( -2.999999999999983569, 63.00000000000000000, 0.000000000000000000 ) ) ;
#256 = DIRECTION ( 'NONE',  ( -0.000000000000000000, -1.000000000000000000, -0.000000000000000000 ) ) ;
#257 = PLANE ( 'NONE',  #272 ) ;
#258 = DIRECTION ( 'NONE',  ( -1.444848463910660280E-16, 1.000000000000000000, -0.000000000000000000 ) ) ;
#259 = SURFACE_STYLE_FILL_AREA ( #183 ) ;
#260 = AXIS2_PLACEMENT_3D ( 'NONE', #201, #145, #45 ) ;
#261 = DIRECTION ( 'NONE',  ( 0.000000000000000000, -1.000000000000000000, -0.000000000000000000 ) ) ;
#262 = PRESENTATION_STYLE_ASSIGNMENT (( #111 ) ) ;
#263 = MECHANICAL_DESIGN_GEOMETRIC_PRESENTATION_REPRESENTATION (  '', ( #117 ), #214 ) ;
#264 = VERTEX_POINT ( 'NONE', #334 ) ;
#265 =( NAMED_UNIT ( * ) PLANE_ANGLE_UNIT ( ) SI_UNIT ( $, .RADIAN. ) );
#266 = COLOUR_RGB ( '',1.000000000000000000, 0.000000000000000000, 0.000000000000000000 ) ;
#267 = AXIS2_PLACEMENT_3D ( 'NONE', #185, #293, #9 ) ;
#268 = VERTEX_POINT ( 'NONE', #171 ) ;
#269 = FACE_OUTER_BOUND ( 'NONE', #341, .T. ) ;
#270 = ORIENTED_EDGE ( 'NONE', *, *, #350, .T. ) ;
#271 = AXIS2_PLACEMENT_3D ( 'NONE', #170, #18, #140 ) ;
#272 = AXIS2_PLACEMENT_3D ( 'NONE', #72, #303, #250 ) ;
#273 = COLOUR_RGB ( '',0.7921568627450980005, 0.8196078431372548767, 0.9333333333333333481 ) ;
#274 = ORIENTED_EDGE ( 'NONE', *, *, #207, .T. ) ;
#275 = DIRECTION ( 'NONE',  ( -1.000000000000000000, 0.000000000000000000, 0.000000000000000000 ) ) ;
#276 = LINE ( 'NONE', #167, #228 ) ;
#277 = ORIENTED_EDGE ( 'NONE', *, *, #279, .T. ) ;
#278 = EDGE_CURVE ( 'NONE', #328, #193, #299, .T. ) ;
#279 = EDGE_CURVE ( 'NONE', #264, #46, #215, .T. ) ;
#280 = UNCERTAINTY_MEASURE_WITH_UNIT (LENGTH_MEASURE( 1.000000000000000082E-05 ), #19, 'distance_accuracy_value', 'NONE');
#281 = PRESENTATION_LAYER_ASSIGNMENT (  '', '', ( #117 ) ) ;
#282 = DIRECTION ( 'NONE',  ( -0.000000000000000000, -1.000000000000000000, -0.000000000000000000 ) ) ;
#283 = APPLICATION_CONTEXT ( 'automotive_design' ) ;
#284 =( NAMED_UNIT ( * ) SI_UNIT ( $, .STERADIAN. ) SOLID_ANGLE_UNIT ( ) );
#285 = DIRECTION ( 'NONE',  ( -0.000000000000000000, -1.000000000000000000, -0.000000000000000000 ) ) ;
#286 = CARTESIAN_POINT ( 'NONE',  ( 0.000000000000000000, 0.000000000000000000, 0.000000000000000000 ) ) ;
#287 = CLOSED_SHELL ( 'NONE', ( #306, #326, #135, #345 ) ) ;
#288 = FACE_OUTER_BOUND ( 'NONE', #166, .T. ) ;
#289 = CIRCLE ( 'NONE', #131, 2.000000000000000000 ) ;
#290 = DIRECTION ( 'NONE',  ( 1.000000000000000000, 0.000000000000000000, 0.000000000000000000 ) ) ;
#291 = DIRECTION ( 'NONE',  ( 0.000000000000000000, 0.000000000000000000, -1.000000000000000000 ) ) ;
#292 = EDGE_CURVE ( 'NONE', #338, #359, #194, .T. ) ;
#293 = DIRECTION ( 'NONE',  ( -1.444848463910660280E-16, 1.000000000000000000, 0.000000000000000000 ) ) ;
#294 =( LENGTH_UNIT ( ) NAMED_UNIT ( * ) SI_UNIT ( .MILLI., .METRE. ) );
#295 = PRESENTATION_LAYER_ASSIGNMENT (  '', '', ( #229 ) ) ;
#296 = AXIS2_PLACEMENT_3D ( 'NONE', #137, #370, #340 ) ;
#297 = EDGE_CURVE ( 'NONE', #268, #227, #246, .T. ) ;
#298 = FACE_OUTER_BOUND ( 'NONE', #224, .T. ) ;
#299 = CIRCLE ( 'NONE', #142, 2.999999999999991562 ) ;
#300 = ORIENTED_EDGE ( 'NONE', *, *, #297, .F. ) ;
#301 = AXIS2_PLACEMENT_3D ( 'NONE', #239, #155, #315 ) ;
#302 = EDGE_CURVE ( 'NONE', #227, #254, #71, .T. ) ;
#303 = DIRECTION ( 'NONE',  ( 0.000000000000000000, 1.000000000000000000, 0.000000000000000000 ) ) ;
#304 = DIRECTION ( 'NONE',  ( -1.000000000000000000, 0.000000000000000000, 0.000000000000000000 ) ) ;
#305 = SURFACE_SIDE_STYLE ('',( #105 ) ) ;
#306 = ADVANCED_FACE ( 'NONE', ( #178 ), #118, .T. ) ;
#307 = DIRECTION ( 'NONE',  ( 0.000000000000000000, 0.000000000000000000, -1.000000000000000000 ) ) ;
#308 = ORIENTED_EDGE ( 'NONE', *, *, #198, .T. ) ;
#309 = COLOUR_RGB ( '',1.000000000000000000, 0.000000000000000000, 0.000000000000000000 ) ;
#310 = DIRECTION ( 'NONE',  ( -0.000000000000000000, -1.000000000000000000, -0.000000000000000000 ) ) ;
#311 = DIRECTION ( 'NONE',  ( -1.000000000000000000, 0.000000000000000000, 0.000000000000000000 ) ) ;
#312 = DIRECTION ( 'NONE',  ( 0.000000000000000000, 0.000000000000000000, -1.000000000000000000 ) ) ;
#313 = LINE ( 'NONE', #174, #186 ) ;
#314 = VECTOR ( 'NONE', #310, 1000.000000000000000 ) ;
#315 = DIRECTION ( 'NONE',  ( 1.000000000000000000, 1.444848463910660280E-16, 0.000000000000000000 ) ) ;
#316 =( GEOMETRIC_REPRESENTATION_CONTEXT ( 3 ) GLOBAL_UNCERTAINTY_ASSIGNED_CONTEXT ( ( #321 ) ) GLOBAL_UNIT_ASSIGNED_CONTEXT ( ( #236, #85, #184 ) ) REPRESENTATION_CONTEXT ( 'NONE', 'WORKASPACE' ) );
#317 = DIRECTION ( 'NONE',  ( -0.000000000000000000, -1.000000000000000000, -0.000000000000000000 ) ) ;
#318 =( LENGTH_UNIT ( ) NAMED_UNIT ( * ) SI_UNIT ( .MILLI., .METRE. ) );
#319 =( LENGTH_UNIT ( ) NAMED_UNIT ( * ) SI_UNIT ( .MILLI., .METRE. ) );
#320 =( NAMED_UNIT ( * ) SI_UNIT ( $, .STERADIAN. ) SOLID_ANGLE_UNIT ( ) );
#321 = UNCERTAINTY_MEASURE_WITH_UNIT (LENGTH_MEASURE( 1.000000000000000082E-05 ), #236, 'distance_accuracy_value', 'NONE');
#322 = SURFACE_STYLE_FILL_AREA ( #5 ) ;
#323 = PRESENTATION_LAYER_ASSIGNMENT (  '', '', ( #251 ) ) ;
#324 = PRESENTATION_STYLE_ASSIGNMENT (( #153 ) ) ;
#325 = CARTESIAN_POINT ( 'NONE',  ( 2.999999999999999556, 63.00000000000000000, 3.673940397442047542E-16 ) ) ;
#326 = ADVANCED_FACE ( 'NONE', ( #298 ), #160, .F. ) ;
#327 = MECHANICAL_DESIGN_GEOMETRIC_PRESENTATION_REPRESENTATION (  '', ( #229 ), #89 ) ;
#328 = VERTEX_POINT ( 'NONE', #325 ) ;
#329 = CIRCLE ( 'NONE', #21, 2.999999999999984457 ) ;
#330 = ORIENTED_EDGE ( 'NONE', *, *, #297, .T. ) ;
#331 = CARTESIAN_POINT ( 'NONE',  ( 2.449293598294706414E-16, 1.000000000000000000, 2.000000000000000000 ) ) ;
#332 = CARTESIAN_POINT ( 'NONE',  ( 0.000000000000000000, 1.000000000000000000, 0.000000000000000000 ) ) ;
#333 = EDGE_LOOP ( 'NONE', ( #233, #330, #83, #356 ) ) ;
#335 = ADVANCED_FACE ( 'NONE', ( #354 ), #106, .T. ) ;
#334 = CARTESIAN_POINT ( 'NONE',  ( 2.999999999999999112, 18.00000000000000355, 3.673940397442046556E-16 ) ) ;
#336 = TOROIDAL_SURFACE ( 'NONE', #13, 2.000000000000000000, 1.000000000000000000 ) ;
#337 = SURFACE_STYLE_USAGE ( .BOTH. , #130 ) ;
#338 = VERTEX_POINT ( 'NONE', #240 ) ;
#339 = CARTESIAN_POINT ( 'NONE',  ( 1.409462824231155764E-14, 18.00000000000000355, 0.000000000000000000 ) ) ;
#340 = DIRECTION ( 'NONE',  ( 0.000000000000000000, 0.000000000000000000, 1.000000000000000000 ) ) ;
#341 = EDGE_LOOP ( 'NONE', ( #253, #76, #164, #132 ) ) ;
#342 = FACE_OUTER_BOUND ( 'NONE', #100, .T. ) ;
#343 =( LENGTH_UNIT ( ) NAMED_UNIT ( * ) SI_UNIT ( .MILLI., .METRE. ) );
#344 =( NAMED_UNIT ( * ) PLANE_ANGLE_UNIT ( ) SI_UNIT ( $, .RADIAN. ) );
#345 = ADVANCED_FACE ( 'NONE', ( #342 ), #54, .F. ) ;
#346 =( NAMED_UNIT ( * ) PLANE_ANGLE_UNIT ( ) SI_UNIT ( $, .RADIAN. ) );
#347 = PRODUCT_DEFINITION_CONTEXT ( 'detailed design', #283, 'design' ) ;
#348 = DIRECTION ( 'NONE',  ( 0.000000000000000000, 0.000000000000000000, -1.000000000000000000 ) ) ;
#349 = PRESENTATION_LAYER_ASSIGNMENT (  '', '', ( #192 ) ) ;
#350 = EDGE_CURVE ( 'NONE', #338, #268, #351, .T. ) ;
#351 = LINE ( 'NONE', #176, #79 ) ;
#352 = AXIS2_PLACEMENT_3D ( 'NONE', #98, #360, #304 ) ;
#353 = ORIENTED_EDGE ( 'NONE', *, *, #114, .F. ) ;
#354 = FACE_OUTER_BOUND ( 'NONE', #49, .T. ) ;
#355 = COLOUR_RGB ( '',1.000000000000000000, 0.000000000000000000, 0.000000000000000000 ) ;
#356 = ORIENTED_EDGE ( 'NONE', *, *, #207, .F. ) ;
#357 =( GEOMETRIC_REPRESENTATION_CONTEXT ( 3 ) GLOBAL_UNCERTAINTY_ASSIGNED_CONTEXT ( ( #196 ) ) GLOBAL_UNIT_ASSIGNED_CONTEXT ( ( #48, #75, #119 ) ) REPRESENTATION_CONTEXT ( 'NONE', 'WORKASPACE' ) );
#358 = ADVANCED_FACE ( 'NONE', ( #213 ), #30, .T. ) ;
#359 = VERTEX_POINT ( 'NONE', #139 ) ;
#360 = DIRECTION ( 'NONE',  ( -1.444848463910660280E-16, 1.000000000000000000, -0.000000000000000000 ) ) ;
#361 = CARTESIAN_POINT ( 'NONE',  ( -2.999999999999970690, 18.00000000000000355, 0.000000000000000000 ) ) ;
#362 = MECHANICAL_DESIGN_GEOMETRIC_PRESENTATION_REPRESENTATION (  '', ( #157 ), #206 ) ;
#363 = EDGE_LOOP ( 'NONE', ( #36, #270, #94, #156 ) ) ;
#364 = SURFACE_STYLE_USAGE ( .BOTH. , #55 ) ;
#365 = ORIENTED_EDGE ( 'NONE', *, *, #68, .T. ) ;
#366 = MANIFOLD_SOLID_BREP ( 'Revolve - Tool Body (Straight Shanked)', #287 ) ;
#367 = ORIENTED_EDGE ( 'NONE', *, *, #198, .F. ) ;
#368 = ORIENTED_EDGE ( 'NONE', *, *, #279, .F. ) ;
#369 = DIRECTION ( 'NONE',  ( -1.444848463910660280E-16, 1.000000000000000000, -0.000000000000000000 ) ) ;
#370 = DIRECTION ( 'NONE',  ( -1.000000000000000000, 0.000000000000000000, 0.000000000000000000 ) ) ;
ENDSEC;
END-ISO-10303-21;
