ISO-10303-21;
HEADER;
FILE_DESCRIPTION (( 'STEP AP214' ),
    '1' );
FILE_NAME ('84688.STEP',
    '2023-06-23T14:38:38',
    ( '' ),
    ( '' ),
    'SwSTEP 2.0',
    'SolidWorks 2023',
    '' );
FILE_SCHEMA (( 'AUTOMOTIVE_DESIGN' ));
ENDSEC;

DATA;
#1 = EDGE_CURVE ( 'NONE', #45, #2, #77, .T. ) ;
#2 = VERTEX_POINT ( 'NONE', #16 ) ;
#3 = SURFACE_STYLE_FILL_AREA ( #57 ) ;
#4 = PRODUCT_DEFINITION_SHAPE ( 'NONE', 'NONE',  #209 ) ;
#5 = MANIFOLD_SOLID_BREP ( 'Revolve - Tool Body (Reduced Cut Diameter)', #185 ) ;
#6 = DIMENSIONAL_EXPONENTS ( 1.000000000000000000, 0.000000000000000000, 0.000000000000000000, 0.000000000000000000, 0.000000000000000000, 0.000000000000000000, 0.000000000000000000 ) ;
#7 = AXIS2_PLACEMENT_3D ( 'NONE', #284, #359, #80 ) ;
#8 = EDGE_CURVE ( 'NONE', #330, #27, #268, .T. ) ;
#9 = LENGTH_MEASURE_WITH_UNIT ( LENGTH_MEASURE( 0.02539999999999999897 ), #230 );
#10 = DIRECTION ( 'NONE',  ( -1.000000000000000000, 0.000000000000000000, 0.000000000000000000 ) ) ;
#11 = SURFACE_STYLE_FILL_AREA ( #265 ) ;
#12 = FILL_AREA_STYLE_COLOUR ( '', #276 ) ;
#13 = MECHANICAL_DESIGN_GEOMETRIC_PRESENTATION_REPRESENTATION (  '', ( #242 ), #264 ) ;
#14 =( NAMED_UNIT ( * ) SI_UNIT ( $, .STERADIAN. ) SOLID_ANGLE_UNIT ( ) );
#15 = PRODUCT ( '84688', '84688', '', ( #61 ) ) ;
#16 = CARTESIAN_POINT ( 'NONE',  ( 0.000000000000000000, 1.500000000000000222, -0.1406000000000000028 ) ) ;
#17 =( NAMED_UNIT ( * ) PLANE_ANGLE_UNIT ( ) SI_UNIT ( $, .RADIAN. ) );
#18 = CARTESIAN_POINT ( 'NONE',  ( 0.000000000000000000, 0.000000000000000000, 0.000000000000000000 ) ) ;
#19 =( NAMED_UNIT ( * ) PLANE_ANGLE_UNIT ( ) SI_UNIT ( $, .RADIAN. ) );
#20 = CIRCLE ( 'NONE', #254, 0.1562499999999999167 ) ;
#21 = FACE_OUTER_BOUND ( 'NONE', #302, .T. ) ;
#22 = DIRECTION ( 'NONE',  ( -8.164311994315692567E-17, 1.000000000000000000, -0.000000000000000000 ) ) ;
#23 = CIRCLE ( 'NONE', #66, 0.1406000000000000028 ) ;
#24 = CIRCLE ( 'NONE', #173, 0.1406000000000000028 ) ;
#25 = LENGTH_MEASURE_WITH_UNIT ( LENGTH_MEASURE( 0.02539999999999999897 ), #51 );
#26 = CIRCLE ( 'NONE', #182, 0.1406000000000000028 ) ;
#27 = VERTEX_POINT ( 'NONE', #60 ) ;
#28 =( GEOMETRIC_REPRESENTATION_CONTEXT ( 3 ) GLOBAL_UNCERTAINTY_ASSIGNED_CONTEXT ( ( #148 ) ) GLOBAL_UNIT_ASSIGNED_CONTEXT ( ( #82, #256, #313 ) ) REPRESENTATION_CONTEXT ( 'NONE', 'WORKASPACE' ) );
#29 = DIRECTION ( 'NONE',  ( 0.000000000000000000, -1.000000000000000000, -0.000000000000000000 ) ) ;
#30 = ORIENTED_EDGE ( 'NONE', *, *, #156, .F. ) ;
#31 = DIRECTION ( 'NONE',  ( -8.164311994315692567E-17, 1.000000000000000000, -0.000000000000000000 ) ) ;
#32 = PRESENTATION_LAYER_ASSIGNMENT (  '', '', ( #96 ) ) ;
#33 = AXIS2_PLACEMENT_3D ( 'NONE', #309, #112, #215 ) ;
#34 = CARTESIAN_POINT ( 'NONE',  ( 1.516480271171051896E-32, 1.500000000000000222, 0.000000000000000000 ) ) ;
#35 = EDGE_CURVE ( 'NONE', #45, #205, #179, .T. ) ;
#36 =( CONVERSION_BASED_UNIT ( 'INCH', #288 ) LENGTH_UNIT ( ) NAMED_UNIT ( #280 ) );
#37 = CYLINDRICAL_SURFACE ( 'NONE', #222, 0.1406000000000000028 ) ;
#38 = COLOUR_RGB ( '',1.000000000000000000, 0.000000000000000000, 0.000000000000000000 ) ;
#39 = DIRECTION ( 'NONE',  ( -0.000000000000000000, -1.000000000000000000, -0.000000000000000000 ) ) ;
#40 = CYLINDRICAL_SURFACE ( 'NONE', #310, 0.1562499999999999445 ) ;
#41 = DIRECTION ( 'NONE',  ( -0.3420201433256685464, 0.9396926207859083169, 0.000000000000000000 ) ) ;
#42 = CARTESIAN_POINT ( 'NONE',  ( 0.000000000000000000, 0.000000000000000000, 0.000000000000000000 ) ) ;
#43 = LINE ( 'NONE', #351, #163 ) ;
#44 = COLOUR_RGB ( '',0.7921568627450980005, 0.8196078431372548767, 0.9333333333333333481 ) ;
#45 = VERTEX_POINT ( 'NONE', #238 ) ;
#46 = EDGE_CURVE ( 'NONE', #109, #205, #23, .T. ) ;
#47 = CARTESIAN_POINT ( 'NONE',  ( 1.721853399601178741E-17, 0.000000000000000000, 0.1406000000000000028 ) ) ;
#48 = EDGE_LOOP ( 'NONE', ( #128, #332 ) ) ;
#49 = UNCERTAINTY_MEASURE_WITH_UNIT (LENGTH_MEASURE( 1.000000000000000082E-05 ), #286, 'distance_accuracy_value', 'NONE');
#50 = MECHANICAL_DESIGN_GEOMETRIC_PRESENTATION_REPRESENTATION (  '', ( #233 ), #81 ) ;
#51 =( LENGTH_UNIT ( ) NAMED_UNIT ( * ) SI_UNIT ( $, .METRE. ) );
#52 = DIRECTION ( 'NONE',  ( 0.000000000000000000, 0.000000000000000000, -1.000000000000000000 ) ) ;
#53 = FILL_AREA_STYLE_COLOUR ( '', #300 ) ;
#54 = MECHANICAL_DESIGN_GEOMETRIC_PRESENTATION_REPRESENTATION (  '', ( #140 ), #28 ) ;
#55 = PLANE ( 'NONE',  #7 ) ;
#56 = ORIENTED_EDGE ( 'NONE', *, *, #346, .T. ) ;
#57 = FILL_AREA_STYLE ('',( #53 ) ) ;
#58 = EDGE_CURVE ( 'NONE', #325, #330, #158, .T. ) ;
#59 = EDGE_LOOP ( 'NONE', ( #355, #186, #107, #30 ) ) ;
#60 = CARTESIAN_POINT ( 'NONE',  ( -0.1562500000000001388, 3.000000000000000444, 0.000000000000000000 ) ) ;
#61 = PRODUCT_CONTEXT ( 'NONE', #143, 'mechanical' ) ;
#62 = SURFACE_STYLE_USAGE ( .BOTH. , #216 ) ;
#63 = AXIS2_PLACEMENT_3D ( 'NONE', #334, #228, #147 ) ;
#64 = EDGE_CURVE ( 'NONE', #161, #192, #43, .T. ) ;
#65 = CARTESIAN_POINT ( 'NONE',  ( 0.000000000000000000, 0.000000000000000000, 0.000000000000000000 ) ) ;
#66 = AXIS2_PLACEMENT_3D ( 'NONE', #18, #318, #319 ) ;
#67 = EDGE_CURVE ( 'NONE', #27, #306, #171, .T. ) ;
#68 =( CONVERSION_BASED_UNIT ( 'INCH', #267 ) LENGTH_UNIT ( ) NAMED_UNIT ( #221 ) );
#69 = CARTESIAN_POINT ( 'NONE',  ( 0.000000000000000000, 0.000000000000000000, 0.000000000000000000 ) ) ;
#70 = ORIENTED_EDGE ( 'NONE', *, *, #301, .T. ) ;
#71 = DIRECTION ( 'NONE',  ( -1.000000000000000000, 0.000000000000000000, 0.000000000000000000 ) ) ;
#72 = FACE_OUTER_BOUND ( 'NONE', #48, .T. ) ;
#73 = MECHANICAL_DESIGN_GEOMETRIC_PRESENTATION_REPRESENTATION (  '', ( #231 ), #196 ) ;
#74 = DIRECTION ( 'NONE',  ( -0.000000000000000000, -1.000000000000000000, -0.000000000000000000 ) ) ;
#75 = ORIENTED_EDGE ( 'NONE', *, *, #184, .T. ) ;
#76 = EDGE_LOOP ( 'NONE', ( #131, #244 ) ) ;
#77 = CIRCLE ( 'NONE', #213, 0.1406000000000000028 ) ;
#78 = CARTESIAN_POINT ( 'NONE',  ( -1.224646799147353700E-16, 3.000000000000000444, 0.000000000000000000 ) ) ;
#79 = EDGE_CURVE ( 'NONE', #306, #27, #111, .T. ) ;
#80 = DIRECTION ( 'NONE',  ( 1.000000000000000000, 8.164311994315692567E-17, 0.000000000000000000 ) ) ;
#81 =( GEOMETRIC_REPRESENTATION_CONTEXT ( 3 ) GLOBAL_UNCERTAINTY_ASSIGNED_CONTEXT ( ( #84 ) ) GLOBAL_UNIT_ASSIGNED_CONTEXT ( ( #135, #117, #249 ) ) REPRESENTATION_CONTEXT ( 'NONE', 'WORKASPACE' ) );
#82 =( CONVERSION_BASED_UNIT ( 'INCH', #102 ) LENGTH_UNIT ( ) NAMED_UNIT ( #336 ) );
#83 = DIMENSIONAL_EXPONENTS ( 1.000000000000000000, 0.000000000000000000, 0.000000000000000000, 0.000000000000000000, 0.000000000000000000, 0.000000000000000000, 0.000000000000000000 ) ;
#84 = UNCERTAINTY_MEASURE_WITH_UNIT (LENGTH_MEASURE( 1.000000000000000082E-05 ), #135, 'distance_accuracy_value', 'NONE');
#85 = DIRECTION ( 'NONE',  ( -8.164311994315692567E-17, 1.000000000000000000, -0.000000000000000000 ) ) ;
#86 = CARTESIAN_POINT ( 'NONE',  ( 0.000000000000000000, 1.500000000000000222, 0.000000000000000000 ) ) ;
#87 = PRODUCT_RELATED_PRODUCT_CATEGORY ( 'part', '', ( #15 ) ) ;
#88 = CARTESIAN_POINT ( 'NONE',  ( 0.1562499999999998612, 3.000000000000000444, 1.913510623667738847E-17 ) ) ;
#89 = CARTESIAN_POINT ( 'NONE',  ( -3.510492635988155119E-18, 1.542998021614464532, 0.000000000000000000 ) ) ;
#90 =( CONVERSION_BASED_UNIT ( 'INCH', #9 ) LENGTH_UNIT ( ) NAMED_UNIT ( #170 ) );
#91 = CARTESIAN_POINT ( 'NONE',  ( 1.516480271171051896E-32, 1.500000000000000222, 0.000000000000000000 ) ) ;
#92 = VECTOR ( 'NONE', #127, 39.37007874015748143 ) ;
#93 = PRESENTATION_STYLE_ASSIGNMENT (( #229 ) ) ;
#94 = EDGE_CURVE ( 'NONE', #330, #192, #139, .T. ) ;
#95 = SURFACE_STYLE_USAGE ( .BOTH. , #341 ) ;
#96 = STYLED_ITEM ( 'NONE', ( #122 ), #5 ) ;
#97 = APPLICATION_CONTEXT ( 'automotive_design' ) ;
#98 = ORIENTED_EDGE ( 'NONE', *, *, #8, .F. ) ;
#99 = DIRECTION ( 'NONE',  ( 0.000000000000000000, 0.000000000000000000, -1.000000000000000000 ) ) ;
#100 = DIRECTION ( 'NONE',  ( -0.000000000000000000, -1.000000000000000000, -0.000000000000000000 ) ) ;
#101 = ORIENTED_EDGE ( 'NONE', *, *, #151, .F. ) ;
#102 = LENGTH_MEASURE_WITH_UNIT ( LENGTH_MEASURE( 0.02539999999999999897 ), #269 );
#103 =( NAMED_UNIT ( * ) PLANE_ANGLE_UNIT ( ) SI_UNIT ( $, .RADIAN. ) );
#104 = DIRECTION ( 'NONE',  ( 0.3420201433256685464, 0.9396926207859085389, 4.188538737676991149E-17 ) ) ;
#105 = COLOUR_RGB ( '',0.7921568627450980005, 0.8196078431372548767, 0.9333333333333333481 ) ;
#106 = PRESENTATION_LAYER_ASSIGNMENT (  '', '', ( #242 ) ) ;
#107 = ORIENTED_EDGE ( 'NONE', *, *, #46, .F. ) ;
#108 = ORIENTED_EDGE ( 'NONE', *, *, #156, .T. ) ;
#109 = VERTEX_POINT ( 'NONE', #321 ) ;
#110 = ORIENTED_EDGE ( 'NONE', *, *, #79, .F. ) ;
#111 = CIRCLE ( 'NONE', #118, 0.1562500000000000000 ) ;
#112 = DIRECTION ( 'NONE',  ( 0.000000000000000000, 1.000000000000000000, 0.000000000000000000 ) ) ;
#113 = ADVANCED_FACE ( 'NONE', ( #72 ), #55, .F. ) ;
#114 = ORIENTED_EDGE ( 'NONE', *, *, #151, .T. ) ;
#115 = DIRECTION ( 'NONE',  ( -1.000000000000000000, 0.000000000000000000, 0.000000000000000000 ) ) ;
#116 = DIRECTION ( 'NONE',  ( -0.000000000000000000, -1.000000000000000000, -0.000000000000000000 ) ) ;
#117 =( NAMED_UNIT ( * ) PLANE_ANGLE_UNIT ( ) SI_UNIT ( $, .RADIAN. ) );
#118 = AXIS2_PLACEMENT_3D ( 'NONE', #208, #130, #272 ) ;
#119 = FILL_AREA_STYLE_COLOUR ( '', #190 ) ;
#120 = FILL_AREA_STYLE ('',( #12 ) ) ;
#121 =( LENGTH_UNIT ( ) NAMED_UNIT ( * ) SI_UNIT ( $, .METRE. ) );
#122 = PRESENTATION_STYLE_ASSIGNMENT (( #95 ) ) ;
#123 = EDGE_CURVE ( 'NONE', #2, #45, #342, .T. ) ;
#124 = DIRECTION ( 'NONE',  ( 0.000000000000000000, 0.000000000000000000, 1.000000000000000000 ) ) ;
#125 = PRESENTATION_STYLE_ASSIGNMENT (( #292 ) ) ;
#126 = MECHANICAL_DESIGN_GEOMETRIC_PRESENTATION_REPRESENTATION (  '', ( #96 ), #175 ) ;
#127 = DIRECTION ( 'NONE',  ( -8.164311994315692567E-17, 1.000000000000000000, -0.000000000000000000 ) ) ;
#128 = ORIENTED_EDGE ( 'NONE', *, *, #67, .T. ) ;
#129 = ADVANCED_FACE ( 'NONE', ( #357 ), #176, .T. ) ;
#130 = DIRECTION ( 'NONE',  ( -8.164311994315692567E-17, 1.000000000000000000, -0.000000000000000000 ) ) ;
#131 = ORIENTED_EDGE ( 'NONE', *, *, #123, .F. ) ;
#132 = DIRECTION ( 'NONE',  ( -8.164311994315692567E-17, 1.000000000000000000, -0.000000000000000000 ) ) ;
#133 = MECHANICAL_DESIGN_GEOMETRIC_PRESENTATION_REPRESENTATION (  '', ( #251 ), #297 ) ;
#134 = ORIENTED_EDGE ( 'NONE', *, *, #58, .F. ) ;
#135 =( CONVERSION_BASED_UNIT ( 'INCH', #25 ) LENGTH_UNIT ( ) NAMED_UNIT ( #6 ) );
#136 = CARTESIAN_POINT ( 'NONE',  ( -0.1406000000000000028, 1.500000000000000222, 0.000000000000000000 ) ) ;
#137 = DIRECTION ( 'NONE',  ( -0.000000000000000000, -1.000000000000000000, -0.000000000000000000 ) ) ;
#138 = ORIENTED_EDGE ( 'NONE', *, *, #64, .T. ) ;
#139 = CIRCLE ( 'NONE', #149, 0.1562499999999999167 ) ;
#140 = STYLED_ITEM ( 'NONE', ( #326 ), #250 ) ;
#141 = EDGE_LOOP ( 'NONE', ( #75, #138, #352, #134 ) ) ;
#142 = CARTESIAN_POINT ( 'NONE',  ( -0.1562499999999998612, 1.542998021614464532, 0.000000000000000000 ) ) ;
#143 = APPLICATION_CONTEXT ( 'automotive_design' ) ;
#144 = LENGTH_MEASURE_WITH_UNIT ( LENGTH_MEASURE( 0.02539999999999999897 ), #234 );
#145 =( GEOMETRIC_REPRESENTATION_CONTEXT ( 3 ) GLOBAL_UNCERTAINTY_ASSIGNED_CONTEXT ( ( #307 ) ) GLOBAL_UNIT_ASSIGNED_CONTEXT ( ( #90, #344, #14 ) ) REPRESENTATION_CONTEXT ( 'NONE', 'WORKASPACE' ) );
#146 = DIRECTION ( 'NONE',  ( -8.164311994315692567E-17, 1.000000000000000000, -0.000000000000000000 ) ) ;
#147 = DIRECTION ( 'NONE',  ( -1.000000000000000000, 0.000000000000000000, 0.000000000000000000 ) ) ;
#148 = UNCERTAINTY_MEASURE_WITH_UNIT (LENGTH_MEASURE( 1.000000000000000082E-05 ), #82, 'distance_accuracy_value', 'NONE');
#149 = AXIS2_PLACEMENT_3D ( 'NONE', #323, #132, #348 ) ;
#150 = CIRCLE ( 'NONE', #63, 0.1406000000000000028 ) ;
#151 = EDGE_CURVE ( 'NONE', #161, #325, #150, .T. ) ;
#152 = SURFACE_STYLE_FILL_AREA ( #287 ) ;
#153 = DIRECTION ( 'NONE',  ( 0.000000000000000000, 0.000000000000000000, -1.000000000000000000 ) ) ;
#154 = SURFACE_STYLE_FILL_AREA ( #181 ) ;
#155 = FILL_AREA_STYLE ('',( #202 ) ) ;
#156 = EDGE_CURVE ( 'NONE', #2, #109, #260, .T. ) ;
#157 = AXIS2_PLACEMENT_3D ( 'NONE', #34, #146, #199 ) ;
#158 = LINE ( 'NONE', #160, #303 ) ;
#159 =( LENGTH_UNIT ( ) NAMED_UNIT ( * ) SI_UNIT ( $, .METRE. ) );
#160 = CARTESIAN_POINT ( 'NONE',  ( -0.1406000000000000028, 1.500000000000000222, 0.000000000000000000 ) ) ;
#161 = VERTEX_POINT ( 'NONE', #198 ) ;
#162 = CARTESIAN_POINT ( 'NONE',  ( 0.000000000000000000, 1.500000000000000222, 0.000000000000000000 ) ) ;
#163 = VECTOR ( 'NONE', #104, 39.37007874015748854 ) ;
#164 = ORIENTED_EDGE ( 'NONE', *, *, #262, .F. ) ;
#165 = FACE_OUTER_BOUND ( 'NONE', #349, .T. ) ;
#166 = DIMENSIONAL_EXPONENTS ( 1.000000000000000000, 0.000000000000000000, 0.000000000000000000, 0.000000000000000000, 0.000000000000000000, 0.000000000000000000, 0.000000000000000000 ) ;
#167 = PRODUCT_DEFINITION_CONTEXT ( 'detailed design', #97, 'design' ) ;
#168 = AXIS2_PLACEMENT_3D ( 'NONE', #331, #85, #289 ) ;
#169 = AXIS2_PLACEMENT_3D ( 'NONE', #283, #29, #212 ) ;
#170 = DIMENSIONAL_EXPONENTS ( 1.000000000000000000, 0.000000000000000000, 0.000000000000000000, 0.000000000000000000, 0.000000000000000000, 0.000000000000000000, 0.000000000000000000 ) ;
#171 = CIRCLE ( 'NONE', #296, 0.1562500000000000000 ) ;
#172 = FACE_OUTER_BOUND ( 'NONE', #183, .T. ) ;
#173 = AXIS2_PLACEMENT_3D ( 'NONE', #329, #188, #52 ) ;
#174 = CARTESIAN_POINT ( 'NONE',  ( 0.000000000000000000, 0.000000000000000000, -0.1406000000000000028 ) ) ;
#175 =( GEOMETRIC_REPRESENTATION_CONTEXT ( 3 ) GLOBAL_UNCERTAINTY_ASSIGNED_CONTEXT ( ( #49 ) ) GLOBAL_UNIT_ASSIGNED_CONTEXT ( ( #286, #315, #293 ) ) REPRESENTATION_CONTEXT ( 'NONE', 'WORKASPACE' ) );
#176 = CONICAL_SURFACE ( 'NONE', #168, 0.1406000000000000028, 0.3490658503988657846 ) ;
#177 = PLANE ( 'NONE',  #33 ) ;
#178 = SURFACE_SIDE_STYLE ('',( #271 ) ) ;
#179 = LINE ( 'NONE', #47, #201 ) ;
#180 = ORIENTED_EDGE ( 'NONE', *, *, #262, .T. ) ;
#181 = FILL_AREA_STYLE ('',( #350 ) ) ;
#182 = AXIS2_PLACEMENT_3D ( 'NONE', #91, #195, #10 ) ;
#183 = EDGE_LOOP ( 'NONE', ( #295, #248, #108, #164 ) ) ;
#184 = EDGE_CURVE ( 'NONE', #325, #161, #26, .T. ) ;
#185 = CLOSED_SHELL ( 'NONE', ( #217, #129, #308, #356, #314, #113 ) ) ;
#186 = ORIENTED_EDGE ( 'NONE', *, *, #35, .T. ) ;
#187 = DIRECTION ( 'NONE',  ( -1.000000000000000000, 0.000000000000000000, 0.000000000000000000 ) ) ;
#188 = DIRECTION ( 'NONE',  ( -0.000000000000000000, -1.000000000000000000, -0.000000000000000000 ) ) ;
#189 = DIRECTION ( 'NONE',  ( 0.000000000000000000, 0.000000000000000000, -1.000000000000000000 ) ) ;
#190 = COLOUR_RGB ( '',1.000000000000000000, 0.000000000000000000, 0.000000000000000000 ) ;
#191 = CYLINDRICAL_SURFACE ( 'NONE', #224, 0.1562499999999999445 ) ;
#192 = VERTEX_POINT ( 'NONE', #232 ) ;
#193 = DIRECTION ( 'NONE',  ( -8.164311994315692567E-17, 1.000000000000000000, -0.000000000000000000 ) ) ;
#194 = ADVANCED_FACE ( 'NONE', ( #172 ), #37, .T. ) ;
#195 = DIRECTION ( 'NONE',  ( -8.164311994315692567E-17, 1.000000000000000000, -0.000000000000000000 ) ) ;
#196 =( GEOMETRIC_REPRESENTATION_CONTEXT ( 3 ) GLOBAL_UNCERTAINTY_ASSIGNED_CONTEXT ( ( #277 ) ) GLOBAL_UNIT_ASSIGNED_CONTEXT ( ( #36, #103, #240 ) ) REPRESENTATION_CONTEXT ( 'NONE', 'WORKASPACE' ) );
#197 = ADVANCED_FACE ( 'NONE', ( #266 ), #294, .T. ) ;
#198 = CARTESIAN_POINT ( 'NONE',  ( 0.1406000000000000028, 1.500000000000000222, 1.817682011634458024E-17 ) ) ;
#199 = DIRECTION ( 'NONE',  ( -1.000000000000000000, 0.000000000000000000, 0.000000000000000000 ) ) ;
#200 = LENGTH_MEASURE_WITH_UNIT ( LENGTH_MEASURE( 0.02539999999999999897 ), #159 );
#201 = VECTOR ( 'NONE', #100, 39.37007874015748143 ) ;
#202 = FILL_AREA_STYLE_COLOUR ( '', #38 ) ;
#203 = CARTESIAN_POINT ( 'NONE',  ( 1.721853399601178741E-17, 0.000000000000000000, 0.1406000000000000028 ) ) ;
#204 = DIRECTION ( 'NONE',  ( -1.000000000000000000, 0.000000000000000000, 0.000000000000000000 ) ) ;
#205 = VERTEX_POINT ( 'NONE', #203 ) ;
#206 = SURFACE_STYLE_USAGE ( .BOTH. , #274 ) ;
#207 = PRESENTATION_LAYER_ASSIGNMENT (  '', '', ( #251 ) ) ;
#208 = CARTESIAN_POINT ( 'NONE',  ( -1.224646799147353700E-16, 3.000000000000000444, 0.000000000000000000 ) ) ;
#209 = PRODUCT_DEFINITION ( 'UNKNOWN', '', #337, #167 ) ;
#210 = CONICAL_SURFACE ( 'NONE', #157, 0.1406000000000000028, 0.3490658503988657846 ) ;
#211 = UNCERTAINTY_MEASURE_WITH_UNIT (LENGTH_MEASURE( 1.000000000000000082E-05 ), #68, 'distance_accuracy_value', 'NONE');
#212 = DIRECTION ( 'NONE',  ( 0.000000000000000000, 0.000000000000000000, -1.000000000000000000 ) ) ;
#213 = AXIS2_PLACEMENT_3D ( 'NONE', #86, #116, #153 ) ;
#214 = ORIENTED_EDGE ( 'NONE', *, *, #301, .F. ) ;
#215 = DIRECTION ( 'NONE',  ( 0.000000000000000000, -0.000000000000000000, 1.000000000000000000 ) ) ;
#216 = SURFACE_SIDE_STYLE ('',( #298 ) ) ;
#217 = ADVANCED_FACE ( 'NONE', ( #21 ), #40, .T. ) ;
#218 = EDGE_LOOP ( 'NONE', ( #311, #180 ) ) ;
#219 = SURFACE_STYLE_USAGE ( .BOTH. , #253 ) ;
#220 = ORIENTED_EDGE ( 'NONE', *, *, #67, .F. ) ;
#221 = DIMENSIONAL_EXPONENTS ( 1.000000000000000000, 0.000000000000000000, 0.000000000000000000, 0.000000000000000000, 0.000000000000000000, 0.000000000000000000, 0.000000000000000000 ) ;
#222 = AXIS2_PLACEMENT_3D ( 'NONE', #69, #74, #347 ) ;
#223 = PLANE ( 'NONE',  #304 ) ;
#224 = AXIS2_PLACEMENT_3D ( 'NONE', #78, #31, #187 ) ;
#225 = FILL_AREA_STYLE_COLOUR ( '', #105 ) ;
#226 = DIRECTION ( 'NONE',  ( 1.000000000000000000, 0.000000000000000000, 0.000000000000000000 ) ) ;
#227 = ADVANCED_BREP_SHAPE_REPRESENTATION ( '84688', ( #245, #5, #324 ), #145 ) ;
#228 = DIRECTION ( 'NONE',  ( -8.164311994315692567E-17, 1.000000000000000000, -0.000000000000000000 ) ) ;
#229 = SURFACE_STYLE_USAGE ( .BOTH. , #263 ) ;
#230 =( LENGTH_UNIT ( ) NAMED_UNIT ( * ) SI_UNIT ( $, .METRE. ) );
#231 = STYLED_ITEM ( 'NONE', ( #93 ), #194 ) ;
#232 = CARTESIAN_POINT ( 'NONE',  ( 0.1562499999999998612, 1.542998021614464532, 1.913510623667737923E-17 ) ) ;
#233 = STYLED_ITEM ( 'NONE', ( #259 ), #257 ) ;
#234 =( LENGTH_UNIT ( ) NAMED_UNIT ( * ) SI_UNIT ( $, .METRE. ) );
#235 = CARTESIAN_POINT ( 'NONE',  ( -1.224646799147353700E-16, 3.000000000000000444, 0.000000000000000000 ) ) ;
#236 = PRESENTATION_LAYER_ASSIGNMENT (  '', '', ( #233 ) ) ;
#237 =( NAMED_UNIT ( * ) SI_UNIT ( $, .STERADIAN. ) SOLID_ANGLE_UNIT ( ) );
#238 = CARTESIAN_POINT ( 'NONE',  ( 1.721853399601178741E-17, 1.500000000000000222, 0.1406000000000000028 ) ) ;
#239 = ORIENTED_EDGE ( 'NONE', *, *, #8, .T. ) ;
#240 =( NAMED_UNIT ( * ) SI_UNIT ( $, .STERADIAN. ) SOLID_ANGLE_UNIT ( ) );
#241 = EDGE_LOOP ( 'NONE', ( #246, #101 ) ) ;
#242 = STYLED_ITEM ( 'NONE', ( #125 ), #197 ) ;
#243 = CARTESIAN_POINT ( 'NONE',  ( -0.1562500000000000833, 3.000000000000000444, 0.000000000000000000 ) ) ;
#244 = ORIENTED_EDGE ( 'NONE', *, *, #1, .F. ) ;
#245 = MANIFOLD_SOLID_BREP ( 'Revolve - Cutting Edge', #290 ) ;
#246 = ORIENTED_EDGE ( 'NONE', *, *, #184, .F. ) ;
#247 = DIRECTION ( 'NONE',  ( -8.164311994315692567E-17, 1.000000000000000000, 0.000000000000000000 ) ) ;
#248 = ORIENTED_EDGE ( 'NONE', *, *, #1, .T. ) ;
#249 =( NAMED_UNIT ( * ) SI_UNIT ( $, .STERADIAN. ) SOLID_ANGLE_UNIT ( ) );
#250 = ADVANCED_FACE ( 'NONE', ( #338 ), #177, .T. ) ;
#251 = STYLED_ITEM ( 'NONE', ( #299 ), #245 ) ;
#252 = ORIENTED_EDGE ( 'NONE', *, *, #94, .T. ) ;
#253 = SURFACE_SIDE_STYLE ('',( #3 ) ) ;
#254 = AXIS2_PLACEMENT_3D ( 'NONE', #89, #193, #115 ) ;
#255 = ORIENTED_EDGE ( 'NONE', *, *, #64, .F. ) ;
#256 =( NAMED_UNIT ( * ) PLANE_ANGLE_UNIT ( ) SI_UNIT ( $, .RADIAN. ) );
#257 = ADVANCED_FACE ( 'NONE', ( #278 ), #335, .T. ) ;
#258 = ORIENTED_EDGE ( 'NONE', *, *, #346, .F. ) ;
#259 = PRESENTATION_STYLE_ASSIGNMENT (( #219 ) ) ;
#260 = LINE ( 'NONE', #174, #282 ) ;
#261 = APPLICATION_PROTOCOL_DEFINITION ( 'draft international standard', 'automotive_design', 1998, #143 ) ;
#262 = EDGE_CURVE ( 'NONE', #205, #109, #24, .T. ) ;
#263 = SURFACE_SIDE_STYLE ('',( #152 ) ) ;
#264 =( GEOMETRIC_REPRESENTATION_CONTEXT ( 3 ) GLOBAL_UNCERTAINTY_ASSIGNED_CONTEXT ( ( #211 ) ) GLOBAL_UNIT_ASSIGNED_CONTEXT ( ( #68, #19, #237 ) ) REPRESENTATION_CONTEXT ( 'NONE', 'WORKASPACE' ) );
#265 = FILL_AREA_STYLE ('',( #225 ) ) ;
#266 = FACE_OUTER_BOUND ( 'NONE', #59, .T. ) ;
#267 = LENGTH_MEASURE_WITH_UNIT ( LENGTH_MEASURE( 0.02539999999999999897 ), #322 );
#268 = LINE ( 'NONE', #243, #92 ) ;
#269 =( LENGTH_UNIT ( ) NAMED_UNIT ( * ) SI_UNIT ( $, .METRE. ) );
#270 = PRESENTATION_LAYER_ASSIGNMENT (  '', '', ( #231 ) ) ;
#271 = SURFACE_STYLE_FILL_AREA ( #155 ) ;
#272 = DIRECTION ( 'NONE',  ( -1.000000000000000000, 0.000000000000000000, 0.000000000000000000 ) ) ;
#273 = VECTOR ( 'NONE', #279, 39.37007874015748143 ) ;
#274 = SURFACE_SIDE_STYLE ('',( #154 ) ) ;
#275 = EDGE_LOOP ( 'NONE', ( #258, #70, #239, #110 ) ) ;
#276 = COLOUR_RGB ( '',1.000000000000000000, 0.000000000000000000, 0.000000000000000000 ) ;
#277 = UNCERTAINTY_MEASURE_WITH_UNIT (LENGTH_MEASURE( 1.000000000000000082E-05 ), #36, 'distance_accuracy_value', 'NONE');
#278 = FACE_OUTER_BOUND ( 'NONE', #218, .T. ) ;
#279 = DIRECTION ( 'NONE',  ( -8.164311994315692567E-17, 1.000000000000000000, -0.000000000000000000 ) ) ;
#280 = DIMENSIONAL_EXPONENTS ( 1.000000000000000000, 0.000000000000000000, 0.000000000000000000, 0.000000000000000000, 0.000000000000000000, 0.000000000000000000, 0.000000000000000000 ) ;
#281 = LINE ( 'NONE', #305, #273 ) ;
#282 = VECTOR ( 'NONE', #340, 39.37007874015748143 ) ;
#283 = CARTESIAN_POINT ( 'NONE',  ( 0.000000000000000000, 0.000000000000000000, 0.000000000000000000 ) ) ;
#284 = CARTESIAN_POINT ( 'NONE',  ( 0.1562499999999998612, 3.000000000000000444, 0.000000000000000000 ) ) ;
#285 = ORIENTED_EDGE ( 'NONE', *, *, #58, .T. ) ;
#286 =( CONVERSION_BASED_UNIT ( 'INCH', #144 ) LENGTH_UNIT ( ) NAMED_UNIT ( #166 ) );
#287 = FILL_AREA_STYLE ('',( #119 ) ) ;
#288 = LENGTH_MEASURE_WITH_UNIT ( LENGTH_MEASURE( 0.02539999999999999897 ), #121 );
#289 = DIRECTION ( 'NONE',  ( -1.000000000000000000, 0.000000000000000000, 0.000000000000000000 ) ) ;
#290 = CLOSED_SHELL ( 'NONE', ( #197, #250, #194, #257 ) ) ;
#291 = AXIS2_PLACEMENT_3D ( 'NONE', #42, #39, #99 ) ;
#292 = SURFACE_STYLE_USAGE ( .BOTH. , #178 ) ;
#293 =( NAMED_UNIT ( * ) SI_UNIT ( $, .STERADIAN. ) SOLID_ANGLE_UNIT ( ) );
#294 = CYLINDRICAL_SURFACE ( 'NONE', #291, 0.1406000000000000028 ) ;
#295 = ORIENTED_EDGE ( 'NONE', *, *, #35, .F. ) ;
#296 = AXIS2_PLACEMENT_3D ( 'NONE', #354, #22, #204 ) ;
#297 =( GEOMETRIC_REPRESENTATION_CONTEXT ( 3 ) GLOBAL_UNCERTAINTY_ASSIGNED_CONTEXT ( ( #328 ) ) GLOBAL_UNIT_ASSIGNED_CONTEXT ( ( #345, #17, #317 ) ) REPRESENTATION_CONTEXT ( 'NONE', 'WORKASPACE' ) );
#298 = SURFACE_STYLE_FILL_AREA ( #120 ) ;
#299 = PRESENTATION_STYLE_ASSIGNMENT (( #206 ) ) ;
#300 = COLOUR_RGB ( '',1.000000000000000000, 0.000000000000000000, 0.000000000000000000 ) ;
#301 = EDGE_CURVE ( 'NONE', #192, #330, #20, .T. ) ;
#302 = EDGE_LOOP ( 'NONE', ( #252, #56, #220, #98 ) ) ;
#303 = VECTOR ( 'NONE', #41, 39.37007874015748854 ) ;
#304 = AXIS2_PLACEMENT_3D ( 'NONE', #312, #247, #358 ) ;
#305 = CARTESIAN_POINT ( 'NONE',  ( 0.1562499999999998057, 3.000000000000000444, 1.913510623667738539E-17 ) ) ;
#306 = VERTEX_POINT ( 'NONE', #88 ) ;
#307 = UNCERTAINTY_MEASURE_WITH_UNIT (LENGTH_MEASURE( 1.000000000000000082E-05 ), #90, 'distance_accuracy_value', 'NONE');
#308 = ADVANCED_FACE ( 'NONE', ( #333 ), #223, .F. ) ;
#309 = CARTESIAN_POINT ( 'NONE',  ( 0.000000000000000000, 1.500000000000000222, 0.000000000000000000 ) ) ;
#310 = AXIS2_PLACEMENT_3D ( 'NONE', #235, #320, #71 ) ;
#311 = ORIENTED_EDGE ( 'NONE', *, *, #46, .T. ) ;
#312 = CARTESIAN_POINT ( 'NONE',  ( 4.685916120939054365E-34, 1.500000000000000222, 0.000000000000000000 ) ) ;
#313 =( NAMED_UNIT ( * ) SI_UNIT ( $, .STERADIAN. ) SOLID_ANGLE_UNIT ( ) );
#314 = ADVANCED_FACE ( 'NONE', ( #327 ), #191, .T. ) ;
#315 =( NAMED_UNIT ( * ) PLANE_ANGLE_UNIT ( ) SI_UNIT ( $, .RADIAN. ) );
#316 = APPLICATION_PROTOCOL_DEFINITION ( 'draft international standard', 'automotive_design', 1998, #97 ) ;
#317 =( NAMED_UNIT ( * ) SI_UNIT ( $, .STERADIAN. ) SOLID_ANGLE_UNIT ( ) );
#318 = DIRECTION ( 'NONE',  ( -0.000000000000000000, -1.000000000000000000, -0.000000000000000000 ) ) ;
#319 = DIRECTION ( 'NONE',  ( 0.000000000000000000, 0.000000000000000000, -1.000000000000000000 ) ) ;
#320 = DIRECTION ( 'NONE',  ( -8.164311994315692567E-17, 1.000000000000000000, -0.000000000000000000 ) ) ;
#321 = CARTESIAN_POINT ( 'NONE',  ( 0.000000000000000000, 0.000000000000000000, -0.1406000000000000028 ) ) ;
#322 =( LENGTH_UNIT ( ) NAMED_UNIT ( * ) SI_UNIT ( $, .METRE. ) );
#323 = CARTESIAN_POINT ( 'NONE',  ( -3.510492635988155119E-18, 1.542998021614464532, 0.000000000000000000 ) ) ;
#324 = AXIS2_PLACEMENT_3D ( 'NONE', #65, #124, #226 ) ;
#325 = VERTEX_POINT ( 'NONE', #136 ) ;
#326 = PRESENTATION_STYLE_ASSIGNMENT (( #62 ) ) ;
#327 = FACE_OUTER_BOUND ( 'NONE', #275, .T. ) ;
#328 = UNCERTAINTY_MEASURE_WITH_UNIT (LENGTH_MEASURE( 1.000000000000000082E-05 ), #345, 'distance_accuracy_value', 'NONE');
#329 = CARTESIAN_POINT ( 'NONE',  ( 0.000000000000000000, 0.000000000000000000, 0.000000000000000000 ) ) ;
#330 = VERTEX_POINT ( 'NONE', #142 ) ;
#331 = CARTESIAN_POINT ( 'NONE',  ( 1.516480271171051896E-32, 1.500000000000000222, 0.000000000000000000 ) ) ;
#332 = ORIENTED_EDGE ( 'NONE', *, *, #79, .T. ) ;
#333 = FACE_OUTER_BOUND ( 'NONE', #241, .T. ) ;
#334 = CARTESIAN_POINT ( 'NONE',  ( 1.516480271171051896E-32, 1.500000000000000222, 0.000000000000000000 ) ) ;
#335 = PLANE ( 'NONE',  #169 ) ;
#336 = DIMENSIONAL_EXPONENTS ( 1.000000000000000000, 0.000000000000000000, 0.000000000000000000, 0.000000000000000000, 0.000000000000000000, 0.000000000000000000, 0.000000000000000000 ) ;
#337 = PRODUCT_DEFINITION_FORMATION_WITH_SPECIFIED_SOURCE ( 'ANY', '', #15, .NOT_KNOWN. ) ;
#338 = FACE_OUTER_BOUND ( 'NONE', #76, .T. ) ;
#339 = SHAPE_DEFINITION_REPRESENTATION ( #4, #227 ) ;
#340 = DIRECTION ( 'NONE',  ( -0.000000000000000000, -1.000000000000000000, -0.000000000000000000 ) ) ;
#341 = SURFACE_SIDE_STYLE ('',( #11 ) ) ;
#342 = CIRCLE ( 'NONE', #353, 0.1406000000000000028 ) ;
#343 = PRESENTATION_LAYER_ASSIGNMENT (  '', '', ( #140 ) ) ;
#344 =( NAMED_UNIT ( * ) PLANE_ANGLE_UNIT ( ) SI_UNIT ( $, .RADIAN. ) );
#345 =( CONVERSION_BASED_UNIT ( 'INCH', #200 ) LENGTH_UNIT ( ) NAMED_UNIT ( #83 ) );
#346 = EDGE_CURVE ( 'NONE', #192, #306, #281, .T. ) ;
#347 = DIRECTION ( 'NONE',  ( 0.000000000000000000, 0.000000000000000000, -1.000000000000000000 ) ) ;
#348 = DIRECTION ( 'NONE',  ( -1.000000000000000000, 0.000000000000000000, 0.000000000000000000 ) ) ;
#349 = EDGE_LOOP ( 'NONE', ( #255, #114, #285, #214 ) ) ;
#350 = FILL_AREA_STYLE_COLOUR ( '', #44 ) ;
#351 = CARTESIAN_POINT ( 'NONE',  ( 0.1406000000000000028, 1.500000000000000222, 1.721853399601178741E-17 ) ) ;
#352 = ORIENTED_EDGE ( 'NONE', *, *, #94, .F. ) ;
#353 = AXIS2_PLACEMENT_3D ( 'NONE', #162, #137, #189 ) ;
#354 = CARTESIAN_POINT ( 'NONE',  ( -1.224646799147353700E-16, 3.000000000000000444, 0.000000000000000000 ) ) ;
#355 = ORIENTED_EDGE ( 'NONE', *, *, #123, .T. ) ;
#356 = ADVANCED_FACE ( 'NONE', ( #165 ), #210, .T. ) ;
#357 = FACE_OUTER_BOUND ( 'NONE', #141, .T. ) ;
#358 = DIRECTION ( 'NONE',  ( -1.000000000000000000, -8.164311994315692567E-17, 0.000000000000000000 ) ) ;
#359 = DIRECTION ( 'NONE',  ( 8.164311994315692567E-17, -1.000000000000000000, 0.000000000000000000 ) ) ;
ENDSEC;
END-ISO-10303-21;
