ISO-10303-21;
HEADER;
FILE_DESCRIPTION (( 'STEP AP214' ),
    '1' );
FILE_NAME ('82264.STEP',
    '2023-06-23T04:40:52',
    ( '' ),
    ( '' ),
    'SwSTEP 2.0',
    'SolidWorks 2023',
    '' );
FILE_SCHEMA (( 'AUTOMOTIVE_DESIGN' ));
ENDSEC;

DATA;
#1 = PRODUCT ( '82264', '82264', '', ( #191 ) ) ;
#2 = CARTESIAN_POINT ( 'NONE',  ( -6.123233995736772199E-17, 2.500000000000000000, 0.000000000000000000 ) ) ;
#3 = PLANE ( 'NONE',  #32 ) ;
#4 = MECHANICAL_DESIGN_GEOMETRIC_PRESENTATION_REPRESENTATION (  '', ( #154 ), #80 ) ;
#5 = FILL_AREA_STYLE ('',( #265 ) ) ;
#6 = DIRECTION ( 'NONE',  ( -3.498990854706726443E-17, 1.000000000000000000, 0.000000000000000000 ) ) ;
#7 = CIRCLE ( 'NONE', #44, 0.1250000000000000555 ) ;
#8 = FILL_AREA_STYLE ('',( #207 ) ) ;
#9 = UNCERTAINTY_MEASURE_WITH_UNIT (LENGTH_MEASURE( 1.000000000000000082E-05 ), #171, 'distance_accuracy_value', 'NONE');
#10 = CARTESIAN_POINT ( 'NONE',  ( 0.000000000000000000, 0.7500000000000001110, -0.1250000000000000000 ) ) ;
#11 = DIRECTION ( 'NONE',  ( -3.498990854706726443E-17, 1.000000000000000000, -0.000000000000000000 ) ) ;
#12 = ADVANCED_FACE ( 'NONE', ( #40 ), #112, .T. ) ;
#13 = DIRECTION ( 'NONE',  ( -3.498990854706726443E-17, 1.000000000000000000, -0.000000000000000000 ) ) ;
#14 = LINE ( 'NONE', #131, #89 ) ;
#15 = CIRCLE ( 'NONE', #293, 0.1250000000000000000 ) ;
#16 = ADVANCED_FACE ( 'NONE', ( #241 ), #65, .F. ) ;
#17 = DIRECTION ( 'NONE',  ( -3.498990854706726443E-17, 1.000000000000000000, -0.000000000000000000 ) ) ;
#18 =( LENGTH_UNIT ( ) NAMED_UNIT ( * ) SI_UNIT ( $, .METRE. ) );
#19 = PRESENTATION_LAYER_ASSIGNMENT (  '', '', ( #154 ) ) ;
#20 = PRODUCT_DEFINITION_FORMATION_WITH_SPECIFIED_SOURCE ( 'ANY', '', #1, .NOT_KNOWN. ) ;
#21 = SURFACE_STYLE_FILL_AREA ( #161 ) ;
#22 = ORIENTED_EDGE ( 'NONE', *, *, #71, .T. ) ;
#23 = AXIS2_PLACEMENT_3D ( 'NONE', #214, #236, #277 ) ;
#24 = DIMENSIONAL_EXPONENTS ( 1.000000000000000000, 0.000000000000000000, 0.000000000000000000, 0.000000000000000000, 0.000000000000000000, 0.000000000000000000, 0.000000000000000000 ) ;
#25 =( CONVERSION_BASED_UNIT ( 'INCH', #146 ) LENGTH_UNIT ( ) NAMED_UNIT ( #24 ) );
#26 = FILL_AREA_STYLE ('',( #51 ) ) ;
#27 = FILL_AREA_STYLE ('',( #283 ) ) ;
#28 = DIRECTION ( 'NONE',  ( 0.000000000000000000, -0.000000000000000000, 1.000000000000000000 ) ) ;
#29 = CIRCLE ( 'NONE', #216, 0.1250000000000000000 ) ;
#30 = PLANE ( 'NONE',  #273 ) ;
#31 = PRESENTATION_STYLE_ASSIGNMENT (( #108 ) ) ;
#32 = AXIS2_PLACEMENT_3D ( 'NONE', #117, #99, #28 ) ;
#33 = COLOUR_RGB ( '',0.7921568627450980005, 0.8196078431372548767, 0.9333333333333333481 ) ;
#34 = ORIENTED_EDGE ( 'NONE', *, *, #206, .T. ) ;
#35 = SURFACE_STYLE_FILL_AREA ( #8 ) ;
#36 = ORIENTED_EDGE ( 'NONE', *, *, #249, .F. ) ;
#37 = ORIENTED_EDGE ( 'NONE', *, *, #267, .T. ) ;
#38 = CIRCLE ( 'NONE', #121, 0.1250000000000000000 ) ;
#39 = CIRCLE ( 'NONE', #50, 0.1250000000000000000 ) ;
#40 = FACE_OUTER_BOUND ( 'NONE', #181, .T. ) ;
#41 = AXIS2_PLACEMENT_3D ( 'NONE', #183, #115, #282 ) ;
#42 = ORIENTED_EDGE ( 'NONE', *, *, #281, .F. ) ;
#43 = ORIENTED_EDGE ( 'NONE', *, *, #193, .F. ) ;
#44 = AXIS2_PLACEMENT_3D ( 'NONE', #2, #72, #167 ) ;
#45 = DIRECTION ( 'NONE',  ( -3.498990854706726443E-17, 1.000000000000000000, -0.000000000000000000 ) ) ;
#46 = SURFACE_STYLE_USAGE ( .BOTH. , #262 ) ;
#47 = DIRECTION ( 'NONE',  ( -0.000000000000000000, -1.000000000000000000, -0.000000000000000000 ) ) ;
#48 = DIRECTION ( 'NONE',  ( -3.498990854706726443E-17, 1.000000000000000000, -0.000000000000000000 ) ) ;
#49 = AXIS2_PLACEMENT_3D ( 'NONE', #259, #92, #239 ) ;
#50 = AXIS2_PLACEMENT_3D ( 'NONE', #233, #17, #289 ) ;
#51 = FILL_AREA_STYLE_COLOUR ( '', #209 ) ;
#52 = FILL_AREA_STYLE ('',( #107 ) ) ;
#53 = DIRECTION ( 'NONE',  ( -0.000000000000000000, -1.000000000000000000, -0.000000000000000000 ) ) ;
#54 =( NAMED_UNIT ( * ) PLANE_ANGLE_UNIT ( ) SI_UNIT ( $, .RADIAN. ) );
#55 = LINE ( 'NONE', #231, #73 ) ;
#56 = ORIENTED_EDGE ( 'NONE', *, *, #210, .T. ) ;
#57 = SURFACE_SIDE_STYLE ('',( #78 ) ) ;
#58 = DIRECTION ( 'NONE',  ( -1.000000000000000000, 0.000000000000000000, 0.000000000000000000 ) ) ;
#59 = EDGE_LOOP ( 'NONE', ( #37, #240 ) ) ;
#60 = UNCERTAINTY_MEASURE_WITH_UNIT (LENGTH_MEASURE( 1.000000000000000082E-05 ), #226, 'distance_accuracy_value', 'NONE');
#61 = CARTESIAN_POINT ( 'NONE',  ( -0.1250000000000000000, 0.7499999999999998890, 0.000000000000000000 ) ) ;
#62 = PRODUCT_DEFINITION ( 'UNKNOWN', '', #20, #179 ) ;
#63 = DIMENSIONAL_EXPONENTS ( 1.000000000000000000, 0.000000000000000000, 0.000000000000000000, 0.000000000000000000, 0.000000000000000000, 0.000000000000000000, 0.000000000000000000 ) ;
#64 = ORIENTED_EDGE ( 'NONE', *, *, #267, .F. ) ;
#65 = PLANE ( 'NONE',  #23 ) ;
#66 = ADVANCED_FACE ( 'NONE', ( #187 ), #138, .T. ) ;
#67 = EDGE_CURVE ( 'NONE', #272, #217, #266, .T. ) ;
#68 = FACE_OUTER_BOUND ( 'NONE', #59, .T. ) ;
#69 = ORIENTED_EDGE ( 'NONE', *, *, #249, .T. ) ;
#70 = ORIENTED_EDGE ( 'NONE', *, *, #176, .T. ) ;
#71 = EDGE_CURVE ( 'NONE', #212, #136, #38, .T. ) ;
#72 = DIRECTION ( 'NONE',  ( -3.498990854706726443E-17, 1.000000000000000000, -0.000000000000000000 ) ) ;
#73 = VECTOR ( 'NONE', #11, 39.37007874015748143 ) ;
#74 = VECTOR ( 'NONE', #86, 39.37007874015748143 ) ;
#75 = SURFACE_SIDE_STYLE ('',( #143 ) ) ;
#76 = ADVANCED_BREP_SHAPE_REPRESENTATION ( '82264', ( #130, #237, #175 ), #155 ) ;
#77 = CARTESIAN_POINT ( 'NONE',  ( 0.000000000000000000, 0.000000000000000000, 0.000000000000000000 ) ) ;
#78 = SURFACE_STYLE_FILL_AREA ( #5 ) ;
#79 = COLOUR_RGB ( '',0.7921568627450980005, 0.8196078431372548767, 0.9333333333333333481 ) ;
#80 =( GEOMETRIC_REPRESENTATION_CONTEXT ( 3 ) GLOBAL_UNCERTAINTY_ASSIGNED_CONTEXT ( ( #301 ) ) GLOBAL_UNIT_ASSIGNED_CONTEXT ( ( #268, #128, #84 ) ) REPRESENTATION_CONTEXT ( 'NONE', 'WORKASPACE' ) );
#81 = CARTESIAN_POINT ( 'NONE',  ( 1.530808498934191509E-17, 0.7500000000000001110, 0.1250000000000000000 ) ) ;
#82 = UNCERTAINTY_MEASURE_WITH_UNIT (LENGTH_MEASURE( 1.000000000000000082E-05 ), #294, 'distance_accuracy_value', 'NONE');
#83 = CARTESIAN_POINT ( 'NONE',  ( 0.000000000000000000, 0.000000000000000000, 0.000000000000000000 ) ) ;
#84 =( NAMED_UNIT ( * ) SI_UNIT ( $, .STERADIAN. ) SOLID_ANGLE_UNIT ( ) );
#85 = ADVANCED_FACE ( 'NONE', ( #103 ), #3, .T. ) ;
#86 = DIRECTION ( 'NONE',  ( -3.498990854706726443E-17, 1.000000000000000000, -0.000000000000000000 ) ) ;
#87 = SURFACE_STYLE_USAGE ( .BOTH. , #303 ) ;
#88 = EDGE_LOOP ( 'NONE', ( #304, #114 ) ) ;
#89 = VECTOR ( 'NONE', #53, 39.37007874015748143 ) ;
#90 = MECHANICAL_DESIGN_GEOMETRIC_PRESENTATION_REPRESENTATION (  '', ( #158 ), #285 ) ;
#91 = DIMENSIONAL_EXPONENTS ( 1.000000000000000000, 0.000000000000000000, 0.000000000000000000, 0.000000000000000000, 0.000000000000000000, 0.000000000000000000, 0.000000000000000000 ) ;
#92 = DIRECTION ( 'NONE',  ( -0.000000000000000000, -1.000000000000000000, -0.000000000000000000 ) ) ;
#93 = ORIENTED_EDGE ( 'NONE', *, *, #193, .T. ) ;
#94 = ADVANCED_FACE ( 'NONE', ( #120 ), #222, .T. ) ;
#95 = ORIENTED_EDGE ( 'NONE', *, *, #67, .T. ) ;
#96 = PRESENTATION_LAYER_ASSIGNMENT (  '', '', ( #184 ) ) ;
#97 = CARTESIAN_POINT ( 'NONE',  ( 0.000000000000000000, 0.000000000000000000, 0.000000000000000000 ) ) ;
#98 = DIMENSIONAL_EXPONENTS ( 1.000000000000000000, 0.000000000000000000, 0.000000000000000000, 0.000000000000000000, 0.000000000000000000, 0.000000000000000000, 0.000000000000000000 ) ;
#99 = DIRECTION ( 'NONE',  ( 0.000000000000000000, 1.000000000000000000, 0.000000000000000000 ) ) ;
#100 = CARTESIAN_POINT ( 'NONE',  ( 1.530808498934191509E-17, 0.000000000000000000, 0.1250000000000000000 ) ) ;
#101 = SURFACE_STYLE_USAGE ( .BOTH. , #75 ) ;
#102 = DIRECTION ( 'NONE',  ( -1.000000000000000000, 0.000000000000000000, 0.000000000000000000 ) ) ;
#103 = FACE_OUTER_BOUND ( 'NONE', #280, .T. ) ;
#104 = DIRECTION ( 'NONE',  ( -1.000000000000000000, -3.498990854706726443E-17, 0.000000000000000000 ) ) ;
#105 = CYLINDRICAL_SURFACE ( 'NONE', #279, 0.1250000000000000000 ) ;
#106 = AXIS2_PLACEMENT_3D ( 'NONE', #263, #48, #150 ) ;
#107 = FILL_AREA_STYLE_COLOUR ( '', #288 ) ;
#108 = SURFACE_STYLE_USAGE ( .BOTH. , #109 ) ;
#109 = SURFACE_SIDE_STYLE ('',( #178 ) ) ;
#110 = ORIENTED_EDGE ( 'NONE', *, *, #260, .T. ) ;
#111 = SURFACE_STYLE_USAGE ( .BOTH. , #57 ) ;
#112 = CYLINDRICAL_SURFACE ( 'NONE', #41, 0.1250000000000000278 ) ;
#113 = EDGE_LOOP ( 'NONE', ( #42, #22, #93, #140 ) ) ;
#114 = ORIENTED_EDGE ( 'NONE', *, *, #260, .F. ) ;
#115 = DIRECTION ( 'NONE',  ( -3.498990854706726443E-17, 1.000000000000000000, -0.000000000000000000 ) ) ;
#116 =( GEOMETRIC_REPRESENTATION_CONTEXT ( 3 ) GLOBAL_UNCERTAINTY_ASSIGNED_CONTEXT ( ( #60 ) ) GLOBAL_UNIT_ASSIGNED_CONTEXT ( ( #226, #54, #205 ) ) REPRESENTATION_CONTEXT ( 'NONE', 'WORKASPACE' ) );
#117 = CARTESIAN_POINT ( 'NONE',  ( 0.000000000000000000, 0.7500000000000001110, 0.000000000000000000 ) ) ;
#118 = CARTESIAN_POINT ( 'NONE',  ( -0.1250000000000001388, 2.500000000000000000, 0.000000000000000000 ) ) ;
#119 = PRESENTATION_STYLE_ASSIGNMENT (( #46 ) ) ;
#120 = FACE_OUTER_BOUND ( 'NONE', #160, .T. ) ;
#121 = AXIS2_PLACEMENT_3D ( 'NONE', #122, #197, #246 ) ;
#122 = CARTESIAN_POINT ( 'NONE',  ( 0.000000000000000000, 0.7500000000000001110, 0.000000000000000000 ) ) ;
#123 =( LENGTH_UNIT ( ) NAMED_UNIT ( * ) SI_UNIT ( $, .METRE. ) );
#124 = DIRECTION ( 'NONE',  ( 0.000000000000000000, 0.000000000000000000, -1.000000000000000000 ) ) ;
#125 = LENGTH_MEASURE_WITH_UNIT ( LENGTH_MEASURE( 0.02539999999999999897 ), #302 );
#126 = CLOSED_SHELL ( 'NONE', ( #94, #168, #12, #16 ) ) ;
#127 = AXIS2_PLACEMENT_3D ( 'NONE', #211, #13, #58 ) ;
#128 =( NAMED_UNIT ( * ) PLANE_ANGLE_UNIT ( ) SI_UNIT ( $, .RADIAN. ) );
#129 = VERTEX_POINT ( 'NONE', #247 ) ;
#130 = MANIFOLD_SOLID_BREP ( 'Revolve - Cutting Edge', #189 ) ;
#131 = CARTESIAN_POINT ( 'NONE',  ( 0.000000000000000000, 0.000000000000000000, -0.1250000000000000000 ) ) ;
#132 = PRESENTATION_LAYER_ASSIGNMENT (  '', '', ( #137 ) ) ;
#133 = UNCERTAINTY_MEASURE_WITH_UNIT (LENGTH_MEASURE( 1.000000000000000082E-05 ), #25, 'distance_accuracy_value', 'NONE');
#134 = LINE ( 'NONE', #200, #163 ) ;
#135 = FILL_AREA_STYLE_COLOUR ( '', #203 ) ;
#136 = VERTEX_POINT ( 'NONE', #10 ) ;
#137 = STYLED_ITEM ( 'NONE', ( #308 ), #66 ) ;
#138 = CYLINDRICAL_SURFACE ( 'NONE', #49, 0.1250000000000000000 ) ;
#139 = CARTESIAN_POINT ( 'NONE',  ( 0.1249999999999999584, 2.500000000000000000, 1.530808498934191817E-17 ) ) ;
#140 = ORIENTED_EDGE ( 'NONE', *, *, #152, .F. ) ;
#141 = ADVANCED_FACE ( 'NONE', ( #68 ), #30, .T. ) ;
#142 = ORIENTED_EDGE ( 'NONE', *, *, #210, .F. ) ;
#143 = SURFACE_STYLE_FILL_AREA ( #26 ) ;
#144 = SURFACE_STYLE_FILL_AREA ( #27 ) ;
#145 = MECHANICAL_DESIGN_GEOMETRIC_PRESENTATION_REPRESENTATION (  '', ( #184 ), #116 ) ;
#146 = LENGTH_MEASURE_WITH_UNIT ( LENGTH_MEASURE( 0.02539999999999999897 ), #245 );
#147 = LENGTH_MEASURE_WITH_UNIT ( LENGTH_MEASURE( 0.02539999999999999897 ), #123 );
#148 = LENGTH_MEASURE_WITH_UNIT ( LENGTH_MEASURE( 0.02539999999999999897 ), #195 );
#149 = CARTESIAN_POINT ( 'NONE',  ( 0.000000000000000000, 0.000000000000000000, 0.000000000000000000 ) ) ;
#150 = DIRECTION ( 'NONE',  ( -1.000000000000000000, 0.000000000000000000, 0.000000000000000000 ) ) ;
#151 = FACE_OUTER_BOUND ( 'NONE', #88, .T. ) ;
#152 = EDGE_CURVE ( 'NONE', #190, #185, #15, .T. ) ;
#153 = CARTESIAN_POINT ( 'NONE',  ( 0.000000000000000000, 0.7500000000000001110, 0.000000000000000000 ) ) ;
#154 = STYLED_ITEM ( 'NONE', ( #31 ), #234 ) ;
#155 =( GEOMETRIC_REPRESENTATION_CONTEXT ( 3 ) GLOBAL_UNCERTAINTY_ASSIGNED_CONTEXT ( ( #133 ) ) GLOBAL_UNIT_ASSIGNED_CONTEXT ( ( #25, #292, #224 ) ) REPRESENTATION_CONTEXT ( 'NONE', 'WORKASPACE' ) );
#156 = SURFACE_STYLE_USAGE ( .BOTH. , #295 ) ;
#157 =( GEOMETRIC_REPRESENTATION_CONTEXT ( 3 ) GLOBAL_UNCERTAINTY_ASSIGNED_CONTEXT ( ( #254 ) ) GLOBAL_UNIT_ASSIGNED_CONTEXT ( ( #221, #242, #287 ) ) REPRESENTATION_CONTEXT ( 'NONE', 'WORKASPACE' ) );
#158 = STYLED_ITEM ( 'NONE', ( #299 ), #237 ) ;
#159 = LENGTH_MEASURE_WITH_UNIT ( LENGTH_MEASURE( 0.02539999999999999897 ), #18 );
#160 = EDGE_LOOP ( 'NONE', ( #95, #69, #297, #142 ) ) ;
#161 = FILL_AREA_STYLE ('',( #135 ) ) ;
#162 = MECHANICAL_DESIGN_GEOMETRIC_PRESENTATION_REPRESENTATION (  '', ( #169 ), #232 ) ;
#163 = VECTOR ( 'NONE', #47, 39.37007874015748143 ) ;
#164 = DIRECTION ( 'NONE',  ( -0.000000000000000000, -1.000000000000000000, -0.000000000000000000 ) ) ;
#165 = EDGE_LOOP ( 'NONE', ( #286, #70 ) ) ;
#166 = DIRECTION ( 'NONE',  ( 0.000000000000000000, 0.000000000000000000, -1.000000000000000000 ) ) ;
#167 = DIRECTION ( 'NONE',  ( -1.000000000000000000, 0.000000000000000000, 0.000000000000000000 ) ) ;
#168 = ADVANCED_FACE ( 'NONE', ( #151 ), #192, .F. ) ;
#169 = STYLED_ITEM ( 'NONE', ( #290 ), #85 ) ;
#170 = PRESENTATION_LAYER_ASSIGNMENT (  '', '', ( #158 ) ) ;
#171 =( CONVERSION_BASED_UNIT ( 'INCH', #148 ) LENGTH_UNIT ( ) NAMED_UNIT ( #218 ) );
#172 =( NAMED_UNIT ( * ) PLANE_ANGLE_UNIT ( ) SI_UNIT ( $, .RADIAN. ) );
#173 = DIRECTION ( 'NONE',  ( -0.000000000000000000, -1.000000000000000000, -0.000000000000000000 ) ) ;
#174 = MECHANICAL_DESIGN_GEOMETRIC_PRESENTATION_REPRESENTATION (  '', ( #137 ), #305 ) ;
#175 = AXIS2_PLACEMENT_3D ( 'NONE', #83, #270, #198 ) ;
#176 = EDGE_CURVE ( 'NONE', #129, #276, #7, .T. ) ;
#177 = CARTESIAN_POINT ( 'NONE',  ( 0.1250000000000000278, 0.7499999999999998890, 1.530808498934192125E-17 ) ) ;
#178 = SURFACE_STYLE_FILL_AREA ( #52 ) ;
#179 = PRODUCT_DEFINITION_CONTEXT ( 'detailed design', #274, 'design' ) ;
#180 = APPLICATION_CONTEXT ( 'automotive_design' ) ;
#181 = EDGE_LOOP ( 'NONE', ( #36, #110, #56, #219 ) ) ;
#182 = UNCERTAINTY_MEASURE_WITH_UNIT (LENGTH_MEASURE( 1.000000000000000082E-05 ), #255, 'distance_accuracy_value', 'NONE');
#183 = CARTESIAN_POINT ( 'NONE',  ( -6.123233995736772199E-17, 2.500000000000000000, 0.000000000000000000 ) ) ;
#184 = STYLED_ITEM ( 'NONE', ( #213 ), #130 ) ;
#185 = VERTEX_POINT ( 'NONE', #220 ) ;
#186 = APPLICATION_PROTOCOL_DEFINITION ( 'draft international standard', 'automotive_design', 1998, #180 ) ;
#187 = FACE_OUTER_BOUND ( 'NONE', #113, .T. ) ;
#188 =( NAMED_UNIT ( * ) SI_UNIT ( $, .STERADIAN. ) SOLID_ANGLE_UNIT ( ) );
#189 = CLOSED_SHELL ( 'NONE', ( #234, #85, #66, #141 ) ) ;
#190 = VERTEX_POINT ( 'NONE', #100 ) ;
#191 = PRODUCT_CONTEXT ( 'NONE', #180, 'mechanical' ) ;
#192 = PLANE ( 'NONE',  #243 ) ;
#193 = EDGE_CURVE ( 'NONE', #136, #185, #14, .T. ) ;
#194 = APPLICATION_PROTOCOL_DEFINITION ( 'draft international standard', 'automotive_design', 1998, #274 ) ;
#195 =( LENGTH_UNIT ( ) NAMED_UNIT ( * ) SI_UNIT ( $, .METRE. ) );
#196 = COLOUR_RGB ( '',1.000000000000000000, 0.000000000000000000, 0.000000000000000000 ) ;
#197 = DIRECTION ( 'NONE',  ( -0.000000000000000000, -1.000000000000000000, -0.000000000000000000 ) ) ;
#198 = DIRECTION ( 'NONE',  ( 1.000000000000000000, 0.000000000000000000, 0.000000000000000000 ) ) ;
#199 = DIRECTION ( 'NONE',  ( 0.000000000000000000, -1.000000000000000000, -0.000000000000000000 ) ) ;
#200 = CARTESIAN_POINT ( 'NONE',  ( 1.530808498934191509E-17, 0.000000000000000000, 0.1250000000000000000 ) ) ;
#201 = EDGE_CURVE ( 'NONE', #276, #129, #227, .T. ) ;
#202 = LENGTH_MEASURE_WITH_UNIT ( LENGTH_MEASURE( 0.02539999999999999897 ), #225 );
#203 = COLOUR_RGB ( '',1.000000000000000000, 0.000000000000000000, 0.000000000000000000 ) ;
#204 = DIRECTION ( 'NONE',  ( -0.000000000000000000, -1.000000000000000000, -0.000000000000000000 ) ) ;
#205 =( NAMED_UNIT ( * ) SI_UNIT ( $, .STERADIAN. ) SOLID_ANGLE_UNIT ( ) );
#206 = EDGE_CURVE ( 'NONE', #136, #212, #298, .T. ) ;
#207 = FILL_AREA_STYLE_COLOUR ( '', #33 ) ;
#208 = LENGTH_MEASURE_WITH_UNIT ( LENGTH_MEASURE( 0.02539999999999999897 ), #269 );
#209 = COLOUR_RGB ( '',1.000000000000000000, 0.000000000000000000, 0.000000000000000000 ) ;
#210 = EDGE_CURVE ( 'NONE', #272, #276, #55, .T. ) ;
#211 = CARTESIAN_POINT ( 'NONE',  ( -6.123233995736772199E-17, 2.500000000000000000, 0.000000000000000000 ) ) ;
#212 = VERTEX_POINT ( 'NONE', #81 ) ;
#213 = PRESENTATION_STYLE_ASSIGNMENT (( #111 ) ) ;
#214 = CARTESIAN_POINT ( 'NONE',  ( 0.1250000000000000000, 2.500000000000000000, 0.000000000000000000 ) ) ;
#215 = AXIS2_PLACEMENT_3D ( 'NONE', #153, #271, #229 ) ;
#216 = AXIS2_PLACEMENT_3D ( 'NONE', #149, #164, #166 ) ;
#217 = VERTEX_POINT ( 'NONE', #177 ) ;
#218 = DIMENSIONAL_EXPONENTS ( 1.000000000000000000, 0.000000000000000000, 0.000000000000000000, 0.000000000000000000, 0.000000000000000000, 0.000000000000000000, 0.000000000000000000 ) ;
#219 = ORIENTED_EDGE ( 'NONE', *, *, #176, .F. ) ;
#220 = CARTESIAN_POINT ( 'NONE',  ( 0.000000000000000000, 0.000000000000000000, -0.1250000000000000000 ) ) ;
#221 =( CONVERSION_BASED_UNIT ( 'INCH', #147 ) LENGTH_UNIT ( ) NAMED_UNIT ( #91 ) );
#222 = CYLINDRICAL_SURFACE ( 'NONE', #106, 0.1250000000000000278 ) ;
#223 = CARTESIAN_POINT ( 'NONE',  ( 7.651835625825817976E-35, 0.7500000000000001110, 0.000000000000000000 ) ) ;
#224 =( NAMED_UNIT ( * ) SI_UNIT ( $, .STERADIAN. ) SOLID_ANGLE_UNIT ( ) );
#225 =( LENGTH_UNIT ( ) NAMED_UNIT ( * ) SI_UNIT ( $, .METRE. ) );
#226 =( CONVERSION_BASED_UNIT ( 'INCH', #125 ) LENGTH_UNIT ( ) NAMED_UNIT ( #238 ) );
#227 = CIRCLE ( 'NONE', #127, 0.1250000000000000555 ) ;
#228 = PRODUCT_RELATED_PRODUCT_CATEGORY ( 'part', '', ( #1 ) ) ;
#229 = DIRECTION ( 'NONE',  ( 0.000000000000000000, 0.000000000000000000, -1.000000000000000000 ) ) ;
#230 = CARTESIAN_POINT ( 'NONE',  ( 0.000000000000000000, 0.000000000000000000, 0.000000000000000000 ) ) ;
#231 = CARTESIAN_POINT ( 'NONE',  ( -0.1250000000000001110, 2.500000000000000000, 0.000000000000000000 ) ) ;
#232 =( GEOMETRIC_REPRESENTATION_CONTEXT ( 3 ) GLOBAL_UNCERTAINTY_ASSIGNED_CONTEXT ( ( #9 ) ) GLOBAL_UNIT_ASSIGNED_CONTEXT ( ( #171, #172, #244 ) ) REPRESENTATION_CONTEXT ( 'NONE', 'WORKASPACE' ) );
#233 = CARTESIAN_POINT ( 'NONE',  ( 0.000000000000000000, 0.7499999999999998890, 0.000000000000000000 ) ) ;
#234 = ADVANCED_FACE ( 'NONE', ( #250 ), #105, .T. ) ;
#235 = ORIENTED_EDGE ( 'NONE', *, *, #206, .F. ) ;
#236 = DIRECTION ( 'NONE',  ( 3.498990854706726443E-17, -1.000000000000000000, 0.000000000000000000 ) ) ;
#237 = MANIFOLD_SOLID_BREP ( 'Revolve - Tool Body (Straight Shanked)', #126 ) ;
#238 = DIMENSIONAL_EXPONENTS ( 1.000000000000000000, 0.000000000000000000, 0.000000000000000000, 0.000000000000000000, 0.000000000000000000, 0.000000000000000000, 0.000000000000000000 ) ;
#239 = DIRECTION ( 'NONE',  ( 0.000000000000000000, 0.000000000000000000, -1.000000000000000000 ) ) ;
#240 = ORIENTED_EDGE ( 'NONE', *, *, #152, .T. ) ;
#241 = FACE_OUTER_BOUND ( 'NONE', #165, .T. ) ;
#242 =( NAMED_UNIT ( * ) PLANE_ANGLE_UNIT ( ) SI_UNIT ( $, .RADIAN. ) );
#243 = AXIS2_PLACEMENT_3D ( 'NONE', #223, #6, #104 ) ;
#244 =( NAMED_UNIT ( * ) SI_UNIT ( $, .STERADIAN. ) SOLID_ANGLE_UNIT ( ) );
#245 =( LENGTH_UNIT ( ) NAMED_UNIT ( * ) SI_UNIT ( $, .METRE. ) );
#246 = DIRECTION ( 'NONE',  ( 0.000000000000000000, 0.000000000000000000, -1.000000000000000000 ) ) ;
#247 = CARTESIAN_POINT ( 'NONE',  ( 0.1250000000000000278, 2.500000000000000000, 1.530808498934192125E-17 ) ) ;
#248 =( NAMED_UNIT ( * ) SI_UNIT ( $, .STERADIAN. ) SOLID_ANGLE_UNIT ( ) );
#249 = EDGE_CURVE ( 'NONE', #217, #129, #252, .T. ) ;
#250 = FACE_OUTER_BOUND ( 'NONE', #258, .T. ) ;
#251 = STYLED_ITEM ( 'NONE', ( #119 ), #141 ) ;
#252 = LINE ( 'NONE', #139, #74 ) ;
#253 = SHAPE_DEFINITION_REPRESENTATION ( #296, #76 ) ;
#254 = UNCERTAINTY_MEASURE_WITH_UNIT (LENGTH_MEASURE( 1.000000000000000082E-05 ), #221, 'distance_accuracy_value', 'NONE');
#255 =( CONVERSION_BASED_UNIT ( 'INCH', #159 ) LENGTH_UNIT ( ) NAMED_UNIT ( #98 ) );
#256 = ORIENTED_EDGE ( 'NONE', *, *, #281, .T. ) ;
#257 = PRESENTATION_LAYER_ASSIGNMENT (  '', '', ( #169 ) ) ;
#258 = EDGE_LOOP ( 'NONE', ( #34, #256, #64, #43 ) ) ;
#259 = CARTESIAN_POINT ( 'NONE',  ( 0.000000000000000000, 0.000000000000000000, 0.000000000000000000 ) ) ;
#260 = EDGE_CURVE ( 'NONE', #217, #272, #39, .T. ) ;
#261 = MECHANICAL_DESIGN_GEOMETRIC_PRESENTATION_REPRESENTATION (  '', ( #251 ), #157 ) ;
#262 = SURFACE_SIDE_STYLE ('',( #144 ) ) ;
#263 = CARTESIAN_POINT ( 'NONE',  ( -6.123233995736772199E-17, 2.500000000000000000, 0.000000000000000000 ) ) ;
#264 = DIRECTION ( 'NONE',  ( 0.000000000000000000, 0.000000000000000000, -1.000000000000000000 ) ) ;
#265 = FILL_AREA_STYLE_COLOUR ( '', #79 ) ;
#266 = CIRCLE ( 'NONE', #278, 0.1250000000000000000 ) ;
#267 = EDGE_CURVE ( 'NONE', #185, #190, #29, .T. ) ;
#268 =( CONVERSION_BASED_UNIT ( 'INCH', #208 ) LENGTH_UNIT ( ) NAMED_UNIT ( #307 ) );
#269 =( LENGTH_UNIT ( ) NAMED_UNIT ( * ) SI_UNIT ( $, .METRE. ) );
#270 = DIRECTION ( 'NONE',  ( 0.000000000000000000, 0.000000000000000000, 1.000000000000000000 ) ) ;
#271 = DIRECTION ( 'NONE',  ( -0.000000000000000000, -1.000000000000000000, -0.000000000000000000 ) ) ;
#272 = VERTEX_POINT ( 'NONE', #61 ) ;
#273 = AXIS2_PLACEMENT_3D ( 'NONE', #97, #199, #291 ) ;
#274 = APPLICATION_CONTEXT ( 'automotive_design' ) ;
#275 =( NAMED_UNIT ( * ) PLANE_ANGLE_UNIT ( ) SI_UNIT ( $, .RADIAN. ) );
#276 = VERTEX_POINT ( 'NONE', #118 ) ;
#277 = DIRECTION ( 'NONE',  ( 1.000000000000000000, 3.498990854706726443E-17, 0.000000000000000000 ) ) ;
#278 = AXIS2_PLACEMENT_3D ( 'NONE', #309, #45, #102 ) ;
#279 = AXIS2_PLACEMENT_3D ( 'NONE', #230, #204, #124 ) ;
#280 = EDGE_LOOP ( 'NONE', ( #235, #300 ) ) ;
#281 = EDGE_CURVE ( 'NONE', #212, #190, #134, .T. ) ;
#282 = DIRECTION ( 'NONE',  ( -1.000000000000000000, 0.000000000000000000, 0.000000000000000000 ) ) ;
#283 = FILL_AREA_STYLE_COLOUR ( '', #196 ) ;
#284 = PRESENTATION_LAYER_ASSIGNMENT (  '', '', ( #251 ) ) ;
#285 =( GEOMETRIC_REPRESENTATION_CONTEXT ( 3 ) GLOBAL_UNCERTAINTY_ASSIGNED_CONTEXT ( ( #82 ) ) GLOBAL_UNIT_ASSIGNED_CONTEXT ( ( #294, #275, #248 ) ) REPRESENTATION_CONTEXT ( 'NONE', 'WORKASPACE' ) );
#286 = ORIENTED_EDGE ( 'NONE', *, *, #201, .T. ) ;
#287 =( NAMED_UNIT ( * ) SI_UNIT ( $, .STERADIAN. ) SOLID_ANGLE_UNIT ( ) );
#288 = COLOUR_RGB ( '',1.000000000000000000, 0.000000000000000000, 0.000000000000000000 ) ;
#289 = DIRECTION ( 'NONE',  ( -1.000000000000000000, 0.000000000000000000, 0.000000000000000000 ) ) ;
#290 = PRESENTATION_STYLE_ASSIGNMENT (( #101 ) ) ;
#291 = DIRECTION ( 'NONE',  ( 0.000000000000000000, 0.000000000000000000, -1.000000000000000000 ) ) ;
#292 =( NAMED_UNIT ( * ) PLANE_ANGLE_UNIT ( ) SI_UNIT ( $, .RADIAN. ) );
#293 = AXIS2_PLACEMENT_3D ( 'NONE', #77, #173, #264 ) ;
#294 =( CONVERSION_BASED_UNIT ( 'INCH', #202 ) LENGTH_UNIT ( ) NAMED_UNIT ( #63 ) );
#295 = SURFACE_SIDE_STYLE ('',( #35 ) ) ;
#296 = PRODUCT_DEFINITION_SHAPE ( 'NONE', 'NONE',  #62 ) ;
#297 = ORIENTED_EDGE ( 'NONE', *, *, #201, .F. ) ;
#298 = CIRCLE ( 'NONE', #215, 0.1250000000000000000 ) ;
#299 = PRESENTATION_STYLE_ASSIGNMENT (( #156 ) ) ;
#300 = ORIENTED_EDGE ( 'NONE', *, *, #71, .F. ) ;
#301 = UNCERTAINTY_MEASURE_WITH_UNIT (LENGTH_MEASURE( 1.000000000000000082E-05 ), #268, 'distance_accuracy_value', 'NONE');
#302 =( LENGTH_UNIT ( ) NAMED_UNIT ( * ) SI_UNIT ( $, .METRE. ) );
#303 = SURFACE_SIDE_STYLE ('',( #21 ) ) ;
#304 = ORIENTED_EDGE ( 'NONE', *, *, #67, .F. ) ;
#305 =( GEOMETRIC_REPRESENTATION_CONTEXT ( 3 ) GLOBAL_UNCERTAINTY_ASSIGNED_CONTEXT ( ( #182 ) ) GLOBAL_UNIT_ASSIGNED_CONTEXT ( ( #255, #306, #188 ) ) REPRESENTATION_CONTEXT ( 'NONE', 'WORKASPACE' ) );
#306 =( NAMED_UNIT ( * ) PLANE_ANGLE_UNIT ( ) SI_UNIT ( $, .RADIAN. ) );
#307 = DIMENSIONAL_EXPONENTS ( 1.000000000000000000, 0.000000000000000000, 0.000000000000000000, 0.000000000000000000, 0.000000000000000000, 0.000000000000000000, 0.000000000000000000 ) ;
#308 = PRESENTATION_STYLE_ASSIGNMENT (( #87 ) ) ;
#309 = CARTESIAN_POINT ( 'NONE',  ( 0.000000000000000000, 0.7499999999999998890, 0.000000000000000000 ) ) ;
ENDSEC;
END-ISO-10303-21;
