ISO-10303-21;
HEADER;
FILE_DESCRIPTION (( 'STEP AP214' ),
    '1' );
FILE_NAME ('Micro_RSC-250-2X.STEP',
    '2021-09-03T17:50:01',
    ( '' ),
    ( '' ),
    'SwSTEP 2.0',
    'SolidWorks 2020',
    '' );
FILE_SCHEMA (( 'AUTOMOTIVE_DESIGN' ));
ENDSEC;

DATA;
#1 = EDGE_LOOP ( 'NONE', ( #142, #215, #158, #25 ) ) ;
#2 = SHAPE_DEFINITION_REPRESENTATION ( #150, #29 ) ;
#3 = ORIENTED_EDGE ( 'NONE', *, *, #203, .F. ) ;
#4 = DIRECTION ( 'NONE',  ( 0.0000000000000000000, 0.0000000000000000000, 1.000000000000000000 ) ) ;
#5 = ORIENTED_EDGE ( 'NONE', *, *, #153, .F. ) ;
#6 = ORIENTED_EDGE ( 'NONE', *, *, #226, .T. ) ;
#7 = ADVANCED_FACE ( 'NONE', ( #117 ), #187, .T. ) ;
#8 = COLOUR_RGB ( '',0.7921568627450980005, 0.8196078431372548767, 0.9333333333333333481 ) ;
#9 = ORIENTED_EDGE ( 'NONE', *, *, #12, .T. ) ;
#10 = DIRECTION ( 'NONE',  ( 1.000000000000000000, 0.0000000000000000000, -0.0000000000000000000 ) ) ;
#11 = CARTESIAN_POINT ( 'NONE',  ( 0.0000000000000000000, 0.0000000000000000000, 2.500000000000000000 ) ) ;
#12 = EDGE_CURVE ( 'NONE', #163, #177, #145, .T. ) ;
#13 = PRODUCT ( 'Micro_RSC-250-2X', 'Micro_RSC-250-2X', '', ( #20 ) ) ;
#14 = CONICAL_SURFACE ( 'NONE', #148, 0.003999999999999999216, 0.5235987755983005920 ) ;
#15 = LINE ( 'NONE', #125, #224 ) ;
#16 = DIRECTION ( 'NONE',  ( 1.000000000000000000, 0.0000000000000000000, 0.0000000000000000000 ) ) ;
#17 = CARTESIAN_POINT ( 'NONE',  ( -0.1250000000000000000, 0.0000000000000000000, 0.2095781477158333850 ) ) ;
#18 = MECHANICAL_DESIGN_GEOMETRIC_PRESENTATION_REPRESENTATION (  '', ( #126 ), #36 ) ;
#19 = CARTESIAN_POINT ( 'NONE',  ( 0.1250000000000000000, 1.530808498934191509E-17, 0.2095781477158333850 ) ) ;
#20 = PRODUCT_CONTEXT ( 'NONE', #245, 'mechanical' ) ;
#21 = EDGE_CURVE ( 'NONE', #214, #217, #201, .T. ) ;
#22 = ORIENTED_EDGE ( 'NONE', *, *, #21, .F. ) ;
#23 = COLOUR_RGB ( '',0.7921568627450980005, 0.8196078431372548767, 0.9333333333333333481 ) ;
#24 =( LENGTH_UNIT ( ) NAMED_UNIT ( * ) SI_UNIT ( $, .METRE. ) );
#25 = ORIENTED_EDGE ( 'NONE', *, *, #208, .F. ) ;
#26 = DIRECTION ( 'NONE',  ( 0.0000000000000000000, 0.0000000000000000000, 1.000000000000000000 ) ) ;
#27 = AXIS2_PLACEMENT_3D ( 'NONE', #227, #69, #54 ) ;
#28 = CARTESIAN_POINT ( 'NONE',  ( 0.0000000000000000000, 0.0000000000000000000, 0.0000000000000000000 ) ) ;
#29 = ADVANCED_BREP_SHAPE_REPRESENTATION ( 'Micro_RSC-250-2X', ( #132, #188 ), #56 ) ;
#30 = PRESENTATION_STYLE_ASSIGNMENT (( #32 ) ) ;
#31 = CARTESIAN_POINT ( 'NONE',  ( 0.0000000000000000000, 0.0000000000000000000, 2.290421852284166615 ) ) ;
#32 = SURFACE_STYLE_USAGE ( .BOTH. , #49 ) ;
#33 = DIRECTION ( 'NONE',  ( 0.0000000000000000000, 0.0000000000000000000, 1.000000000000000000 ) ) ;
#34 = DIRECTION ( 'NONE',  ( -0.0000000000000000000, -0.0000000000000000000, -1.000000000000000000 ) ) ;
#35 = AXIS2_PLACEMENT_3D ( 'NONE', #199, #161, #237 ) ;
#36 =( GEOMETRIC_REPRESENTATION_CONTEXT ( 3 ) GLOBAL_UNCERTAINTY_ASSIGNED_CONTEXT ( ( #229 ) ) GLOBAL_UNIT_ASSIGNED_CONTEXT ( ( #64, #243, #167 ) ) REPRESENTATION_CONTEXT ( 'NONE', 'WORKASPACE' ) );
#37 = SURFACE_STYLE_USAGE ( .BOTH. , #212 ) ;
#38 = CIRCLE ( 'NONE', #109, 0.1250000000000000000 ) ;
#39 = CARTESIAN_POINT ( 'NONE',  ( 0.003999999999999999216, 0.0000000000000000000, 0.0000000000000000000 ) ) ;
#40 = ORIENTED_EDGE ( 'NONE', *, *, #226, .F. ) ;
#41 = AXIS2_PLACEMENT_3D ( 'NONE', #211, #248, #186 ) ;
#42 = ORIENTED_EDGE ( 'NONE', *, *, #91, .T. ) ;
#43 = VERTEX_POINT ( 'NONE', #116 ) ;
#44 = ORIENTED_EDGE ( 'NONE', *, *, #106, .F. ) ;
#45 = DIRECTION ( 'NONE',  ( -0.0000000000000000000, -0.0000000000000000000, -1.000000000000000000 ) ) ;
#46 = DIRECTION ( 'NONE',  ( 0.0000000000000000000, 0.0000000000000000000, -1.000000000000000000 ) ) ;
#47 = FACE_OUTER_BOUND ( 'NONE', #119, .T. ) ;
#48 = PRODUCT_DEFINITION_FORMATION_WITH_SPECIFIED_SOURCE ( 'ANY', '', #13, .NOT_KNOWN. ) ;
#49 = SURFACE_SIDE_STYLE ('',( #239 ) ) ;
#50 = FILL_AREA_STYLE_COLOUR ( '', #8 ) ;
#51 = EDGE_CURVE ( 'NONE', #217, #175, #73, .T. ) ;
#52 = VECTOR ( 'NONE', #45, 39.37007874015748143 ) ;
#53 = PRODUCT_DEFINITION ( 'UNKNOWN', '', #48, #192 ) ;
#54 = DIRECTION ( 'NONE',  ( 1.000000000000000000, 0.0000000000000000000, -0.0000000000000000000 ) ) ;
#55 = LINE ( 'NONE', #210, #222 ) ;
#56 =( GEOMETRIC_REPRESENTATION_CONTEXT ( 3 ) GLOBAL_UNCERTAINTY_ASSIGNED_CONTEXT ( ( #115 ) ) GLOBAL_UNIT_ASSIGNED_CONTEXT ( ( #71, #169, #68 ) ) REPRESENTATION_CONTEXT ( 'NONE', 'WORKASPACE' ) );
#57 = EDGE_LOOP ( 'NONE', ( #139, #9, #59, #216 ) ) ;
#58 = ADVANCED_FACE ( 'NONE', ( #47 ), #89, .T. ) ;
#59 = ORIENTED_EDGE ( 'NONE', *, *, #153, .T. ) ;
#60 = CIRCLE ( 'NONE', #152, 0.003999999999999999216 ) ;
#61 = ORIENTED_EDGE ( 'NONE', *, *, #208, .T. ) ;
#62 = EDGE_LOOP ( 'NONE', ( #160, #74, #75, #5 ) ) ;
#63 = LINE ( 'NONE', #144, #52 ) ;
#64 =( CONVERSION_BASED_UNIT ( 'INCH', #105 ) LENGTH_UNIT ( ) NAMED_UNIT ( #156 ) );
#65 = CARTESIAN_POINT ( 'NONE',  ( 0.0000000000000000000, 0.0000000000000000000, 2.500000000000000000 ) ) ;
#66 = PRODUCT_RELATED_PRODUCT_CATEGORY ( 'part', '', ( #13 ) ) ;
#67 = STYLED_ITEM ( 'NONE', ( #129 ), #29 ) ;
#68 =( NAMED_UNIT ( * ) SI_UNIT ( $, .STERADIAN. ) SOLID_ANGLE_UNIT ( ) );
#69 = DIRECTION ( 'NONE',  ( 0.0000000000000000000, 0.0000000000000000000, 1.000000000000000000 ) ) ;
#70 = DIRECTION ( 'NONE',  ( -1.000000000000000000, 0.0000000000000000000, 0.0000000000000000000 ) ) ;
#71 =( CONVERSION_BASED_UNIT ( 'INCH', #85 ) LENGTH_UNIT ( ) NAMED_UNIT ( #76 ) );
#72 = ORIENTED_EDGE ( 'NONE', *, *, #21, .T. ) ;
#73 = CIRCLE ( 'NONE', #244, 0.1250000000000000000 ) ;
#74 = ORIENTED_EDGE ( 'NONE', *, *, #103, .T. ) ;
#75 = ORIENTED_EDGE ( 'NONE', *, *, #91, .F. ) ;
#76 = DIMENSIONAL_EXPONENTS ( 1.000000000000000000, 0.0000000000000000000, 0.0000000000000000000, 0.0000000000000000000, 0.0000000000000000000, 0.0000000000000000000, 0.0000000000000000000 ) ;
#77 = EDGE_LOOP ( 'NONE', ( #79, #232, #61, #143 ) ) ;
#78 = CIRCLE ( 'NONE', #179, 0.003999999999999999216 ) ;
#79 = ORIENTED_EDGE ( 'NONE', *, *, #190, .F. ) ;
#80 = DIRECTION ( 'NONE',  ( 0.0000000000000000000, 0.0000000000000000000, 1.000000000000000000 ) ) ;
#81 = DIRECTION ( 'NONE',  ( -0.0000000000000000000, -0.0000000000000000000, -1.000000000000000000 ) ) ;
#82 = AXIS2_PLACEMENT_3D ( 'NONE', #127, #46, #181 ) ;
#83 = DIRECTION ( 'NONE',  ( -0.0000000000000000000, -0.0000000000000000000, -1.000000000000000000 ) ) ;
#84 = FACE_OUTER_BOUND ( 'NONE', #136, .T. ) ;
#85 = LENGTH_MEASURE_WITH_UNIT ( LENGTH_MEASURE( 0.02539999999999999897 ), #151 );
#86 = DIRECTION ( 'NONE',  ( 0.0000000000000000000, 0.0000000000000000000, -1.000000000000000000 ) ) ;
#87 = DIRECTION ( 'NONE',  ( -1.000000000000000000, 0.0000000000000000000, 0.0000000000000000000 ) ) ;
#88 = CARTESIAN_POINT ( 'NONE',  ( -0.003999999999999999216, -4.898587196589411612E-19, 2.500000000000000000 ) ) ;
#89 = CONICAL_SURFACE ( 'NONE', #93, 0.003999999999999999216, 0.5235987755983005920 ) ;
#90 = LINE ( 'NONE', #88, #230 ) ;
#91 = EDGE_CURVE ( 'NONE', #175, #217, #171, .T. ) ;
#92 = ORIENTED_EDGE ( 'NONE', *, *, #137, .T. ) ;
#93 = AXIS2_PLACEMENT_3D ( 'NONE', #184, #80, #209 ) ;
#94 = LENGTH_MEASURE_WITH_UNIT ( LENGTH_MEASURE( 0.02539999999999999897 ), #24 );
#95 = ADVANCED_FACE ( 'NONE', ( #101 ), #236, .T. ) ;
#96 = ORIENTED_EDGE ( 'NONE', *, *, #51, .T. ) ;
#97 =( NAMED_UNIT ( * ) SI_UNIT ( $, .STERADIAN. ) SOLID_ANGLE_UNIT ( ) );
#98 = EDGE_LOOP ( 'NONE', ( #6, #200 ) ) ;
#99 = AXIS2_PLACEMENT_3D ( 'NONE', #28, #26, #120 ) ;
#100 = CYLINDRICAL_SURFACE ( 'NONE', #130, 0.1250000000000000000 ) ;
#101 = FACE_OUTER_BOUND ( 'NONE', #1, .T. ) ;
#102 = DIRECTION ( 'NONE',  ( -0.5000000000000013323, 6.123233995736782060E-17, 0.8660254037844377084 ) ) ;
#103 = EDGE_CURVE ( 'NONE', #163, #217, #15, .T. ) ;
#104 = DIRECTION ( 'NONE',  ( 0.0000000000000000000, 0.0000000000000000000, -1.000000000000000000 ) ) ;
#105 = LENGTH_MEASURE_WITH_UNIT ( LENGTH_MEASURE( 0.02539999999999999897 ), #124 );
#106 = EDGE_CURVE ( 'NONE', #138, #235, #60, .T. ) ;
#107 = DIRECTION ( 'NONE',  ( -0.0000000000000000000, -0.0000000000000000000, -1.000000000000000000 ) ) ;
#108 = EDGE_CURVE ( 'NONE', #177, #163, #38, .T. ) ;
#109 = AXIS2_PLACEMENT_3D ( 'NONE', #31, #104, #165 ) ;
#110 = CYLINDRICAL_SURFACE ( 'NONE', #168, 0.1250000000000000000 ) ;
#111 = FILL_AREA_STYLE ('',( #50 ) ) ;
#112 = ADVANCED_FACE ( 'NONE', ( #84 ), #205, .T. ) ;
#113 =( NAMED_UNIT ( * ) PLANE_ANGLE_UNIT ( ) SI_UNIT ( $, .RADIAN. ) );
#114 = CARTESIAN_POINT ( 'NONE',  ( 0.0000000000000000000, 0.0000000000000000000, 0.0000000000000000000 ) ) ;
#115 = UNCERTAINTY_MEASURE_WITH_UNIT (LENGTH_MEASURE( 1.000000000000000082E-05 ), #71, 'distance_accuracy_value', 'NONE');
#116 = CARTESIAN_POINT ( 'NONE',  ( -0.003999999999999999216, 7.898971854500429185E-18, 0.0000000000000000000 ) ) ;
#117 = FACE_OUTER_BOUND ( 'NONE', #234, .T. ) ;
#118 = PRESENTATION_LAYER_ASSIGNMENT (  '', '', ( #126 ) ) ;
#119 = EDGE_LOOP ( 'NONE', ( #197, #40, #72, #96 ) ) ;
#120 = DIRECTION ( 'NONE',  ( 1.000000000000000000, 0.0000000000000000000, 0.0000000000000000000 ) ) ;
#121 = AXIS2_PLACEMENT_3D ( 'NONE', #173, #34, #87 ) ;
#122 = APPLICATION_CONTEXT ( 'automotive_design' ) ;
#123 = FACE_OUTER_BOUND ( 'NONE', #77, .T. ) ;
#124 =( LENGTH_UNIT ( ) NAMED_UNIT ( * ) SI_UNIT ( $, .METRE. ) );
#125 = CARTESIAN_POINT ( 'NONE',  ( 0.1250000000000000000, 1.530808498934191509E-17, 2.500000000000000000 ) ) ;
#126 = STYLED_ITEM ( 'NONE', ( #30 ), #132 ) ;
#127 = CARTESIAN_POINT ( 'NONE',  ( 0.0000000000000000000, 0.0000000000000000000, 2.500000000000000000 ) ) ;
#128 = FACE_OUTER_BOUND ( 'NONE', #62, .T. ) ;
#129 = PRESENTATION_STYLE_ASSIGNMENT (( #37 ) ) ;
#130 = AXIS2_PLACEMENT_3D ( 'NONE', #182, #220, #238 ) ;
#131 = DIRECTION ( 'NONE',  ( -1.000000000000000000, 0.0000000000000000000, 0.0000000000000000000 ) ) ;
#132 = MANIFOLD_SOLID_BREP ( 'Mirror1', #206 ) ;
#133 = FACE_OUTER_BOUND ( 'NONE', #57, .T. ) ;
#134 = DIRECTION ( 'NONE',  ( -0.5000000000000013323, -6.123233995736782060E-17, -0.8660254037844377084 ) ) ;
#135 = CARTESIAN_POINT ( 'NONE',  ( 0.0000000000000000000, 0.0000000000000000000, 2.500000000000000000 ) ) ;
#136 = EDGE_LOOP ( 'NONE', ( #202, #44 ) ) ;
#137 = EDGE_CURVE ( 'NONE', #43, #175, #147, .T. ) ;
#138 = VERTEX_POINT ( 'NONE', #149 ) ;
#139 = ORIENTED_EDGE ( 'NONE', *, *, #103, .F. ) ;
#140 = MECHANICAL_DESIGN_GEOMETRIC_PRESENTATION_REPRESENTATION (  '', ( #67 ), #159 ) ;
#141 = DIMENSIONAL_EXPONENTS ( 1.000000000000000000, 0.0000000000000000000, 0.0000000000000000000, 0.0000000000000000000, 0.0000000000000000000, 0.0000000000000000000, 0.0000000000000000000 ) ;
#142 = ORIENTED_EDGE ( 'NONE', *, *, #195, .T. ) ;
#143 = ORIENTED_EDGE ( 'NONE', *, *, #108, .F. ) ;
#144 = CARTESIAN_POINT ( 'NONE',  ( -0.1250000000000000000, 0.0000000000000000000, 2.500000000000000000 ) ) ;
#145 = CIRCLE ( 'NONE', #35, 0.1250000000000000000 ) ;
#146 = ADVANCED_FACE ( 'NONE', ( #128 ), #100, .T. ) ;
#147 = LINE ( 'NONE', #164, #176 ) ;
#148 = AXIS2_PLACEMENT_3D ( 'NONE', #228, #86, #16 ) ;
#149 = CARTESIAN_POINT ( 'NONE',  ( -0.003999999999999999216, -7.898971854500432266E-18, 2.500000000000000000 ) ) ;
#150 = PRODUCT_DEFINITION_SHAPE ( 'NONE', 'NONE',  #53 ) ;
#151 =( LENGTH_UNIT ( ) NAMED_UNIT ( * ) SI_UNIT ( $, .METRE. ) );
#152 = AXIS2_PLACEMENT_3D ( 'NONE', #11, #166, #180 ) ;
#153 = EDGE_CURVE ( 'NONE', #177, #175, #63, .T. ) ;
#154 = PLANE ( 'NONE',  #27 ) ;
#155 = CARTESIAN_POINT ( 'NONE',  ( -0.1250000000000000000, 0.0000000000000000000, 2.290421852284166615 ) ) ;
#156 = DIMENSIONAL_EXPONENTS ( 1.000000000000000000, 0.0000000000000000000, 0.0000000000000000000, 0.0000000000000000000, 0.0000000000000000000, 0.0000000000000000000, 0.0000000000000000000 ) ;
#157 = ADVANCED_FACE ( 'NONE', ( #123 ), #14, .T. ) ;
#158 = ORIENTED_EDGE ( 'NONE', *, *, #12, .F. ) ;
#159 =( GEOMETRIC_REPRESENTATION_CONTEXT ( 3 ) GLOBAL_UNCERTAINTY_ASSIGNED_CONTEXT ( ( #174 ) ) GLOBAL_UNIT_ASSIGNED_CONTEXT ( ( #231, #113, #97 ) ) REPRESENTATION_CONTEXT ( 'NONE', 'WORKASPACE' ) );
#160 = ORIENTED_EDGE ( 'NONE', *, *, #108, .T. ) ;
#161 = DIRECTION ( 'NONE',  ( 0.0000000000000000000, 0.0000000000000000000, -1.000000000000000000 ) ) ;
#162 = VECTOR ( 'NONE', #178, 39.37007874015748854 ) ;
#163 = VERTEX_POINT ( 'NONE', #189 ) ;
#164 = CARTESIAN_POINT ( 'NONE',  ( -0.003999999999999999216, 4.898587196589411612E-19, 0.0000000000000000000 ) ) ;
#165 = DIRECTION ( 'NONE',  ( -1.000000000000000000, 0.0000000000000000000, 0.0000000000000000000 ) ) ;
#166 = DIRECTION ( 'NONE',  ( 0.0000000000000000000, 0.0000000000000000000, -1.000000000000000000 ) ) ;
#167 =( NAMED_UNIT ( * ) SI_UNIT ( $, .STERADIAN. ) SOLID_ANGLE_UNIT ( ) );
#168 = AXIS2_PLACEMENT_3D ( 'NONE', #135, #107, #131 ) ;
#169 =( NAMED_UNIT ( * ) PLANE_ANGLE_UNIT ( ) SI_UNIT ( $, .RADIAN. ) );
#170 = CARTESIAN_POINT ( 'NONE',  ( 0.0000000000000000000, 0.0000000000000000000, 0.0000000000000000000 ) ) ;
#171 = CIRCLE ( 'NONE', #198, 0.1250000000000000000 ) ;
#172 = DIRECTION ( 'NONE',  ( 0.5000000000000013323, 0.0000000000000000000, -0.8660254037844377084 ) ) ;
#173 = CARTESIAN_POINT ( 'NONE',  ( 0.0000000000000000000, 0.0000000000000000000, 0.0000000000000000000 ) ) ;
#174 = UNCERTAINTY_MEASURE_WITH_UNIT (LENGTH_MEASURE( 1.000000000000000082E-05 ), #231, 'distance_accuracy_value', 'NONE');
#175 = VERTEX_POINT ( 'NONE', #17 ) ;
#176 = VECTOR ( 'NONE', #102, 39.37007874015748854 ) ;
#177 = VERTEX_POINT ( 'NONE', #155 ) ;
#178 = DIRECTION ( 'NONE',  ( 0.5000000000000013323, 0.0000000000000000000, 0.8660254037844377084 ) ) ;
#179 = AXIS2_PLACEMENT_3D ( 'NONE', #170, #194, #70 ) ;
#180 = DIRECTION ( 'NONE',  ( -1.000000000000000000, 0.0000000000000000000, 0.0000000000000000000 ) ) ;
#181 = DIRECTION ( 'NONE',  ( 1.000000000000000000, 0.0000000000000000000, 0.0000000000000000000 ) ) ;
#182 = CARTESIAN_POINT ( 'NONE',  ( 0.0000000000000000000, 0.0000000000000000000, 2.500000000000000000 ) ) ;
#183 = CIRCLE ( 'NONE', #121, 0.003999999999999999216 ) ;
#184 = CARTESIAN_POINT ( 'NONE',  ( 0.0000000000000000000, 0.0000000000000000000, 0.0000000000000000000 ) ) ;
#185 = CARTESIAN_POINT ( 'NONE',  ( 0.0000000000000000000, 0.0000000000000000000, 0.2095781477158333850 ) ) ;
#186 = DIRECTION ( 'NONE',  ( -1.000000000000000000, 0.0000000000000000000, 0.0000000000000000000 ) ) ;
#187 = CONICAL_SURFACE ( 'NONE', #99, 0.003999999999999999216, 0.5235987755983005920 ) ;
#188 = AXIS2_PLACEMENT_3D ( 'NONE', #114, #4, #196 ) ;
#189 = CARTESIAN_POINT ( 'NONE',  ( 0.1250000000000000000, 1.530808498934191509E-17, 2.290421852284166615 ) ) ;
#190 = EDGE_CURVE ( 'NONE', #138, #177, #90, .T. ) ;
#191 = SURFACE_STYLE_FILL_AREA ( #111 ) ;
#192 = PRODUCT_DEFINITION_CONTEXT ( 'detailed design', #122, 'design' ) ;
#193 = CIRCLE ( 'NONE', #41, 0.003999999999999999216 ) ;
#194 = DIRECTION ( 'NONE',  ( -0.0000000000000000000, -0.0000000000000000000, -1.000000000000000000 ) ) ;
#195 = EDGE_CURVE ( 'NONE', #235, #138, #193, .T. ) ;
#196 = DIRECTION ( 'NONE',  ( 1.000000000000000000, 0.0000000000000000000, 0.0000000000000000000 ) ) ;
#197 = ORIENTED_EDGE ( 'NONE', *, *, #137, .F. ) ;
#198 = AXIS2_PLACEMENT_3D ( 'NONE', #241, #81, #204 ) ;
#199 = CARTESIAN_POINT ( 'NONE',  ( 0.0000000000000000000, 0.0000000000000000000, 2.290421852284166615 ) ) ;
#200 = ORIENTED_EDGE ( 'NONE', *, *, #203, .T. ) ;
#201 = LINE ( 'NONE', #39, #162 ) ;
#202 = ORIENTED_EDGE ( 'NONE', *, *, #195, .F. ) ;
#203 = EDGE_CURVE ( 'NONE', #43, #214, #78, .T. ) ;
#204 = DIRECTION ( 'NONE',  ( -1.000000000000000000, 0.0000000000000000000, 0.0000000000000000000 ) ) ;
#205 = PLANE ( 'NONE',  #218 ) ;
#206 = CLOSED_SHELL ( 'NONE', ( #95, #7, #146, #242, #58, #233, #157, #112 ) ) ;
#207 = DIRECTION ( 'NONE',  ( -0.0000000000000000000, -0.0000000000000000000, -1.000000000000000000 ) ) ;
#208 = EDGE_CURVE ( 'NONE', #235, #163, #55, .T. ) ;
#209 = DIRECTION ( 'NONE',  ( 1.000000000000000000, 0.0000000000000000000, 0.0000000000000000000 ) ) ;
#210 = CARTESIAN_POINT ( 'NONE',  ( 0.003999999999999999216, 0.0000000000000000000, 2.500000000000000000 ) ) ;
#211 = CARTESIAN_POINT ( 'NONE',  ( 0.0000000000000000000, 0.0000000000000000000, 2.500000000000000000 ) ) ;
#212 = SURFACE_SIDE_STYLE ('',( #191 ) ) ;
#213 = APPLICATION_PROTOCOL_DEFINITION ( 'draft international standard', 'automotive_design', 1998, #122 ) ;
#214 = VERTEX_POINT ( 'NONE', #225 ) ;
#215 = ORIENTED_EDGE ( 'NONE', *, *, #190, .T. ) ;
#216 = ORIENTED_EDGE ( 'NONE', *, *, #51, .F. ) ;
#217 = VERTEX_POINT ( 'NONE', #19 ) ;
#218 = AXIS2_PLACEMENT_3D ( 'NONE', #65, #33, #10 ) ;
#219 = FILL_AREA_STYLE ('',( #240 ) ) ;
#220 = DIRECTION ( 'NONE',  ( -0.0000000000000000000, -0.0000000000000000000, -1.000000000000000000 ) ) ;
#221 = DIRECTION ( 'NONE',  ( -1.000000000000000000, 0.0000000000000000000, 0.0000000000000000000 ) ) ;
#222 = VECTOR ( 'NONE', #172, 39.37007874015748854 ) ;
#223 = APPLICATION_PROTOCOL_DEFINITION ( 'draft international standard', 'automotive_design', 1998, #245 ) ;
#224 = VECTOR ( 'NONE', #83, 39.37007874015748143 ) ;
#225 = CARTESIAN_POINT ( 'NONE',  ( 0.003999999999999999216, 0.0000000000000000000, 0.0000000000000000000 ) ) ;
#226 = EDGE_CURVE ( 'NONE', #214, #43, #183, .T. ) ;
#227 = CARTESIAN_POINT ( 'NONE',  ( 0.0000000000000000000, 0.0000000000000000000, 0.0000000000000000000 ) ) ;
#228 = CARTESIAN_POINT ( 'NONE',  ( 0.0000000000000000000, 0.0000000000000000000, 2.500000000000000000 ) ) ;
#229 = UNCERTAINTY_MEASURE_WITH_UNIT (LENGTH_MEASURE( 1.000000000000000082E-05 ), #64, 'distance_accuracy_value', 'NONE');
#230 = VECTOR ( 'NONE', #134, 39.37007874015748854 ) ;
#231 =( CONVERSION_BASED_UNIT ( 'INCH', #94 ) LENGTH_UNIT ( ) NAMED_UNIT ( #141 ) );
#232 = ORIENTED_EDGE ( 'NONE', *, *, #106, .T. ) ;
#233 = ADVANCED_FACE ( 'NONE', ( #246 ), #154, .F. ) ;
#234 = EDGE_LOOP ( 'NONE', ( #3, #92, #42, #22 ) ) ;
#235 = VERTEX_POINT ( 'NONE', #249 ) ;
#236 = CONICAL_SURFACE ( 'NONE', #82, 0.003999999999999999216, 0.5235987755983005920 ) ;
#237 = DIRECTION ( 'NONE',  ( -1.000000000000000000, 0.0000000000000000000, 0.0000000000000000000 ) ) ;
#238 = DIRECTION ( 'NONE',  ( -1.000000000000000000, 0.0000000000000000000, 0.0000000000000000000 ) ) ;
#239 = SURFACE_STYLE_FILL_AREA ( #219 ) ;
#240 = FILL_AREA_STYLE_COLOUR ( '', #23 ) ;
#241 = CARTESIAN_POINT ( 'NONE',  ( 0.0000000000000000000, 0.0000000000000000000, 0.2095781477158333850 ) ) ;
#242 = ADVANCED_FACE ( 'NONE', ( #133 ), #110, .T. ) ;
#243 =( NAMED_UNIT ( * ) PLANE_ANGLE_UNIT ( ) SI_UNIT ( $, .RADIAN. ) );
#244 = AXIS2_PLACEMENT_3D ( 'NONE', #185, #207, #221 ) ;
#245 = APPLICATION_CONTEXT ( 'automotive_design' ) ;
#246 = FACE_OUTER_BOUND ( 'NONE', #98, .T. ) ;
#247 = PRESENTATION_LAYER_ASSIGNMENT (  '', '', ( #67 ) ) ;
#248 = DIRECTION ( 'NONE',  ( 0.0000000000000000000, 0.0000000000000000000, -1.000000000000000000 ) ) ;
#249 = CARTESIAN_POINT ( 'NONE',  ( 0.003999999999999999216, 0.0000000000000000000, 2.500000000000000000 ) ) ;
ENDSEC;
END-ISO-10303-21;
