ISO-10303-21;
HEADER;
FILE_DESCRIPTION (( 'STEP AP214' ),
    '1' );
FILE_NAME ('03377.STEP',
    '2023-06-22T15:14:34',
    ( '' ),
    ( '' ),
    'SwSTEP 2.0',
    'SolidWorks 2023',
    '' );
FILE_SCHEMA (( 'AUTOMOTIVE_DESIGN' ));
ENDSEC;

DATA;
#1 =( LENGTH_UNIT ( ) NAMED_UNIT ( * ) SI_UNIT ( $, .METRE. ) );
#2 = DIRECTION ( 'NONE',  ( 0.000000000000000000, 0.000000000000000000, -1.000000000000000000 ) ) ;
#3 = VERTEX_POINT ( 'NONE', #39 ) ;
#4 = CARTESIAN_POINT ( 'NONE',  ( 0.000000000000000000, 0.000000000000000000, 0.000000000000000000 ) ) ;
#5 = CARTESIAN_POINT ( 'NONE',  ( -0.1875000000000001388, 4.000000000000000000, 0.000000000000000000 ) ) ;
#6 = COLOUR_RGB ( '',1.000000000000000000, 0.000000000000000000, 0.000000000000000000 ) ;
#7 = ORIENTED_EDGE ( 'NONE', *, *, #282, .F. ) ;
#8 = CYLINDRICAL_SURFACE ( 'NONE', #123, 0.1875000000000000278 ) ;
#9 = DIMENSIONAL_EXPONENTS ( 1.000000000000000000, 0.000000000000000000, 0.000000000000000000, 0.000000000000000000, 0.000000000000000000, 0.000000000000000000, 0.000000000000000000 ) ;
#10 = VERTEX_POINT ( 'NONE', #90 ) ;
#11 = PRESENTATION_STYLE_ASSIGNMENT (( #175 ) ) ;
#12 = ORIENTED_EDGE ( 'NONE', *, *, #273, .F. ) ;
#13 = EDGE_CURVE ( 'NONE', #173, #297, #247, .T. ) ;
#14 =( CONVERSION_BASED_UNIT ( 'INCH', #276 ) LENGTH_UNIT ( ) NAMED_UNIT ( #219 ) );
#15 = STYLED_ITEM ( 'NONE', ( #278 ), #35 ) ;
#16 = AXIS2_PLACEMENT_3D ( 'NONE', #166, #96, #210 ) ;
#17 =( GEOMETRIC_REPRESENTATION_CONTEXT ( 3 ) GLOBAL_UNCERTAINTY_ASSIGNED_CONTEXT ( ( #172 ) ) GLOBAL_UNIT_ASSIGNED_CONTEXT ( ( #309, #48, #246 ) ) REPRESENTATION_CONTEXT ( 'NONE', 'WORKASPACE' ) );
#18 = PRESENTATION_STYLE_ASSIGNMENT (( #156 ) ) ;
#19 = DIRECTION ( 'NONE',  ( 0.000000000000000000, 0.000000000000000000, -1.000000000000000000 ) ) ;
#20 =( LENGTH_UNIT ( ) NAMED_UNIT ( * ) SI_UNIT ( $, .METRE. ) );
#21 = EDGE_CURVE ( 'NONE', #173, #62, #248, .T. ) ;
#22 = CARTESIAN_POINT ( 'NONE',  ( 0.000000000000000000, 1.500000000000000222, 0.000000000000000000 ) ) ;
#23 = LINE ( 'NONE', #263, #255 ) ;
#24 = COLOUR_RGB ( '',0.7921568627450980005, 0.8196078431372548767, 0.9333333333333333481 ) ;
#25 = AXIS2_PLACEMENT_3D ( 'NONE', #305, #47, #174 ) ;
#26 = DIRECTION ( 'NONE',  ( -0.000000000000000000, -1.000000000000000000, -0.000000000000000000 ) ) ;
#27 =( GEOMETRIC_REPRESENTATION_CONTEXT ( 3 ) GLOBAL_UNCERTAINTY_ASSIGNED_CONTEXT ( ( #50 ) ) GLOBAL_UNIT_ASSIGNED_CONTEXT ( ( #302, #203, #279 ) ) REPRESENTATION_CONTEXT ( 'NONE', 'WORKASPACE' ) );
#28 = FACE_OUTER_BOUND ( 'NONE', #29, .T. ) ;
#29 = EDGE_LOOP ( 'NONE', ( #275, #151, #124, #84 ) ) ;
#30 = DIRECTION ( 'NONE',  ( 0.000000000000000000, 1.000000000000000000, 0.000000000000000000 ) ) ;
#31 = ORIENTED_EDGE ( 'NONE', *, *, #81, .F. ) ;
#32 = DIRECTION ( 'NONE',  ( -0.000000000000000000, -1.000000000000000000, -0.000000000000000000 ) ) ;
#33 = CLOSED_SHELL ( 'NONE', ( #133, #163, #117, #202 ) ) ;
#34 = AXIS2_PLACEMENT_3D ( 'NONE', #22, #230, #235 ) ;
#35 = MANIFOLD_SOLID_BREP ( 'Revolve - Cutting Edge', #161 ) ;
#36 = EDGE_CURVE ( 'NONE', #253, #62, #110, .T. ) ;
#37 = EDGE_LOOP ( 'NONE', ( #63, #128 ) ) ;
#38 =( LENGTH_UNIT ( ) NAMED_UNIT ( * ) SI_UNIT ( $, .METRE. ) );
#39 = CARTESIAN_POINT ( 'NONE',  ( 0.000000000000000000, 1.500000000000000222, -0.1875000000000000278 ) ) ;
#40 = PRESENTATION_LAYER_ASSIGNMENT (  '', '', ( #127 ) ) ;
#41 = EDGE_CURVE ( 'NONE', #218, #10, #93, .T. ) ;
#42 = APPLICATION_PROTOCOL_DEFINITION ( 'draft international standard', 'automotive_design', 1998, #180 ) ;
#43 =( NAMED_UNIT ( * ) SI_UNIT ( $, .STERADIAN. ) SOLID_ANGLE_UNIT ( ) );
#44 =( LENGTH_UNIT ( ) NAMED_UNIT ( * ) SI_UNIT ( $, .METRE. ) );
#45 = LENGTH_MEASURE_WITH_UNIT ( LENGTH_MEASURE( 0.02539999999999999897 ), #20 );
#46 = CYLINDRICAL_SURFACE ( 'NONE', #226, 0.1875000000000000278 ) ;
#47 = DIRECTION ( 'NONE',  ( 0.000000000000000000, -1.000000000000000000, -0.000000000000000000 ) ) ;
#48 =( NAMED_UNIT ( * ) PLANE_ANGLE_UNIT ( ) SI_UNIT ( $, .RADIAN. ) );
#49 =( GEOMETRIC_REPRESENTATION_CONTEXT ( 3 ) GLOBAL_UNCERTAINTY_ASSIGNED_CONTEXT ( ( #236 ) ) GLOBAL_UNIT_ASSIGNED_CONTEXT ( ( #270, #291, #212 ) ) REPRESENTATION_CONTEXT ( 'NONE', 'WORKASPACE' ) );
#50 = UNCERTAINTY_MEASURE_WITH_UNIT (LENGTH_MEASURE( 1.000000000000000082E-05 ), #302, 'distance_accuracy_value', 'NONE');
#51 = FACE_OUTER_BOUND ( 'NONE', #126, .T. ) ;
#52 = PLANE ( 'NONE',  #16 ) ;
#53 = CIRCLE ( 'NONE', #298, 0.1875000000000000278 ) ;
#54 = CIRCLE ( 'NONE', #205, 0.1875000000000000278 ) ;
#55 = CARTESIAN_POINT ( 'NONE',  ( -6.123233995736766036E-17, 4.000000000000000000, 0.000000000000000000 ) ) ;
#56 = CARTESIAN_POINT ( 'NONE',  ( 0.000000000000000000, 1.500000000000000222, 0.000000000000000000 ) ) ;
#57 = ORIENTED_EDGE ( 'NONE', *, *, #280, .T. ) ;
#58 = UNCERTAINTY_MEASURE_WITH_UNIT (LENGTH_MEASURE( 1.000000000000000082E-05 ), #139, 'distance_accuracy_value', 'NONE');
#59 = CARTESIAN_POINT ( 'NONE',  ( 7.582401355855259480E-33, 1.499999999999999778, 0.000000000000000000 ) ) ;
#60 = PRODUCT_RELATED_PRODUCT_CATEGORY ( 'part', '', ( #240 ) ) ;
#61 = AXIS2_PLACEMENT_3D ( 'NONE', #56, #30, #76 ) ;
#62 = VERTEX_POINT ( 'NONE', #149 ) ;
#63 = ORIENTED_EDGE ( 'NONE', *, *, #207, .T. ) ;
#64 = CARTESIAN_POINT ( 'NONE',  ( 0.000000000000000000, 0.000000000000000000, 0.000000000000000000 ) ) ;
#65 = AXIS2_PLACEMENT_3D ( 'NONE', #55, #216, #75 ) ;
#66 = ORIENTED_EDGE ( 'NONE', *, *, #273, .T. ) ;
#67 = DIRECTION ( 'NONE',  ( -2.449293598294706538E-17, 1.000000000000000000, -0.000000000000000000 ) ) ;
#68 = COLOUR_RGB ( '',0.7921568627450980005, 0.8196078431372548767, 0.9333333333333333481 ) ;
#69 = AXIS2_PLACEMENT_3D ( 'NONE', #182, #67, #208 ) ;
#70 = MECHANICAL_DESIGN_GEOMETRIC_PRESENTATION_REPRESENTATION (  '', ( #237 ), #249 ) ;
#71 = LINE ( 'NONE', #157, #199 ) ;
#72 = LINE ( 'NONE', #160, #140 ) ;
#73 = CARTESIAN_POINT ( 'NONE',  ( 2.296212748401287726E-17, 1.500000000000000222, 0.1875000000000000278 ) ) ;
#74 = COLOUR_RGB ( '',1.000000000000000000, 0.000000000000000000, 0.000000000000000000 ) ;
#75 = DIRECTION ( 'NONE',  ( -1.000000000000000000, 0.000000000000000000, 0.000000000000000000 ) ) ;
#76 = DIRECTION ( 'NONE',  ( 0.000000000000000000, -0.000000000000000000, 1.000000000000000000 ) ) ;
#77 = ADVANCED_FACE ( 'NONE', ( #153 ), #8, .T. ) ;
#78 = FILL_AREA_STYLE ('',( #103 ) ) ;
#79 = FILL_AREA_STYLE_COLOUR ( '', #24 ) ;
#80 = ORIENTED_EDGE ( 'NONE', *, *, #225, .T. ) ;
#81 = EDGE_CURVE ( 'NONE', #297, #173, #53, .T. ) ;
#82 =( NAMED_UNIT ( * ) SI_UNIT ( $, .STERADIAN. ) SOLID_ANGLE_UNIT ( ) );
#83 =( GEOMETRIC_REPRESENTATION_CONTEXT ( 3 ) GLOBAL_UNCERTAINTY_ASSIGNED_CONTEXT ( ( #244 ) ) GLOBAL_UNIT_ASSIGNED_CONTEXT ( ( #229, #89, #43 ) ) REPRESENTATION_CONTEXT ( 'NONE', 'WORKASPACE' ) );
#84 = ORIENTED_EDGE ( 'NONE', *, *, #122, .F. ) ;
#85 = FILL_AREA_STYLE_COLOUR ( '', #6 ) ;
#86 = LENGTH_MEASURE_WITH_UNIT ( LENGTH_MEASURE( 0.02539999999999999897 ), #1 );
#87 = DIRECTION ( 'NONE',  ( 0.000000000000000000, 0.000000000000000000, 1.000000000000000000 ) ) ;
#88 = AXIS2_PLACEMENT_3D ( 'NONE', #4, #167, #2 ) ;
#89 =( NAMED_UNIT ( * ) PLANE_ANGLE_UNIT ( ) SI_UNIT ( $, .RADIAN. ) );
#90 = CARTESIAN_POINT ( 'NONE',  ( 0.000000000000000000, 0.000000000000000000, -0.1875000000000000278 ) ) ;
#91 = CYLINDRICAL_SURFACE ( 'NONE', #69, 0.1875000000000000555 ) ;
#92 = CARTESIAN_POINT ( 'NONE',  ( -0.1875000000000000278, 1.499999999999999778, 0.000000000000000000 ) ) ;
#93 = CIRCLE ( 'NONE', #231, 0.1875000000000000278 ) ;
#94 = PRESENTATION_LAYER_ASSIGNMENT (  '', '', ( #237 ) ) ;
#95 = PRESENTATION_STYLE_ASSIGNMENT (( #307 ) ) ;
#96 = DIRECTION ( 'NONE',  ( -2.449293598294706229E-17, 1.000000000000000000, 0.000000000000000000 ) ) ;
#97 = CARTESIAN_POINT ( 'NONE',  ( 0.000000000000000000, 1.500000000000000222, 0.000000000000000000 ) ) ;
#98 = SURFACE_SIDE_STYLE ('',( #290 ) ) ;
#99 = UNCERTAINTY_MEASURE_WITH_UNIT (LENGTH_MEASURE( 1.000000000000000082E-05 ), #188, 'distance_accuracy_value', 'NONE');
#100 =( NAMED_UNIT ( * ) SI_UNIT ( $, .STERADIAN. ) SOLID_ANGLE_UNIT ( ) );
#101 = STYLED_ITEM ( 'NONE', ( #11 ), #77 ) ;
#102 = SURFACE_STYLE_USAGE ( .BOTH. , #98 ) ;
#103 = FILL_AREA_STYLE_COLOUR ( '', #68 ) ;
#104 = ORIENTED_EDGE ( 'NONE', *, *, #36, .T. ) ;
#105 = FACE_OUTER_BOUND ( 'NONE', #222, .T. ) ;
#106 = MECHANICAL_DESIGN_GEOMETRIC_PRESENTATION_REPRESENTATION (  '', ( #101 ), #83 ) ;
#107 = LENGTH_MEASURE_WITH_UNIT ( LENGTH_MEASURE( 0.02539999999999999897 ), #38 );
#108 = EDGE_LOOP ( 'NONE', ( #31, #148 ) ) ;
#109 = LENGTH_MEASURE_WITH_UNIT ( LENGTH_MEASURE( 0.02539999999999999897 ), #44 );
#110 = CIRCLE ( 'NONE', #224, 0.1875000000000000833 ) ;
#111 = PRODUCT_DEFINITION ( 'UNKNOWN', '', #200, #239 ) ;
#112 = MECHANICAL_DESIGN_GEOMETRIC_PRESENTATION_REPRESENTATION (  '', ( #155 ), #260 ) ;
#113 = DIRECTION ( 'NONE',  ( -1.000000000000000000, 0.000000000000000000, 0.000000000000000000 ) ) ;
#114 = CARTESIAN_POINT ( 'NONE',  ( 7.582401355855259480E-33, 1.499999999999999778, 0.000000000000000000 ) ) ;
#115 = SURFACE_SIDE_STYLE ('',( #289 ) ) ;
#116 = PRODUCT_DEFINITION_SHAPE ( 'NONE', 'NONE',  #111 ) ;
#117 = ADVANCED_FACE ( 'NONE', ( #304 ), #91, .T. ) ;
#118 = VECTOR ( 'NONE', #284, 39.37007874015748143 ) ;
#119 = AXIS2_PLACEMENT_3D ( 'NONE', #64, #87, #179 ) ;
#120 =( NAMED_UNIT ( * ) PLANE_ANGLE_UNIT ( ) SI_UNIT ( $, .RADIAN. ) );
#121 = FILL_AREA_STYLE ('',( #265 ) ) ;
#122 = EDGE_CURVE ( 'NONE', #297, #253, #71, .T. ) ;
#123 = AXIS2_PLACEMENT_3D ( 'NONE', #233, #154, #19 ) ;
#124 = ORIENTED_EDGE ( 'NONE', *, *, #36, .F. ) ;
#125 = PLANE ( 'NONE',  #184 ) ;
#126 = EDGE_LOOP ( 'NONE', ( #12, #7 ) ) ;
#127 = STYLED_ITEM ( 'NONE', ( #164 ), #150 ) ;
#128 = ORIENTED_EDGE ( 'NONE', *, *, #41, .T. ) ;
#129 = ORIENTED_EDGE ( 'NONE', *, *, #280, .F. ) ;
#130 =( NAMED_UNIT ( * ) PLANE_ANGLE_UNIT ( ) SI_UNIT ( $, .RADIAN. ) );
#131 = STYLED_ITEM ( 'NONE', ( #143 ), #135 ) ;
#132 = APPLICATION_PROTOCOL_DEFINITION ( 'draft international standard', 'automotive_design', 1998, #183 ) ;
#133 = ADVANCED_FACE ( 'NONE', ( #28 ), #269, .T. ) ;
#134 =( NAMED_UNIT ( * ) PLANE_ANGLE_UNIT ( ) SI_UNIT ( $, .RADIAN. ) );
#135 = MANIFOLD_SOLID_BREP ( 'Revolve - Tool Body (Straight Shanked)', #33 ) ;
#136 = SURFACE_STYLE_USAGE ( .BOTH. , #258 ) ;
#137 = DIRECTION ( 'NONE',  ( -0.000000000000000000, -1.000000000000000000, -0.000000000000000000 ) ) ;
#138 = FILL_AREA_STYLE_COLOUR ( '', #74 ) ;
#139 =( CONVERSION_BASED_UNIT ( 'INCH', #109 ) LENGTH_UNIT ( ) NAMED_UNIT ( #152 ) );
#140 = VECTOR ( 'NONE', #26, 39.37007874015748143 ) ;
#141 = DIRECTION ( 'NONE',  ( -1.000000000000000000, 0.000000000000000000, 0.000000000000000000 ) ) ;
#142 = DIRECTION ( 'NONE',  ( 0.000000000000000000, 0.000000000000000000, -1.000000000000000000 ) ) ;
#143 = PRESENTATION_STYLE_ASSIGNMENT (( #241 ) ) ;
#144 = FILL_AREA_STYLE_COLOUR ( '', #266 ) ;
#145 = DIRECTION ( 'NONE',  ( -1.000000000000000000, 0.000000000000000000, 0.000000000000000000 ) ) ;
#146 = DIRECTION ( 'NONE',  ( -1.000000000000000000, 0.000000000000000000, 0.000000000000000000 ) ) ;
#147 = MECHANICAL_DESIGN_GEOMETRIC_PRESENTATION_REPRESENTATION (  '', ( #131 ), #49 ) ;
#148 = ORIENTED_EDGE ( 'NONE', *, *, #13, .F. ) ;
#149 = CARTESIAN_POINT ( 'NONE',  ( 0.1875000000000000278, 4.000000000000000000, 2.296212748401288342E-17 ) ) ;
#150 = ADVANCED_FACE ( 'NONE', ( #51 ), #190, .T. ) ;
#151 = ORIENTED_EDGE ( 'NONE', *, *, #21, .T. ) ;
#152 = DIMENSIONAL_EXPONENTS ( 1.000000000000000000, 0.000000000000000000, 0.000000000000000000, 0.000000000000000000, 0.000000000000000000, 0.000000000000000000, 0.000000000000000000 ) ;
#153 = FACE_OUTER_BOUND ( 'NONE', #251, .T. ) ;
#154 = DIRECTION ( 'NONE',  ( -0.000000000000000000, -1.000000000000000000, -0.000000000000000000 ) ) ;
#155 = STYLED_ITEM ( 'NONE', ( #18 ), #268 ) ;
#156 = SURFACE_STYLE_USAGE ( .BOTH. , #259 ) ;
#157 = CARTESIAN_POINT ( 'NONE',  ( -0.1875000000000001110, 4.000000000000000000, 0.000000000000000000 ) ) ;
#158 = ADVANCED_BREP_SHAPE_REPRESENTATION ( '03377', ( #35, #135, #119 ), #27 ) ;
#159 = DIRECTION ( 'NONE',  ( -0.000000000000000000, -1.000000000000000000, -0.000000000000000000 ) ) ;
#160 = CARTESIAN_POINT ( 'NONE',  ( 2.296212748401287726E-17, 0.000000000000000000, 0.1875000000000000278 ) ) ;
#161 = CLOSED_SHELL ( 'NONE', ( #77, #150, #268, #301 ) ) ;
#162 = PRESENTATION_LAYER_ASSIGNMENT (  '', '', ( #155 ) ) ;
#163 = ADVANCED_FACE ( 'NONE', ( #187 ), #52, .F. ) ;
#164 = PRESENTATION_STYLE_ASSIGNMENT (( #102 ) ) ;
#165 = FILL_AREA_STYLE ('',( #144 ) ) ;
#166 = CARTESIAN_POINT ( 'NONE',  ( 5.624099184981966457E-35, 1.500000000000000222, 0.000000000000000000 ) ) ;
#167 = DIRECTION ( 'NONE',  ( -0.000000000000000000, -1.000000000000000000, -0.000000000000000000 ) ) ;
#168 = MECHANICAL_DESIGN_GEOMETRIC_PRESENTATION_REPRESENTATION (  '', ( #15 ), #217 ) ;
#169 = CIRCLE ( 'NONE', #65, 0.1875000000000000833 ) ;
#170 = CARTESIAN_POINT ( 'NONE',  ( -6.123233995736766036E-17, 4.000000000000000000, 0.000000000000000000 ) ) ;
#171 = FILL_AREA_STYLE ('',( #79 ) ) ;
#172 = UNCERTAINTY_MEASURE_WITH_UNIT (LENGTH_MEASURE( 1.000000000000000082E-05 ), #309, 'distance_accuracy_value', 'NONE');
#173 = VERTEX_POINT ( 'NONE', #308 ) ;
#174 = DIRECTION ( 'NONE',  ( 0.000000000000000000, 0.000000000000000000, -1.000000000000000000 ) ) ;
#175 = SURFACE_STYLE_USAGE ( .BOTH. , #252 ) ;
#176 = ORIENTED_EDGE ( 'NONE', *, *, #122, .T. ) ;
#177 = DIRECTION ( 'NONE',  ( -2.449293598294706538E-17, 1.000000000000000000, -0.000000000000000000 ) ) ;
#178 = DIMENSIONAL_EXPONENTS ( 1.000000000000000000, 0.000000000000000000, 0.000000000000000000, 0.000000000000000000, 0.000000000000000000, 0.000000000000000000, 0.000000000000000000 ) ;
#179 = DIRECTION ( 'NONE',  ( 1.000000000000000000, 0.000000000000000000, 0.000000000000000000 ) ) ;
#180 = APPLICATION_CONTEXT ( 'automotive_design' ) ;
#181 = DIRECTION ( 'NONE',  ( -2.449293598294706538E-17, 1.000000000000000000, -0.000000000000000000 ) ) ;
#182 = CARTESIAN_POINT ( 'NONE',  ( -6.123233995736766036E-17, 4.000000000000000000, 0.000000000000000000 ) ) ;
#183 = APPLICATION_CONTEXT ( 'automotive_design' ) ;
#184 = AXIS2_PLACEMENT_3D ( 'NONE', #215, #193, #294 ) ;
#185 = LENGTH_MEASURE_WITH_UNIT ( LENGTH_MEASURE( 0.02539999999999999897 ), #191 );
#186 = FACE_OUTER_BOUND ( 'NONE', #37, .T. ) ;
#187 = FACE_OUTER_BOUND ( 'NONE', #108, .T. ) ;
#188 =( CONVERSION_BASED_UNIT ( 'INCH', #45 ) LENGTH_UNIT ( ) NAMED_UNIT ( #178 ) );
#189 = AXIS2_PLACEMENT_3D ( 'NONE', #59, #181, #146 ) ;
#190 = PLANE ( 'NONE',  #61 ) ;
#191 =( LENGTH_UNIT ( ) NAMED_UNIT ( * ) SI_UNIT ( $, .METRE. ) );
#192 = ORIENTED_EDGE ( 'NONE', *, *, #13, .T. ) ;
#193 = DIRECTION ( 'NONE',  ( 2.449293598294706229E-17, -1.000000000000000000, 0.000000000000000000 ) ) ;
#194 = FACE_OUTER_BOUND ( 'NONE', #245, .T. ) ;
#195 = ORIENTED_EDGE ( 'NONE', *, *, #41, .F. ) ;
#196 = EDGE_CURVE ( 'NONE', #277, #218, #72, .T. ) ;
#197 = CARTESIAN_POINT ( 'NONE',  ( -6.123233995736766036E-17, 4.000000000000000000, 0.000000000000000000 ) ) ;
#198 = ORIENTED_EDGE ( 'NONE', *, *, #21, .F. ) ;
#199 = VECTOR ( 'NONE', #211, 39.37007874015748143 ) ;
#200 = PRODUCT_DEFINITION_FORMATION_WITH_SPECIFIED_SOURCE ( 'ANY', '', #240, .NOT_KNOWN. ) ;
#201 = DIMENSIONAL_EXPONENTS ( 1.000000000000000000, 0.000000000000000000, 0.000000000000000000, 0.000000000000000000, 0.000000000000000000, 0.000000000000000000, 0.000000000000000000 ) ;
#202 = ADVANCED_FACE ( 'NONE', ( #105 ), #125, .F. ) ;
#203 =( NAMED_UNIT ( * ) PLANE_ANGLE_UNIT ( ) SI_UNIT ( $, .RADIAN. ) );
#204 = CARTESIAN_POINT ( 'NONE',  ( 0.000000000000000000, 0.000000000000000000, 0.000000000000000000 ) ) ;
#205 = AXIS2_PLACEMENT_3D ( 'NONE', #97, #261, #142 ) ;
#206 = ORIENTED_EDGE ( 'NONE', *, *, #282, .T. ) ;
#207 = EDGE_CURVE ( 'NONE', #10, #218, #300, .T. ) ;
#208 = DIRECTION ( 'NONE',  ( -1.000000000000000000, 0.000000000000000000, 0.000000000000000000 ) ) ;
#209 = CIRCLE ( 'NONE', #34, 0.1875000000000000278 ) ;
#210 = DIRECTION ( 'NONE',  ( -1.000000000000000000, -2.449293598294706229E-17, 0.000000000000000000 ) ) ;
#211 = DIRECTION ( 'NONE',  ( -2.449293598294706229E-17, 1.000000000000000000, -0.000000000000000000 ) ) ;
#212 =( NAMED_UNIT ( * ) SI_UNIT ( $, .STERADIAN. ) SOLID_ANGLE_UNIT ( ) );
#213 = PRESENTATION_LAYER_ASSIGNMENT (  '', '', ( #101 ) ) ;
#214 = CARTESIAN_POINT ( 'NONE',  ( 0.1874999999999999722, 4.000000000000000000, 2.296212748401288034E-17 ) ) ;
#215 = CARTESIAN_POINT ( 'NONE',  ( 0.1875000000000000278, 4.000000000000000000, 0.000000000000000000 ) ) ;
#216 = DIRECTION ( 'NONE',  ( -2.449293598294706538E-17, 1.000000000000000000, -0.000000000000000000 ) ) ;
#217 =( GEOMETRIC_REPRESENTATION_CONTEXT ( 3 ) GLOBAL_UNCERTAINTY_ASSIGNED_CONTEXT ( ( #287 ) ) GLOBAL_UNIT_ASSIGNED_CONTEXT ( ( #14, #130, #82 ) ) REPRESENTATION_CONTEXT ( 'NONE', 'WORKASPACE' ) );
#218 = VERTEX_POINT ( 'NONE', #271 ) ;
#219 = DIMENSIONAL_EXPONENTS ( 1.000000000000000000, 0.000000000000000000, 0.000000000000000000, 0.000000000000000000, 0.000000000000000000, 0.000000000000000000, 0.000000000000000000 ) ;
#220 = SURFACE_STYLE_FILL_AREA ( #171 ) ;
#221 = FILL_AREA_STYLE ('',( #85 ) ) ;
#222 = EDGE_LOOP ( 'NONE', ( #104, #80 ) ) ;
#223 = ORIENTED_EDGE ( 'NONE', *, *, #225, .F. ) ;
#224 = AXIS2_PLACEMENT_3D ( 'NONE', #197, #177, #145 ) ;
#225 = EDGE_CURVE ( 'NONE', #62, #253, #169, .T. ) ;
#226 = AXIS2_PLACEMENT_3D ( 'NONE', #204, #137, #234 ) ;
#227 =( LENGTH_UNIT ( ) NAMED_UNIT ( * ) SI_UNIT ( $, .METRE. ) );
#228 = SHAPE_DEFINITION_REPRESENTATION ( #116, #158 ) ;
#229 =( CONVERSION_BASED_UNIT ( 'INCH', #107 ) LENGTH_UNIT ( ) NAMED_UNIT ( #257 ) );
#230 = DIRECTION ( 'NONE',  ( -0.000000000000000000, -1.000000000000000000, -0.000000000000000000 ) ) ;
#231 = AXIS2_PLACEMENT_3D ( 'NONE', #281, #32, #296 ) ;
#232 = COLOUR_RGB ( '',1.000000000000000000, 0.000000000000000000, 0.000000000000000000 ) ;
#233 = CARTESIAN_POINT ( 'NONE',  ( 0.000000000000000000, 0.000000000000000000, 0.000000000000000000 ) ) ;
#234 = DIRECTION ( 'NONE',  ( 0.000000000000000000, 0.000000000000000000, -1.000000000000000000 ) ) ;
#235 = DIRECTION ( 'NONE',  ( 0.000000000000000000, 0.000000000000000000, -1.000000000000000000 ) ) ;
#236 = UNCERTAINTY_MEASURE_WITH_UNIT (LENGTH_MEASURE( 1.000000000000000082E-05 ), #270, 'distance_accuracy_value', 'NONE');
#237 = STYLED_ITEM ( 'NONE', ( #95 ), #301 ) ;
#238 =( LENGTH_UNIT ( ) NAMED_UNIT ( * ) SI_UNIT ( $, .METRE. ) );
#239 = PRODUCT_DEFINITION_CONTEXT ( 'detailed design', #180, 'design' ) ;
#240 = PRODUCT ( '03377', '03377', '', ( #256 ) ) ;
#241 = SURFACE_STYLE_USAGE ( .BOTH. , #267 ) ;
#242 = AXIS2_PLACEMENT_3D ( 'NONE', #170, #243, #141 ) ;
#243 = DIRECTION ( 'NONE',  ( -2.449293598294706538E-17, 1.000000000000000000, -0.000000000000000000 ) ) ;
#244 = UNCERTAINTY_MEASURE_WITH_UNIT (LENGTH_MEASURE( 1.000000000000000082E-05 ), #229, 'distance_accuracy_value', 'NONE');
#245 = EDGE_LOOP ( 'NONE', ( #274, #206, #57, #195 ) ) ;
#246 =( NAMED_UNIT ( * ) SI_UNIT ( $, .STERADIAN. ) SOLID_ANGLE_UNIT ( ) );
#247 = CIRCLE ( 'NONE', #189, 0.1875000000000000278 ) ;
#248 = LINE ( 'NONE', #214, #118 ) ;
#249 =( GEOMETRIC_REPRESENTATION_CONTEXT ( 3 ) GLOBAL_UNCERTAINTY_ASSIGNED_CONTEXT ( ( #99 ) ) GLOBAL_UNIT_ASSIGNED_CONTEXT ( ( #188, #120, #100 ) ) REPRESENTATION_CONTEXT ( 'NONE', 'WORKASPACE' ) );
#250 = SURFACE_STYLE_FILL_AREA ( #221 ) ;
#251 = EDGE_LOOP ( 'NONE', ( #66, #295, #272, #129 ) ) ;
#252 = SURFACE_SIDE_STYLE ('',( #250 ) ) ;
#253 = VERTEX_POINT ( 'NONE', #5 ) ;
#254 = DIMENSIONAL_EXPONENTS ( 1.000000000000000000, 0.000000000000000000, 0.000000000000000000, 0.000000000000000000, 0.000000000000000000, 0.000000000000000000, 0.000000000000000000 ) ;
#255 = VECTOR ( 'NONE', #159, 39.37007874015748143 ) ;
#256 = PRODUCT_CONTEXT ( 'NONE', #183, 'mechanical' ) ;
#257 = DIMENSIONAL_EXPONENTS ( 1.000000000000000000, 0.000000000000000000, 0.000000000000000000, 0.000000000000000000, 0.000000000000000000, 0.000000000000000000, 0.000000000000000000 ) ;
#258 = SURFACE_SIDE_STYLE ('',( #220 ) ) ;
#259 = SURFACE_SIDE_STYLE ('',( #283 ) ) ;
#260 =( GEOMETRIC_REPRESENTATION_CONTEXT ( 3 ) GLOBAL_UNCERTAINTY_ASSIGNED_CONTEXT ( ( #58 ) ) GLOBAL_UNIT_ASSIGNED_CONTEXT ( ( #139, #134, #262 ) ) REPRESENTATION_CONTEXT ( 'NONE', 'WORKASPACE' ) );
#261 = DIRECTION ( 'NONE',  ( -0.000000000000000000, -1.000000000000000000, -0.000000000000000000 ) ) ;
#262 =( NAMED_UNIT ( * ) SI_UNIT ( $, .STERADIAN. ) SOLID_ANGLE_UNIT ( ) );
#263 = CARTESIAN_POINT ( 'NONE',  ( 0.000000000000000000, 0.000000000000000000, -0.1875000000000000278 ) ) ;
#264 = FILL_AREA_STYLE ('',( #138 ) ) ;
#265 = FILL_AREA_STYLE_COLOUR ( '', #232 ) ;
#266 = COLOUR_RGB ( '',1.000000000000000000, 0.000000000000000000, 0.000000000000000000 ) ;
#267 = SURFACE_SIDE_STYLE ('',( #288 ) ) ;
#268 = ADVANCED_FACE ( 'NONE', ( #194 ), #46, .T. ) ;
#269 = CYLINDRICAL_SURFACE ( 'NONE', #242, 0.1875000000000000555 ) ;
#270 =( CONVERSION_BASED_UNIT ( 'INCH', #185 ) LENGTH_UNIT ( ) NAMED_UNIT ( #254 ) );
#271 = CARTESIAN_POINT ( 'NONE',  ( 2.296212748401287726E-17, 0.000000000000000000, 0.1875000000000000278 ) ) ;
#272 = ORIENTED_EDGE ( 'NONE', *, *, #207, .F. ) ;
#273 = EDGE_CURVE ( 'NONE', #3, #277, #209, .T. ) ;
#274 = ORIENTED_EDGE ( 'NONE', *, *, #196, .F. ) ;
#275 = ORIENTED_EDGE ( 'NONE', *, *, #81, .T. ) ;
#276 = LENGTH_MEASURE_WITH_UNIT ( LENGTH_MEASURE( 0.02539999999999999897 ), #227 );
#277 = VERTEX_POINT ( 'NONE', #73 ) ;
#278 = PRESENTATION_STYLE_ASSIGNMENT (( #136 ) ) ;
#279 =( NAMED_UNIT ( * ) SI_UNIT ( $, .STERADIAN. ) SOLID_ANGLE_UNIT ( ) );
#280 = EDGE_CURVE ( 'NONE', #3, #10, #23, .T. ) ;
#281 = CARTESIAN_POINT ( 'NONE',  ( 0.000000000000000000, 0.000000000000000000, 0.000000000000000000 ) ) ;
#282 = EDGE_CURVE ( 'NONE', #277, #3, #54, .T. ) ;
#283 = SURFACE_STYLE_FILL_AREA ( #121 ) ;
#284 = DIRECTION ( 'NONE',  ( -2.449293598294706229E-17, 1.000000000000000000, -0.000000000000000000 ) ) ;
#285 = PLANE ( 'NONE',  #25 ) ;
#286 = DIRECTION ( 'NONE',  ( -2.449293598294706538E-17, 1.000000000000000000, -0.000000000000000000 ) ) ;
#287 = UNCERTAINTY_MEASURE_WITH_UNIT (LENGTH_MEASURE( 1.000000000000000082E-05 ), #14, 'distance_accuracy_value', 'NONE');
#288 = SURFACE_STYLE_FILL_AREA ( #78 ) ;
#289 = SURFACE_STYLE_FILL_AREA ( #264 ) ;
#290 = SURFACE_STYLE_FILL_AREA ( #165 ) ;
#291 =( NAMED_UNIT ( * ) PLANE_ANGLE_UNIT ( ) SI_UNIT ( $, .RADIAN. ) );
#292 = LENGTH_MEASURE_WITH_UNIT ( LENGTH_MEASURE( 0.02539999999999999897 ), #238 );
#293 = PRESENTATION_LAYER_ASSIGNMENT (  '', '', ( #15 ) ) ;
#294 = DIRECTION ( 'NONE',  ( 1.000000000000000000, 2.449293598294706229E-17, 0.000000000000000000 ) ) ;
#295 = ORIENTED_EDGE ( 'NONE', *, *, #196, .T. ) ;
#296 = DIRECTION ( 'NONE',  ( 0.000000000000000000, 0.000000000000000000, -1.000000000000000000 ) ) ;
#297 = VERTEX_POINT ( 'NONE', #92 ) ;
#298 = AXIS2_PLACEMENT_3D ( 'NONE', #114, #286, #113 ) ;
#299 = EDGE_LOOP ( 'NONE', ( #198, #192, #176, #223 ) ) ;
#300 = CIRCLE ( 'NONE', #88, 0.1875000000000000278 ) ;
#301 = ADVANCED_FACE ( 'NONE', ( #186 ), #285, .T. ) ;
#302 =( CONVERSION_BASED_UNIT ( 'INCH', #86 ) LENGTH_UNIT ( ) NAMED_UNIT ( #9 ) );
#303 = MECHANICAL_DESIGN_GEOMETRIC_PRESENTATION_REPRESENTATION (  '', ( #127 ), #17 ) ;
#304 = FACE_OUTER_BOUND ( 'NONE', #299, .T. ) ;
#305 = CARTESIAN_POINT ( 'NONE',  ( 0.000000000000000000, 0.000000000000000000, 0.000000000000000000 ) ) ;
#306 = PRESENTATION_LAYER_ASSIGNMENT (  '', '', ( #131 ) ) ;
#307 = SURFACE_STYLE_USAGE ( .BOTH. , #115 ) ;
#308 = CARTESIAN_POINT ( 'NONE',  ( 0.1875000000000000278, 1.499999999999999778, 2.296212748401288342E-17 ) ) ;
#309 =( CONVERSION_BASED_UNIT ( 'INCH', #292 ) LENGTH_UNIT ( ) NAMED_UNIT ( #201 ) );
ENDSEC;
END-ISO-10303-21;
