ISO-10303-21;
HEADER;
FILE_DESCRIPTION (( 'STEP AP214' ),
    '1' );
FILE_NAME ('82392.STEP',
    '2023-06-23T05:33:57',
    ( '' ),
    ( '' ),
    'SwSTEP 2.0',
    'SolidWorks 2023',
    '' );
FILE_SCHEMA (( 'AUTOMOTIVE_DESIGN' ));
ENDSEC;

DATA;
#1 = SURFACE_STYLE_USAGE ( .BOTH. , #264 ) ;
#2 = VERTEX_POINT ( 'NONE', #259 ) ;
#3 = DIRECTION ( 'NONE',  ( -3.768143997376474441E-17, 1.000000000000000000, -0.000000000000000000 ) ) ;
#4 = ORIENTED_EDGE ( 'NONE', *, *, #280, .F. ) ;
#5 =( NAMED_UNIT ( * ) SI_UNIT ( $, .STERADIAN. ) SOLID_ANGLE_UNIT ( ) );
#6 = STYLED_ITEM ( 'NONE', ( #258 ), #257 ) ;
#7 = CIRCLE ( 'NONE', #186, 0.09375000000000001388 ) ;
#8 = CIRCLE ( 'NONE', #136, 0.09375000000000006939 ) ;
#9 = EDGE_LOOP ( 'NONE', ( #166, #272 ) ) ;
#10 = AXIS2_PLACEMENT_3D ( 'NONE', #167, #29, #50 ) ;
#11 = ORIENTED_EDGE ( 'NONE', *, *, #21, .F. ) ;
#12 = FILL_AREA_STYLE_COLOUR ( '', #80 ) ;
#13 = CYLINDRICAL_SURFACE ( 'NONE', #164, 0.09375000000000001388 ) ;
#14 = VECTOR ( 'NONE', #201, 39.37007874015748143 ) ;
#15 = CARTESIAN_POINT ( 'NONE',  ( 0.09375000000000001388, 3.000000000000000444, 0.000000000000000000 ) ) ;
#16 = PLANE ( 'NONE',  #274 ) ;
#17 = PRESENTATION_LAYER_ASSIGNMENT (  '', '', ( #296 ) ) ;
#18 = DIRECTION ( 'NONE',  ( -1.000000000000000000, -3.768143997376474441E-17, 0.000000000000000000 ) ) ;
#19 = PLANE ( 'NONE',  #243 ) ;
#20 = PLANE ( 'NONE',  #218 ) ;
#21 = EDGE_CURVE ( 'NONE', #156, #180, #43, .T. ) ;
#22 = DIMENSIONAL_EXPONENTS ( 1.000000000000000000, 0.000000000000000000, 0.000000000000000000, 0.000000000000000000, 0.000000000000000000, 0.000000000000000000, 0.000000000000000000 ) ;
#23 = EDGE_LOOP ( 'NONE', ( #98, #279, #293, #66 ) ) ;
#24 = DIRECTION ( 'NONE',  ( 0.000000000000000000, 0.000000000000000000, -1.000000000000000000 ) ) ;
#25 = FILL_AREA_STYLE_COLOUR ( '', #191 ) ;
#26 = FILL_AREA_STYLE ('',( #143 ) ) ;
#27 = STYLED_ITEM ( 'NONE', ( #124 ), #158 ) ;
#28 = ORIENTED_EDGE ( 'NONE', *, *, #254, .T. ) ;
#29 = DIRECTION ( 'NONE',  ( -3.768143997376474441E-17, 1.000000000000000000, -0.000000000000000000 ) ) ;
#30 = ORIENTED_EDGE ( 'NONE', *, *, #280, .T. ) ;
#31 = CARTESIAN_POINT ( 'NONE',  ( -0.09375000000000001388, 1.375000000000000000, 0.000000000000000000 ) ) ;
#32 = CARTESIAN_POINT ( 'NONE',  ( 0.000000000000000000, 0.000000000000000000, 0.000000000000000000 ) ) ;
#33 = MECHANICAL_DESIGN_GEOMETRIC_PRESENTATION_REPRESENTATION (  '', ( #6 ), #282 ) ;
#34 = AXIS2_PLACEMENT_3D ( 'NONE', #15, #268, #68 ) ;
#35 = ORIENTED_EDGE ( 'NONE', *, *, #52, .T. ) ;
#36 = CARTESIAN_POINT ( 'NONE',  ( 0.09375000000000001388, 3.000000000000000444, 1.148106374200644325E-17 ) ) ;
#37 = ADVANCED_FACE ( 'NONE', ( #299 ), #16, .T. ) ;
#38 = FACE_OUTER_BOUND ( 'NONE', #256, .T. ) ;
#39 = LENGTH_MEASURE_WITH_UNIT ( LENGTH_MEASURE( 0.02539999999999999897 ), #155 );
#40 = DIMENSIONAL_EXPONENTS ( 1.000000000000000000, 0.000000000000000000, 0.000000000000000000, 0.000000000000000000, 0.000000000000000000, 0.000000000000000000, 0.000000000000000000 ) ;
#41 = UNCERTAINTY_MEASURE_WITH_UNIT (LENGTH_MEASURE( 1.000000000000000082E-05 ), #193, 'distance_accuracy_value', 'NONE');
#42 = COLOUR_RGB ( '',1.000000000000000000, 0.000000000000000000, 0.000000000000000000 ) ;
#43 = CIRCLE ( 'NONE', #232, 0.09375000000000001388 ) ;
#44 = PRESENTATION_LAYER_ASSIGNMENT (  '', '', ( #6 ) ) ;
#45 = ORIENTED_EDGE ( 'NONE', *, *, #161, .T. ) ;
#46 = SURFACE_SIDE_STYLE ('',( #263 ) ) ;
#47 = SURFACE_SIDE_STYLE ('',( #87 ) ) ;
#48 = ORIENTED_EDGE ( 'NONE', *, *, #217, .F. ) ;
#49 =( LENGTH_UNIT ( ) NAMED_UNIT ( * ) SI_UNIT ( $, .METRE. ) );
#50 = DIRECTION ( 'NONE',  ( -1.000000000000000000, 0.000000000000000000, 0.000000000000000000 ) ) ;
#51 = PRESENTATION_LAYER_ASSIGNMENT (  '', '', ( #72 ) ) ;
#52 = EDGE_CURVE ( 'NONE', #212, #238, #84, .T. ) ;
#53 = UNCERTAINTY_MEASURE_WITH_UNIT (LENGTH_MEASURE( 1.000000000000000082E-05 ), #289, 'distance_accuracy_value', 'NONE');
#54 = ORIENTED_EDGE ( 'NONE', *, *, #170, .T. ) ;
#55 = SURFACE_STYLE_FILL_AREA ( #182 ) ;
#56 = DIRECTION ( 'NONE',  ( -1.000000000000000000, 0.000000000000000000, 0.000000000000000000 ) ) ;
#57 = DIMENSIONAL_EXPONENTS ( 1.000000000000000000, 0.000000000000000000, 0.000000000000000000, 0.000000000000000000, 0.000000000000000000, 0.000000000000000000, 0.000000000000000000 ) ;
#58 = SURFACE_STYLE_USAGE ( .BOTH. , #46 ) ;
#59 = LENGTH_MEASURE_WITH_UNIT ( LENGTH_MEASURE( 0.02539999999999999897 ), #49 );
#60 = PRESENTATION_LAYER_ASSIGNMENT (  '', '', ( #237 ) ) ;
#61 = FILL_AREA_STYLE ('',( #12 ) ) ;
#62 =( LENGTH_UNIT ( ) NAMED_UNIT ( * ) SI_UNIT ( $, .METRE. ) );
#63 = FACE_OUTER_BOUND ( 'NONE', #9, .T. ) ;
#64 = EDGE_CURVE ( 'NONE', #202, #2, #168, .T. ) ;
#65 = COLOUR_RGB ( '',0.7921568627450980005, 0.8196078431372548767, 0.9333333333333333481 ) ;
#66 = ORIENTED_EDGE ( 'NONE', *, *, #254, .F. ) ;
#67 = SURFACE_SIDE_STYLE ('',( #147 ) ) ;
#68 = DIRECTION ( 'NONE',  ( 1.000000000000000000, 3.768143997376474441E-17, 0.000000000000000000 ) ) ;
#69 = SURFACE_STYLE_USAGE ( .BOTH. , #287 ) ;
#70 = FACE_OUTER_BOUND ( 'NONE', #23, .T. ) ;
#71 = DIRECTION ( 'NONE',  ( -1.000000000000000000, 0.000000000000000000, 0.000000000000000000 ) ) ;
#72 = STYLED_ITEM ( 'NONE', ( #290 ), #145 ) ;
#73 = LENGTH_MEASURE_WITH_UNIT ( LENGTH_MEASURE( 0.02539999999999999897 ), #128 );
#74 = ADVANCED_FACE ( 'NONE', ( #63 ), #20, .F. ) ;
#75 = EDGE_LOOP ( 'NONE', ( #129, #123, #4, #151 ) ) ;
#76 = COLOUR_RGB ( '',1.000000000000000000, 0.000000000000000000, 0.000000000000000000 ) ;
#77 = CARTESIAN_POINT ( 'NONE',  ( 0.000000000000000000, 1.375000000000000000, -0.09375000000000001388 ) ) ;
#78 = ORIENTED_EDGE ( 'NONE', *, *, #271, .F. ) ;
#79 = CARTESIAN_POINT ( 'NONE',  ( 0.000000000000000000, 1.375000000000000000, 0.000000000000000000 ) ) ;
#80 = COLOUR_RGB ( '',1.000000000000000000, 0.000000000000000000, 0.000000000000000000 ) ;
#81 = PRODUCT_DEFINITION ( 'UNKNOWN', '', #235, #94 ) ;
#82 = DIMENSIONAL_EXPONENTS ( 1.000000000000000000, 0.000000000000000000, 0.000000000000000000, 0.000000000000000000, 0.000000000000000000, 0.000000000000000000, 0.000000000000000000 ) ;
#83 =( CONVERSION_BASED_UNIT ( 'INCH', #39 ) LENGTH_UNIT ( ) NAMED_UNIT ( #82 ) );
#84 = LINE ( 'NONE', #90, #177 ) ;
#85 =( NAMED_UNIT ( * ) PLANE_ANGLE_UNIT ( ) SI_UNIT ( $, .RADIAN. ) );
#86 = LENGTH_MEASURE_WITH_UNIT ( LENGTH_MEASURE( 0.02539999999999999897 ), #62 );
#87 = SURFACE_STYLE_FILL_AREA ( #26 ) ;
#88 = LINE ( 'NONE', #173, #14 ) ;
#89 = DIRECTION ( 'NONE',  ( -0.000000000000000000, -1.000000000000000000, -0.000000000000000000 ) ) ;
#90 = CARTESIAN_POINT ( 'NONE',  ( 0.09374999999999997224, 3.000000000000000444, 1.148106374200644171E-17 ) ) ;
#91 = MECHANICAL_DESIGN_GEOMETRIC_PRESENTATION_REPRESENTATION (  '', ( #285 ), #107 ) ;
#92 = FILL_AREA_STYLE ('',( #115 ) ) ;
#93 = APPLICATION_CONTEXT ( 'automotive_design' ) ;
#94 = PRODUCT_DEFINITION_CONTEXT ( 'detailed design', #93, 'design' ) ;
#95 = EDGE_LOOP ( 'NONE', ( #30, #28 ) ) ;
#96 =( CONVERSION_BASED_UNIT ( 'INCH', #228 ) LENGTH_UNIT ( ) NAMED_UNIT ( #222 ) );
#97 = CARTESIAN_POINT ( 'NONE',  ( -6.123233995736772199E-17, 3.000000000000000444, 0.000000000000000000 ) ) ;
#98 = ORIENTED_EDGE ( 'NONE', *, *, #133, .F. ) ;
#99 = CARTESIAN_POINT ( 'NONE',  ( 0.000000000000000000, 1.375000000000000000, 0.000000000000000000 ) ) ;
#100 = APPLICATION_CONTEXT ( 'automotive_design' ) ;
#101 = AXIS2_PLACEMENT_3D ( 'NONE', #253, #157, #181 ) ;
#102 = CIRCLE ( 'NONE', #207, 0.09375000000000001388 ) ;
#103 = EDGE_LOOP ( 'NONE', ( #54, #35, #78, #269 ) ) ;
#104 =( GEOMETRIC_REPRESENTATION_CONTEXT ( 3 ) GLOBAL_UNCERTAINTY_ASSIGNED_CONTEXT ( ( #122 ) ) GLOBAL_UNIT_ASSIGNED_CONTEXT ( ( #96, #175, #275 ) ) REPRESENTATION_CONTEXT ( 'NONE', 'WORKASPACE' ) );
#105 = CARTESIAN_POINT ( 'NONE',  ( 0.000000000000000000, 1.375000000000000000, 0.000000000000000000 ) ) ;
#106 = DIMENSIONAL_EXPONENTS ( 1.000000000000000000, 0.000000000000000000, 0.000000000000000000, 0.000000000000000000, 0.000000000000000000, 0.000000000000000000, 0.000000000000000000 ) ;
#107 =( GEOMETRIC_REPRESENTATION_CONTEXT ( 3 ) GLOBAL_UNCERTAINTY_ASSIGNED_CONTEXT ( ( #41 ) ) GLOBAL_UNIT_ASSIGNED_CONTEXT ( ( #193, #247, #223 ) ) REPRESENTATION_CONTEXT ( 'NONE', 'WORKASPACE' ) );
#108 =( NAMED_UNIT ( * ) PLANE_ANGLE_UNIT ( ) SI_UNIT ( $, .RADIAN. ) );
#109 = CARTESIAN_POINT ( 'NONE',  ( 0.000000000000000000, 0.000000000000000000, 0.000000000000000000 ) ) ;
#110 = CIRCLE ( 'NONE', #225, 0.09375000000000001388 ) ;
#111 = DIRECTION ( 'NONE',  ( -3.768143997376474441E-17, 1.000000000000000000, -0.000000000000000000 ) ) ;
#112 = DIRECTION ( 'NONE',  ( 0.000000000000000000, -0.000000000000000000, 1.000000000000000000 ) ) ;
#113 =( NAMED_UNIT ( * ) SI_UNIT ( $, .STERADIAN. ) SOLID_ANGLE_UNIT ( ) );
#114 = LINE ( 'NONE', #121, #211 ) ;
#115 = FILL_AREA_STYLE_COLOUR ( '', #76 ) ;
#116 = SURFACE_STYLE_USAGE ( .BOTH. , #47 ) ;
#117 = MECHANICAL_DESIGN_GEOMETRIC_PRESENTATION_REPRESENTATION (  '', ( #296 ), #104 ) ;
#118 = CIRCLE ( 'NONE', #260, 0.09375000000000001388 ) ;
#119 = VERTEX_POINT ( 'NONE', #267 ) ;
#120 = ADVANCED_FACE ( 'NONE', ( #142 ), #19, .T. ) ;
#121 = CARTESIAN_POINT ( 'NONE',  ( 1.148106374200643863E-17, 0.000000000000000000, 0.09375000000000001388 ) ) ;
#122 = UNCERTAINTY_MEASURE_WITH_UNIT (LENGTH_MEASURE( 1.000000000000000082E-05 ), #96, 'distance_accuracy_value', 'NONE');
#123 = ORIENTED_EDGE ( 'NONE', *, *, #133, .T. ) ;
#124 = PRESENTATION_STYLE_ASSIGNMENT (( #139 ) ) ;
#125 = PRESENTATION_STYLE_ASSIGNMENT (( #58 ) ) ;
#126 = CYLINDRICAL_SURFACE ( 'NONE', #101, 0.09375000000000001388 ) ;
#127 = VECTOR ( 'NONE', #111, 39.37007874015748143 ) ;
#128 =( LENGTH_UNIT ( ) NAMED_UNIT ( * ) SI_UNIT ( $, .METRE. ) );
#129 = ORIENTED_EDGE ( 'NONE', *, *, #21, .T. ) ;
#130 = EDGE_CURVE ( 'NONE', #156, #119, #88, .T. ) ;
#131 = SURFACE_STYLE_USAGE ( .BOTH. , #255 ) ;
#132 = DIRECTION ( 'NONE',  ( 1.000000000000000000, 0.000000000000000000, 0.000000000000000000 ) ) ;
#133 = EDGE_CURVE ( 'NONE', #180, #198, #114, .T. ) ;
#134 = DIRECTION ( 'NONE',  ( -0.000000000000000000, -1.000000000000000000, -0.000000000000000000 ) ) ;
#135 = CIRCLE ( 'NONE', #10, 0.09375000000000001388 ) ;
#136 = AXIS2_PLACEMENT_3D ( 'NONE', #97, #205, #71 ) ;
#137 = CARTESIAN_POINT ( 'NONE',  ( 6.655738680452043190E-35, 1.375000000000000000, 0.000000000000000000 ) ) ;
#138 = DIRECTION ( 'NONE',  ( 0.000000000000000000, 1.000000000000000000, 0.000000000000000000 ) ) ;
#139 = SURFACE_STYLE_USAGE ( .BOTH. , #67 ) ;
#140 = PRESENTATION_STYLE_ASSIGNMENT (( #1 ) ) ;
#141 = DIRECTION ( 'NONE',  ( -3.768143997376474441E-17, 1.000000000000000000, -0.000000000000000000 ) ) ;
#142 = FACE_OUTER_BOUND ( 'NONE', #174, .T. ) ;
#143 = FILL_AREA_STYLE_COLOUR ( '', #262 ) ;
#144 = PLANE ( 'NONE',  #34 ) ;
#145 = MANIFOLD_SOLID_BREP ( 'Revolve - Tool Body (Straight Shanked)', #273 ) ;
#146 = UNCERTAINTY_MEASURE_WITH_UNIT (LENGTH_MEASURE( 1.000000000000000082E-05 ), #236, 'distance_accuracy_value', 'NONE');
#147 = SURFACE_STYLE_FILL_AREA ( #214 ) ;
#148 = MECHANICAL_DESIGN_GEOMETRIC_PRESENTATION_REPRESENTATION (  '', ( #72 ), #195 ) ;
#149 = DIRECTION ( 'NONE',  ( -1.000000000000000000, 0.000000000000000000, 0.000000000000000000 ) ) ;
#150 =( NAMED_UNIT ( * ) SI_UNIT ( $, .STERADIAN. ) SOLID_ANGLE_UNIT ( ) );
#151 = ORIENTED_EDGE ( 'NONE', *, *, #130, .F. ) ;
#152 =( GEOMETRIC_REPRESENTATION_CONTEXT ( 3 ) GLOBAL_UNCERTAINTY_ASSIGNED_CONTEXT ( ( #242 ) ) GLOBAL_UNIT_ASSIGNED_CONTEXT ( ( #252, #204, #5 ) ) REPRESENTATION_CONTEXT ( 'NONE', 'WORKASPACE' ) );
#153 = CARTESIAN_POINT ( 'NONE',  ( -6.123233995736772199E-17, 3.000000000000000444, 0.000000000000000000 ) ) ;
#154 = DIRECTION ( 'NONE',  ( -0.000000000000000000, -1.000000000000000000, -0.000000000000000000 ) ) ;
#155 =( LENGTH_UNIT ( ) NAMED_UNIT ( * ) SI_UNIT ( $, .METRE. ) );
#156 = VERTEX_POINT ( 'NONE', #77 ) ;
#157 = DIRECTION ( 'NONE',  ( -0.000000000000000000, -1.000000000000000000, -0.000000000000000000 ) ) ;
#158 = ADVANCED_FACE ( 'NONE', ( #70 ), #13, .T. ) ;
#159 = FILL_AREA_STYLE_COLOUR ( '', #42 ) ;
#160 = DIRECTION ( 'NONE',  ( 0.000000000000000000, 0.000000000000000000, -1.000000000000000000 ) ) ;
#161 = EDGE_CURVE ( 'NONE', #238, #2, #233, .T. ) ;
#162 =( CONVERSION_BASED_UNIT ( 'INCH', #59 ) LENGTH_UNIT ( ) NAMED_UNIT ( #246 ) );
#163 = FACE_OUTER_BOUND ( 'NONE', #75, .T. ) ;
#164 = AXIS2_PLACEMENT_3D ( 'NONE', #230, #307, #266 ) ;
#165 = AXIS2_PLACEMENT_3D ( 'NONE', #153, #208, #149 ) ;
#166 = ORIENTED_EDGE ( 'NONE', *, *, #170, .F. ) ;
#167 = CARTESIAN_POINT ( 'NONE',  ( 0.000000000000000000, 1.375000000000000000, 0.000000000000000000 ) ) ;
#168 = LINE ( 'NONE', #197, #127 ) ;
#169 = CARTESIAN_POINT ( 'NONE',  ( 0.000000000000000000, 0.000000000000000000, 0.000000000000000000 ) ) ;
#170 = EDGE_CURVE ( 'NONE', #202, #212, #135, .T. ) ;
#171 = EDGE_LOOP ( 'NONE', ( #178, #45 ) ) ;
#172 = LENGTH_MEASURE_WITH_UNIT ( LENGTH_MEASURE( 0.02539999999999999897 ), #199 );
#173 = CARTESIAN_POINT ( 'NONE',  ( 0.000000000000000000, 0.000000000000000000, -0.09375000000000001388 ) ) ;
#174 = EDGE_LOOP ( 'NONE', ( #11, #48 ) ) ;
#175 =( NAMED_UNIT ( * ) PLANE_ANGLE_UNIT ( ) SI_UNIT ( $, .RADIAN. ) );
#176 = AXIS2_PLACEMENT_3D ( 'NONE', #221, #141, #250 ) ;
#177 = VECTOR ( 'NONE', #192, 39.37007874015748143 ) ;
#178 = ORIENTED_EDGE ( 'NONE', *, *, #271, .T. ) ;
#179 = AXIS2_PLACEMENT_3D ( 'NONE', #109, #183, #132 ) ;
#180 = VERTEX_POINT ( 'NONE', #203 ) ;
#181 = DIRECTION ( 'NONE',  ( 0.000000000000000000, 0.000000000000000000, -1.000000000000000000 ) ) ;
#182 = FILL_AREA_STYLE ('',( #209 ) ) ;
#183 = DIRECTION ( 'NONE',  ( 0.000000000000000000, 0.000000000000000000, 1.000000000000000000 ) ) ;
#184 = CLOSED_SHELL ( 'NONE', ( #220, #120, #158, #37 ) ) ;
#185 = PRESENTATION_LAYER_ASSIGNMENT (  '', '', ( #27 ) ) ;
#186 = AXIS2_PLACEMENT_3D ( 'NONE', #32, #154, #239 ) ;
#187 = DIRECTION ( 'NONE',  ( -3.768143997376474441E-17, 1.000000000000000000, -0.000000000000000000 ) ) ;
#188 = APPLICATION_PROTOCOL_DEFINITION ( 'draft international standard', 'automotive_design', 1998, #93 ) ;
#189 = UNCERTAINTY_MEASURE_WITH_UNIT (LENGTH_MEASURE( 1.000000000000000082E-05 ), #83, 'distance_accuracy_value', 'NONE');
#190 = CARTESIAN_POINT ( 'NONE',  ( -6.123233995736772199E-17, 3.000000000000000444, 0.000000000000000000 ) ) ;
#191 = COLOUR_RGB ( '',1.000000000000000000, 0.000000000000000000, 0.000000000000000000 ) ;
#192 = DIRECTION ( 'NONE',  ( -3.768143997376474441E-17, 1.000000000000000000, -0.000000000000000000 ) ) ;
#193 =( CONVERSION_BASED_UNIT ( 'INCH', #86 ) LENGTH_UNIT ( ) NAMED_UNIT ( #40 ) );
#194 = CARTESIAN_POINT ( 'NONE',  ( 1.148106374200643863E-17, 0.000000000000000000, 0.09375000000000001388 ) ) ;
#195 =( GEOMETRIC_REPRESENTATION_CONTEXT ( 3 ) GLOBAL_UNCERTAINTY_ASSIGNED_CONTEXT ( ( #189 ) ) GLOBAL_UNIT_ASSIGNED_CONTEXT ( ( #83, #196, #150 ) ) REPRESENTATION_CONTEXT ( 'NONE', 'WORKASPACE' ) );
#196 =( NAMED_UNIT ( * ) PLANE_ANGLE_UNIT ( ) SI_UNIT ( $, .RADIAN. ) );
#197 = CARTESIAN_POINT ( 'NONE',  ( -0.09375000000000011102, 3.000000000000000444, 0.000000000000000000 ) ) ;
#198 = VERTEX_POINT ( 'NONE', #194 ) ;
#199 =( LENGTH_UNIT ( ) NAMED_UNIT ( * ) SI_UNIT ( $, .METRE. ) );
#200 = FILL_AREA_STYLE ('',( #25 ) ) ;
#201 = DIRECTION ( 'NONE',  ( -0.000000000000000000, -1.000000000000000000, -0.000000000000000000 ) ) ;
#202 = VERTEX_POINT ( 'NONE', #31 ) ;
#203 = CARTESIAN_POINT ( 'NONE',  ( 1.148106374200643863E-17, 1.375000000000000000, 0.09375000000000001388 ) ) ;
#204 =( NAMED_UNIT ( * ) PLANE_ANGLE_UNIT ( ) SI_UNIT ( $, .RADIAN. ) );
#205 = DIRECTION ( 'NONE',  ( -3.768143997376474441E-17, 1.000000000000000000, -0.000000000000000000 ) ) ;
#206 =( NAMED_UNIT ( * ) PLANE_ANGLE_UNIT ( ) SI_UNIT ( $, .RADIAN. ) );
#207 = AXIS2_PLACEMENT_3D ( 'NONE', #79, #3, #294 ) ;
#208 = DIRECTION ( 'NONE',  ( -3.768143997376474441E-17, 1.000000000000000000, -0.000000000000000000 ) ) ;
#209 = FILL_AREA_STYLE_COLOUR ( '', #65 ) ;
#210 = CYLINDRICAL_SURFACE ( 'NONE', #165, 0.09375000000000004163 ) ;
#211 = VECTOR ( 'NONE', #134, 39.37007874015748143 ) ;
#212 = VERTEX_POINT ( 'NONE', #249 ) ;
#213 = PRODUCT ( '82392', '82392', '', ( #241 ) ) ;
#214 = FILL_AREA_STYLE ('',( #159 ) ) ;
#215 =( GEOMETRIC_REPRESENTATION_CONTEXT ( 3 ) GLOBAL_UNCERTAINTY_ASSIGNED_CONTEXT ( ( #226 ) ) GLOBAL_UNIT_ASSIGNED_CONTEXT ( ( #162, #108, #291 ) ) REPRESENTATION_CONTEXT ( 'NONE', 'WORKASPACE' ) );
#216 = APPLICATION_PROTOCOL_DEFINITION ( 'draft international standard', 'automotive_design', 1998, #100 ) ;
#217 = EDGE_CURVE ( 'NONE', #180, #156, #110, .T. ) ;
#218 = AXIS2_PLACEMENT_3D ( 'NONE', #137, #288, #18 ) ;
#219 = FACE_OUTER_BOUND ( 'NONE', #103, .T. ) ;
#220 = ADVANCED_FACE ( 'NONE', ( #163 ), #126, .T. ) ;
#221 = CARTESIAN_POINT ( 'NONE',  ( -6.123233995736772199E-17, 3.000000000000000444, 0.000000000000000000 ) ) ;
#222 = DIMENSIONAL_EXPONENTS ( 1.000000000000000000, 0.000000000000000000, 0.000000000000000000, 0.000000000000000000, 0.000000000000000000, 0.000000000000000000, 0.000000000000000000 ) ;
#223 =( NAMED_UNIT ( * ) SI_UNIT ( $, .STERADIAN. ) SOLID_ANGLE_UNIT ( ) );
#224 = SURFACE_STYLE_FILL_AREA ( #92 ) ;
#225 = AXIS2_PLACEMENT_3D ( 'NONE', #99, #89, #24 ) ;
#226 = UNCERTAINTY_MEASURE_WITH_UNIT (LENGTH_MEASURE( 1.000000000000000082E-05 ), #162, 'distance_accuracy_value', 'NONE');
#227 = ORIENTED_EDGE ( 'NONE', *, *, #52, .F. ) ;
#228 = LENGTH_MEASURE_WITH_UNIT ( LENGTH_MEASURE( 0.02539999999999999897 ), #295 );
#229 = PRODUCT_DEFINITION_SHAPE ( 'NONE', 'NONE',  #81 ) ;
#230 = CARTESIAN_POINT ( 'NONE',  ( 0.000000000000000000, 0.000000000000000000, 0.000000000000000000 ) ) ;
#231 = PRESENTATION_STYLE_ASSIGNMENT (( #69 ) ) ;
#232 = AXIS2_PLACEMENT_3D ( 'NONE', #105, #286, #265 ) ;
#233 = CIRCLE ( 'NONE', #176, 0.09375000000000006939 ) ;
#234 = AXIS2_PLACEMENT_3D ( 'NONE', #190, #187, #56 ) ;
#235 = PRODUCT_DEFINITION_FORMATION_WITH_SPECIFIED_SOURCE ( 'ANY', '', #213, .NOT_KNOWN. ) ;
#236 =( CONVERSION_BASED_UNIT ( 'INCH', #73 ) LENGTH_UNIT ( ) NAMED_UNIT ( #22 ) );
#237 = STYLED_ITEM ( 'NONE', ( #125 ), #120 ) ;
#238 = VERTEX_POINT ( 'NONE', #36 ) ;
#239 = DIRECTION ( 'NONE',  ( 0.000000000000000000, 0.000000000000000000, -1.000000000000000000 ) ) ;
#240 = CYLINDRICAL_SURFACE ( 'NONE', #234, 0.09375000000000004163 ) ;
#241 = PRODUCT_CONTEXT ( 'NONE', #100, 'mechanical' ) ;
#242 = UNCERTAINTY_MEASURE_WITH_UNIT (LENGTH_MEASURE( 1.000000000000000082E-05 ), #252, 'distance_accuracy_value', 'NONE');
#243 = AXIS2_PLACEMENT_3D ( 'NONE', #304, #138, #112 ) ;
#244 = ADVANCED_BREP_SHAPE_REPRESENTATION ( '82392', ( #257, #145, #179 ), #215 ) ;
#245 = CARTESIAN_POINT ( 'NONE',  ( 0.000000000000000000, 0.000000000000000000, 0.000000000000000000 ) ) ;
#246 = DIMENSIONAL_EXPONENTS ( 1.000000000000000000, 0.000000000000000000, 0.000000000000000000, 0.000000000000000000, 0.000000000000000000, 0.000000000000000000, 0.000000000000000000 ) ;
#247 =( NAMED_UNIT ( * ) PLANE_ANGLE_UNIT ( ) SI_UNIT ( $, .RADIAN. ) );
#248 = ORIENTED_EDGE ( 'NONE', *, *, #261, .T. ) ;
#249 = CARTESIAN_POINT ( 'NONE',  ( 0.09375000000000001388, 1.375000000000000000, 1.148106374200644325E-17 ) ) ;
#250 = DIRECTION ( 'NONE',  ( -1.000000000000000000, 0.000000000000000000, 0.000000000000000000 ) ) ;
#251 = ORIENTED_EDGE ( 'NONE', *, *, #64, .T. ) ;
#252 =( CONVERSION_BASED_UNIT ( 'INCH', #308 ) LENGTH_UNIT ( ) NAMED_UNIT ( #57 ) );
#253 = CARTESIAN_POINT ( 'NONE',  ( 0.000000000000000000, 0.000000000000000000, 0.000000000000000000 ) ) ;
#254 = EDGE_CURVE ( 'NONE', #198, #119, #7, .T. ) ;
#255 = SURFACE_SIDE_STYLE ('',( #55 ) ) ;
#256 = EDGE_LOOP ( 'NONE', ( #227, #248, #251, #297 ) ) ;
#257 = MANIFOLD_SOLID_BREP ( 'Revolve - Cutting Edge', #184 ) ;
#258 = PRESENTATION_STYLE_ASSIGNMENT (( #131 ) ) ;
#259 = CARTESIAN_POINT ( 'NONE',  ( -0.09375000000000013878, 3.000000000000000444, 0.000000000000000000 ) ) ;
#260 = AXIS2_PLACEMENT_3D ( 'NONE', #169, #284, #160 ) ;
#261 = EDGE_CURVE ( 'NONE', #212, #202, #102, .T. ) ;
#262 = COLOUR_RGB ( '',0.7921568627450980005, 0.8196078431372548767, 0.9333333333333333481 ) ;
#263 = SURFACE_STYLE_FILL_AREA ( #200 ) ;
#264 = SURFACE_SIDE_STYLE ('',( #270 ) ) ;
#265 = DIRECTION ( 'NONE',  ( 0.000000000000000000, 0.000000000000000000, -1.000000000000000000 ) ) ;
#266 = DIRECTION ( 'NONE',  ( 0.000000000000000000, 0.000000000000000000, -1.000000000000000000 ) ) ;
#267 = CARTESIAN_POINT ( 'NONE',  ( 0.000000000000000000, 0.000000000000000000, -0.09375000000000001388 ) ) ;
#268 = DIRECTION ( 'NONE',  ( 3.768143997376474441E-17, -1.000000000000000000, 0.000000000000000000 ) ) ;
#269 = ORIENTED_EDGE ( 'NONE', *, *, #64, .F. ) ;
#270 = SURFACE_STYLE_FILL_AREA ( #61 ) ;
#271 = EDGE_CURVE ( 'NONE', #2, #238, #8, .T. ) ;
#272 = ORIENTED_EDGE ( 'NONE', *, *, #261, .F. ) ;
#273 = CLOSED_SHELL ( 'NONE', ( #298, #74, #277, #305 ) ) ;
#274 = AXIS2_PLACEMENT_3D ( 'NONE', #245, #301, #303 ) ;
#275 =( NAMED_UNIT ( * ) SI_UNIT ( $, .STERADIAN. ) SOLID_ANGLE_UNIT ( ) );
#276 =( LENGTH_UNIT ( ) NAMED_UNIT ( * ) SI_UNIT ( $, .METRE. ) );
#277 = ADVANCED_FACE ( 'NONE', ( #38 ), #210, .T. ) ;
#278 = MECHANICAL_DESIGN_GEOMETRIC_PRESENTATION_REPRESENTATION (  '', ( #27 ), #309 ) ;
#279 = ORIENTED_EDGE ( 'NONE', *, *, #217, .T. ) ;
#280 = EDGE_CURVE ( 'NONE', #119, #198, #118, .T. ) ;
#281 = MECHANICAL_DESIGN_GEOMETRIC_PRESENTATION_REPRESENTATION (  '', ( #237 ), #152 ) ;
#282 =( GEOMETRIC_REPRESENTATION_CONTEXT ( 3 ) GLOBAL_UNCERTAINTY_ASSIGNED_CONTEXT ( ( #146 ) ) GLOBAL_UNIT_ASSIGNED_CONTEXT ( ( #236, #85, #283 ) ) REPRESENTATION_CONTEXT ( 'NONE', 'WORKASPACE' ) );
#283 =( NAMED_UNIT ( * ) SI_UNIT ( $, .STERADIAN. ) SOLID_ANGLE_UNIT ( ) );
#284 = DIRECTION ( 'NONE',  ( -0.000000000000000000, -1.000000000000000000, -0.000000000000000000 ) ) ;
#285 = STYLED_ITEM ( 'NONE', ( #140 ), #37 ) ;
#286 = DIRECTION ( 'NONE',  ( -0.000000000000000000, -1.000000000000000000, -0.000000000000000000 ) ) ;
#287 = SURFACE_SIDE_STYLE ('',( #224 ) ) ;
#288 = DIRECTION ( 'NONE',  ( -3.768143997376474441E-17, 1.000000000000000000, 0.000000000000000000 ) ) ;
#289 =( CONVERSION_BASED_UNIT ( 'INCH', #172 ) LENGTH_UNIT ( ) NAMED_UNIT ( #106 ) );
#290 = PRESENTATION_STYLE_ASSIGNMENT (( #116 ) ) ;
#291 =( NAMED_UNIT ( * ) SI_UNIT ( $, .STERADIAN. ) SOLID_ANGLE_UNIT ( ) );
#292 = PRODUCT_RELATED_PRODUCT_CATEGORY ( 'part', '', ( #213 ) ) ;
#293 = ORIENTED_EDGE ( 'NONE', *, *, #130, .T. ) ;
#294 = DIRECTION ( 'NONE',  ( -1.000000000000000000, 0.000000000000000000, 0.000000000000000000 ) ) ;
#295 =( LENGTH_UNIT ( ) NAMED_UNIT ( * ) SI_UNIT ( $, .METRE. ) );
#296 = STYLED_ITEM ( 'NONE', ( #231 ), #220 ) ;
#297 = ORIENTED_EDGE ( 'NONE', *, *, #161, .F. ) ;
#298 = ADVANCED_FACE ( 'NONE', ( #219 ), #240, .T. ) ;
#299 = FACE_OUTER_BOUND ( 'NONE', #95, .T. ) ;
#300 = SHAPE_DEFINITION_REPRESENTATION ( #229, #244 ) ;
#301 = DIRECTION ( 'NONE',  ( 0.000000000000000000, -1.000000000000000000, -0.000000000000000000 ) ) ;
#302 = PRESENTATION_LAYER_ASSIGNMENT (  '', '', ( #285 ) ) ;
#303 = DIRECTION ( 'NONE',  ( 0.000000000000000000, 0.000000000000000000, -1.000000000000000000 ) ) ;
#304 = CARTESIAN_POINT ( 'NONE',  ( 0.000000000000000000, 1.375000000000000000, 0.000000000000000000 ) ) ;
#305 = ADVANCED_FACE ( 'NONE', ( #306 ), #144, .F. ) ;
#306 = FACE_OUTER_BOUND ( 'NONE', #171, .T. ) ;
#307 = DIRECTION ( 'NONE',  ( -0.000000000000000000, -1.000000000000000000, -0.000000000000000000 ) ) ;
#308 = LENGTH_MEASURE_WITH_UNIT ( LENGTH_MEASURE( 0.02539999999999999897 ), #276 );
#309 =( GEOMETRIC_REPRESENTATION_CONTEXT ( 3 ) GLOBAL_UNCERTAINTY_ASSIGNED_CONTEXT ( ( #53 ) ) GLOBAL_UNIT_ASSIGNED_CONTEXT ( ( #289, #206, #113 ) ) REPRESENTATION_CONTEXT ( 'NONE', 'WORKASPACE' ) );
ENDSEC;
END-ISO-10303-21;
