ISO-10303-21;
HEADER;
FILE_DESCRIPTION (( 'STEP AP214' ),
    '1' );
FILE_NAME ('81842.STEP',
    '2023-06-23T03:29:33',
    ( '' ),
    ( '' ),
    'SwSTEP 2.0',
    'SolidWorks 2023',
    '' );
FILE_SCHEMA (( 'AUTOMOTIVE_DESIGN' ));
ENDSEC;

DATA;
#1 = FILL_AREA_STYLE ('',( #129 ) ) ;
#2 = CARTESIAN_POINT ( 'NONE',  ( 0.000000000000000000, 1.000000000000000000, 0.000000000000000000 ) ) ;
#3 = LENGTH_MEASURE_WITH_UNIT ( LENGTH_MEASURE( 0.02539999999999999897 ), #124 );
#4 = SURFACE_SIDE_STYLE ('',( #24 ) ) ;
#5 = FILL_AREA_STYLE_COLOUR ( '', #143 ) ;
#6 = DIRECTION ( 'NONE',  ( -1.000000000000000000, 0.000000000000000000, 0.000000000000000000 ) ) ;
#7 = MECHANICAL_DESIGN_GEOMETRIC_PRESENTATION_REPRESENTATION (  '', ( #121 ), #52 ) ;
#8 = CARTESIAN_POINT ( 'NONE',  ( 0.000000000000000000, 0.000000000000000000, 0.000000000000000000 ) ) ;
#9 = SHAPE_DEFINITION_REPRESENTATION ( #191, #245 ) ;
#10 = CARTESIAN_POINT ( 'NONE',  ( 0.1250000000000000278, 1.000000000000000000, 1.530808498934192125E-17 ) ) ;
#11 = APPLICATION_CONTEXT ( 'automotive_design' ) ;
#12 = ORIENTED_EDGE ( 'NONE', *, *, #106, .T. ) ;
#13 = AXIS2_PLACEMENT_3D ( 'NONE', #30, #155, #6 ) ;
#14 = FACE_OUTER_BOUND ( 'NONE', #141, .T. ) ;
#15 = EDGE_LOOP ( 'NONE', ( #212, #56, #300, #254 ) ) ;
#16 =( CONVERSION_BASED_UNIT ( 'INCH', #277 ) LENGTH_UNIT ( ) NAMED_UNIT ( #256 ) );
#17 = VECTOR ( 'NONE', #133, 39.37007874015748143 ) ;
#18 = CARTESIAN_POINT ( 'NONE',  ( 1.530808498934191509E-17, 0.000000000000000000, 0.1250000000000000000 ) ) ;
#19 = ADVANCED_FACE ( 'NONE', ( #14 ), #120, .T. ) ;
#20 = SURFACE_STYLE_FILL_AREA ( #261 ) ;
#21 = FILL_AREA_STYLE_COLOUR ( '', #27 ) ;
#22 = SURFACE_STYLE_FILL_AREA ( #1 ) ;
#23 = FACE_OUTER_BOUND ( 'NONE', #91, .T. ) ;
#24 = SURFACE_STYLE_FILL_AREA ( #259 ) ;
#25 = DIRECTION ( 'NONE',  ( -1.000000000000000000, 0.000000000000000000, 0.000000000000000000 ) ) ;
#26 = PRODUCT_DEFINITION ( 'UNKNOWN', '', #28, #234 ) ;
#27 = COLOUR_RGB ( '',1.000000000000000000, 0.000000000000000000, 0.000000000000000000 ) ;
#28 = PRODUCT_DEFINITION_FORMATION_WITH_SPECIFIED_SOURCE ( 'ANY', '', #108, .NOT_KNOWN. ) ;
#29 = DIRECTION ( 'NONE',  ( -1.000000000000000000, 0.000000000000000000, 0.000000000000000000 ) ) ;
#30 = CARTESIAN_POINT ( 'NONE',  ( -6.123233995736772199E-17, 3.000000000000000444, 0.000000000000000000 ) ) ;
#31 = SURFACE_STYLE_FILL_AREA ( #176 ) ;
#32 =( NAMED_UNIT ( * ) SI_UNIT ( $, .STERADIAN. ) SOLID_ANGLE_UNIT ( ) );
#33 = COLOUR_RGB ( '',1.000000000000000000, 0.000000000000000000, 0.000000000000000000 ) ;
#34 = AXIS2_PLACEMENT_3D ( 'NONE', #293, #301, #36 ) ;
#35 = ORIENTED_EDGE ( 'NONE', *, *, #274, .T. ) ;
#36 = DIRECTION ( 'NONE',  ( -1.000000000000000000, 0.000000000000000000, 0.000000000000000000 ) ) ;
#37 = ORIENTED_EDGE ( 'NONE', *, *, #241, .T. ) ;
#38 = STYLED_ITEM ( 'NONE', ( #47 ), #213 ) ;
#39 = DIMENSIONAL_EXPONENTS ( 1.000000000000000000, 0.000000000000000000, 0.000000000000000000, 0.000000000000000000, 0.000000000000000000, 0.000000000000000000, 0.000000000000000000 ) ;
#40 = SURFACE_STYLE_USAGE ( .BOTH. , #182 ) ;
#41 = AXIS2_PLACEMENT_3D ( 'NONE', #2, #218, #263 ) ;
#42 =( GEOMETRIC_REPRESENTATION_CONTEXT ( 3 ) GLOBAL_UNCERTAINTY_ASSIGNED_CONTEXT ( ( #179 ) ) GLOBAL_UNIT_ASSIGNED_CONTEXT ( ( #105, #132, #32 ) ) REPRESENTATION_CONTEXT ( 'NONE', 'WORKASPACE' ) );
#43 = APPLICATION_CONTEXT ( 'automotive_design' ) ;
#44 = CARTESIAN_POINT ( 'NONE',  ( -0.1250000000000001388, 3.000000000000000444, 0.000000000000000000 ) ) ;
#45 = SURFACE_STYLE_USAGE ( .BOTH. , #4 ) ;
#46 = MECHANICAL_DESIGN_GEOMETRIC_PRESENTATION_REPRESENTATION (  '', ( #139 ), #102 ) ;
#47 = PRESENTATION_STYLE_ASSIGNMENT (( #233 ) ) ;
#48 = SURFACE_SIDE_STYLE ('',( #95 ) ) ;
#49 = DIRECTION ( 'NONE',  ( -0.000000000000000000, -1.000000000000000000, -0.000000000000000000 ) ) ;
#50 =( NAMED_UNIT ( * ) PLANE_ANGLE_UNIT ( ) SI_UNIT ( $, .RADIAN. ) );
#51 = PRESENTATION_STYLE_ASSIGNMENT (( #55 ) ) ;
#52 =( GEOMETRIC_REPRESENTATION_CONTEXT ( 3 ) GLOBAL_UNCERTAINTY_ASSIGNED_CONTEXT ( ( #262 ) ) GLOBAL_UNIT_ASSIGNED_CONTEXT ( ( #193, #169, #125 ) ) REPRESENTATION_CONTEXT ( 'NONE', 'WORKASPACE' ) );
#53 =( LENGTH_UNIT ( ) NAMED_UNIT ( * ) SI_UNIT ( $, .METRE. ) );
#54 =( GEOMETRIC_REPRESENTATION_CONTEXT ( 3 ) GLOBAL_UNCERTAINTY_ASSIGNED_CONTEXT ( ( #114 ) ) GLOBAL_UNIT_ASSIGNED_CONTEXT ( ( #237, #71, #83 ) ) REPRESENTATION_CONTEXT ( 'NONE', 'WORKASPACE' ) );
#55 = SURFACE_STYLE_USAGE ( .BOTH. , #266 ) ;
#56 = ORIENTED_EDGE ( 'NONE', *, *, #203, .T. ) ;
#57 = CARTESIAN_POINT ( 'NONE',  ( -0.1250000000000000000, 1.000000000000000000, 0.000000000000000000 ) ) ;
#58 = STYLED_ITEM ( 'NONE', ( #51 ), #128 ) ;
#59 = ORIENTED_EDGE ( 'NONE', *, *, #65, .T. ) ;
#60 =( NAMED_UNIT ( * ) PLANE_ANGLE_UNIT ( ) SI_UNIT ( $, .RADIAN. ) );
#61 = STYLED_ITEM ( 'NONE', ( #165 ), #85 ) ;
#62 = CIRCLE ( 'NONE', #135, 0.1250000000000000000 ) ;
#63 = ORIENTED_EDGE ( 'NONE', *, *, #89, .T. ) ;
#64 = ORIENTED_EDGE ( 'NONE', *, *, #196, .T. ) ;
#65 = EDGE_CURVE ( 'NONE', #267, #153, #275, .T. ) ;
#66 =( LENGTH_UNIT ( ) NAMED_UNIT ( * ) SI_UNIT ( $, .METRE. ) );
#67 = MECHANICAL_DESIGN_GEOMETRIC_PRESENTATION_REPRESENTATION (  '', ( #61 ), #307 ) ;
#68 = MECHANICAL_DESIGN_GEOMETRIC_PRESENTATION_REPRESENTATION (  '', ( #58 ), #188 ) ;
#69 = DIRECTION ( 'NONE',  ( -1.000000000000000000, 0.000000000000000000, 0.000000000000000000 ) ) ;
#70 = LENGTH_MEASURE_WITH_UNIT ( LENGTH_MEASURE( 0.02539999999999999897 ), #290 );
#71 =( NAMED_UNIT ( * ) PLANE_ANGLE_UNIT ( ) SI_UNIT ( $, .RADIAN. ) );
#72 = CLOSED_SHELL ( 'NONE', ( #278, #74, #229, #78 ) ) ;
#73 =( GEOMETRIC_REPRESENTATION_CONTEXT ( 3 ) GLOBAL_UNCERTAINTY_ASSIGNED_CONTEXT ( ( #164 ) ) GLOBAL_UNIT_ASSIGNED_CONTEXT ( ( #286, #240, #217 ) ) REPRESENTATION_CONTEXT ( 'NONE', 'WORKASPACE' ) );
#74 = ADVANCED_FACE ( 'NONE', ( #230 ), #205, .F. ) ;
#75 = SURFACE_STYLE_USAGE ( .BOTH. , #239 ) ;
#76 = DIRECTION ( 'NONE',  ( -3.061616997868386099E-17, 1.000000000000000000, -0.000000000000000000 ) ) ;
#77 = LINE ( 'NONE', #291, #166 ) ;
#78 = ADVANCED_FACE ( 'NONE', ( #280 ), #255, .F. ) ;
#79 = EDGE_LOOP ( 'NONE', ( #158, #251 ) ) ;
#80 = AXIS2_PLACEMENT_3D ( 'NONE', #222, #175, #220 ) ;
#81 = VERTEX_POINT ( 'NONE', #10 ) ;
#82 = DIRECTION ( 'NONE',  ( -0.000000000000000000, -1.000000000000000000, -0.000000000000000000 ) ) ;
#83 =( NAMED_UNIT ( * ) SI_UNIT ( $, .STERADIAN. ) SOLID_ANGLE_UNIT ( ) );
#84 = CYLINDRICAL_SURFACE ( 'NONE', #13, 0.1250000000000000278 ) ;
#85 = ADVANCED_FACE ( 'NONE', ( #149 ), #258, .T. ) ;
#86 = EDGE_LOOP ( 'NONE', ( #113, #63 ) ) ;
#87 = PRESENTATION_STYLE_ASSIGNMENT (( #40 ) ) ;
#88 = EDGE_LOOP ( 'NONE', ( #104, #228 ) ) ;
#89 = EDGE_CURVE ( 'NONE', #252, #116, #110, .T. ) ;
#90 = VECTOR ( 'NONE', #147, 39.37007874015748143 ) ;
#91 = EDGE_LOOP ( 'NONE', ( #226, #12, #185, #156 ) ) ;
#92 = DIRECTION ( 'NONE',  ( -0.000000000000000000, -1.000000000000000000, -0.000000000000000000 ) ) ;
#93 = EDGE_CURVE ( 'NONE', #248, #231, #148, .T. ) ;
#94 = UNCERTAINTY_MEASURE_WITH_UNIT (LENGTH_MEASURE( 1.000000000000000082E-05 ), #16, 'distance_accuracy_value', 'NONE');
#95 = SURFACE_STYLE_FILL_AREA ( #127 ) ;
#96 = AXIS2_PLACEMENT_3D ( 'NONE', #292, #112, #29 ) ;
#97 = COLOUR_RGB ( '',0.7921568627450980005, 0.8196078431372548767, 0.9333333333333333481 ) ;
#98 =( NAMED_UNIT ( * ) PLANE_ANGLE_UNIT ( ) SI_UNIT ( $, .RADIAN. ) );
#99 = SURFACE_SIDE_STYLE ('',( #20 ) ) ;
#100 = FILL_AREA_STYLE_COLOUR ( '', #140 ) ;
#101 = LENGTH_MEASURE_WITH_UNIT ( LENGTH_MEASURE( 0.02539999999999999897 ), #66 );
#102 =( GEOMETRIC_REPRESENTATION_CONTEXT ( 3 ) GLOBAL_UNCERTAINTY_ASSIGNED_CONTEXT ( ( #94 ) ) GLOBAL_UNIT_ASSIGNED_CONTEXT ( ( #16, #60, #183 ) ) REPRESENTATION_CONTEXT ( 'NONE', 'WORKASPACE' ) );
#103 =( CONVERSION_BASED_UNIT ( 'INCH', #219 ) LENGTH_UNIT ( ) NAMED_UNIT ( #39 ) );
#104 = ORIENTED_EDGE ( 'NONE', *, *, #210, .F. ) ;
#105 =( CONVERSION_BASED_UNIT ( 'INCH', #109 ) LENGTH_UNIT ( ) NAMED_UNIT ( #190 ) );
#106 = EDGE_CURVE ( 'NONE', #248, #267, #194, .T. ) ;
#107 =( NAMED_UNIT ( * ) SI_UNIT ( $, .STERADIAN. ) SOLID_ANGLE_UNIT ( ) );
#108 = PRODUCT ( '81842', '81842', '', ( #136 ) ) ;
#109 = LENGTH_MEASURE_WITH_UNIT ( LENGTH_MEASURE( 0.02539999999999999897 ), #53 );
#110 = CIRCLE ( 'NONE', #279, 0.1250000000000000555 ) ;
#111 = CIRCLE ( 'NONE', #189, 0.1250000000000000000 ) ;
#112 = DIRECTION ( 'NONE',  ( -3.061616997868386099E-17, 1.000000000000000000, -0.000000000000000000 ) ) ;
#113 = ORIENTED_EDGE ( 'NONE', *, *, #144, .T. ) ;
#114 = UNCERTAINTY_MEASURE_WITH_UNIT (LENGTH_MEASURE( 1.000000000000000082E-05 ), #237, 'distance_accuracy_value', 'NONE');
#115 = CARTESIAN_POINT ( 'NONE',  ( 0.000000000000000000, 0.000000000000000000, 0.000000000000000000 ) ) ;
#116 = VERTEX_POINT ( 'NONE', #44 ) ;
#117 = MANIFOLD_SOLID_BREP ( 'Revolve - Cutting Edge', #253 ) ;
#118 = EDGE_CURVE ( 'NONE', #272, #81, #303, .T. ) ;
#119 = FILL_AREA_STYLE ('',( #207 ) ) ;
#120 = CYLINDRICAL_SURFACE ( 'NONE', #159, 0.1250000000000000000 ) ;
#121 = STYLED_ITEM ( 'NONE', ( #309 ), #117 ) ;
#122 = DIRECTION ( 'NONE',  ( -0.000000000000000000, -1.000000000000000000, -0.000000000000000000 ) ) ;
#123 = AXIS2_PLACEMENT_3D ( 'NONE', #8, #247, #157 ) ;
#124 =( LENGTH_UNIT ( ) NAMED_UNIT ( * ) SI_UNIT ( $, .METRE. ) );
#125 =( NAMED_UNIT ( * ) SI_UNIT ( $, .STERADIAN. ) SOLID_ANGLE_UNIT ( ) );
#126 = FILL_AREA_STYLE_COLOUR ( '', #97 ) ;
#127 = FILL_AREA_STYLE ('',( #21 ) ) ;
#128 = ADVANCED_FACE ( 'NONE', ( #167 ), #269, .T. ) ;
#129 = FILL_AREA_STYLE_COLOUR ( '', #249 ) ;
#130 = UNCERTAINTY_MEASURE_WITH_UNIT (LENGTH_MEASURE( 1.000000000000000082E-05 ), #146, 'distance_accuracy_value', 'NONE');
#131 = LINE ( 'NONE', #243, #181 ) ;
#132 =( NAMED_UNIT ( * ) PLANE_ANGLE_UNIT ( ) SI_UNIT ( $, .RADIAN. ) );
#133 = DIRECTION ( 'NONE',  ( -3.061616997868386099E-17, 1.000000000000000000, -0.000000000000000000 ) ) ;
#134 = AXIS2_PLACEMENT_3D ( 'NONE', #289, #284, #69 ) ;
#135 = AXIS2_PLACEMENT_3D ( 'NONE', #298, #271, #150 ) ;
#136 = PRODUCT_CONTEXT ( 'NONE', #43, 'mechanical' ) ;
#137 = DIRECTION ( 'NONE',  ( 1.000000000000000000, 3.061616997868386099E-17, 0.000000000000000000 ) ) ;
#138 = EDGE_LOOP ( 'NONE', ( #178, #64, #35, #305 ) ) ;
#139 = STYLED_ITEM ( 'NONE', ( #87 ), #19 ) ;
#140 = COLOUR_RGB ( '',1.000000000000000000, 0.000000000000000000, 0.000000000000000000 ) ;
#141 = EDGE_LOOP ( 'NONE', ( #296, #268, #37, #172 ) ) ;
#142 = ORIENTED_EDGE ( 'NONE', *, *, #174, .T. ) ;
#143 = COLOUR_RGB ( '',1.000000000000000000, 0.000000000000000000, 0.000000000000000000 ) ;
#144 = EDGE_CURVE ( 'NONE', #116, #252, #227, .T. ) ;
#145 = SURFACE_STYLE_USAGE ( .BOTH. , #48 ) ;
#146 =( CONVERSION_BASED_UNIT ( 'INCH', #101 ) LENGTH_UNIT ( ) NAMED_UNIT ( #282 ) );
#147 = DIRECTION ( 'NONE',  ( -0.000000000000000000, -1.000000000000000000, -0.000000000000000000 ) ) ;
#148 = CIRCLE ( 'NONE', #41, 0.1250000000000000000 ) ;
#149 = FACE_OUTER_BOUND ( 'NONE', #88, .T. ) ;
#150 = DIRECTION ( 'NONE',  ( 0.000000000000000000, 0.000000000000000000, -1.000000000000000000 ) ) ;
#151 = AXIS2_PLACEMENT_3D ( 'NONE', #198, #154, #223 ) ;
#152 = FACE_OUTER_BOUND ( 'NONE', #15, .T. ) ;
#153 = VERTEX_POINT ( 'NONE', #201 ) ;
#154 = DIRECTION ( 'NONE',  ( 0.000000000000000000, -1.000000000000000000, -0.000000000000000000 ) ) ;
#155 = DIRECTION ( 'NONE',  ( -3.061616997868386099E-17, 1.000000000000000000, -0.000000000000000000 ) ) ;
#156 = ORIENTED_EDGE ( 'NONE', *, *, #241, .F. ) ;
#157 = DIRECTION ( 'NONE',  ( 1.000000000000000000, 0.000000000000000000, 0.000000000000000000 ) ) ;
#158 = ORIENTED_EDGE ( 'NONE', *, *, #118, .F. ) ;
#159 = AXIS2_PLACEMENT_3D ( 'NONE', #115, #122, #209 ) ;
#160 = MECHANICAL_DESIGN_GEOMETRIC_PRESENTATION_REPRESENTATION (  '', ( #173 ), #54 ) ;
#161 = DIRECTION ( 'NONE',  ( 0.000000000000000000, 0.000000000000000000, -1.000000000000000000 ) ) ;
#162 = CARTESIAN_POINT ( 'NONE',  ( 0.1250000000000000000, 3.000000000000000444, 0.000000000000000000 ) ) ;
#163 = PRESENTATION_LAYER_ASSIGNMENT (  '', '', ( #58 ) ) ;
#164 = UNCERTAINTY_MEASURE_WITH_UNIT (LENGTH_MEASURE( 1.000000000000000082E-05 ), #286, 'distance_accuracy_value', 'NONE');
#165 = PRESENTATION_STYLE_ASSIGNMENT (( #145 ) ) ;
#166 = VECTOR ( 'NONE', #82, 39.37007874015748143 ) ;
#167 = FACE_OUTER_BOUND ( 'NONE', #199, .T. ) ;
#168 = CARTESIAN_POINT ( 'NONE',  ( 0.000000000000000000, 1.000000000000000000, 0.000000000000000000 ) ) ;
#169 =( NAMED_UNIT ( * ) PLANE_ANGLE_UNIT ( ) SI_UNIT ( $, .RADIAN. ) );
#170 = AXIS2_PLACEMENT_3D ( 'NONE', #281, #306, #184 ) ;
#171 = PRESENTATION_STYLE_ASSIGNMENT (( #45 ) ) ;
#172 = ORIENTED_EDGE ( 'NONE', *, *, #65, .F. ) ;
#173 = STYLED_ITEM ( 'NONE', ( #171 ), #221 ) ;
#174 = EDGE_CURVE ( 'NONE', #153, #267, #62, .T. ) ;
#175 = DIRECTION ( 'NONE',  ( -0.000000000000000000, -1.000000000000000000, -0.000000000000000000 ) ) ;
#176 = FILL_AREA_STYLE ('',( #5 ) ) ;
#177 = CARTESIAN_POINT ( 'NONE',  ( 0.1250000000000000278, 3.000000000000000444, 1.530808498934192125E-17 ) ) ;
#178 = ORIENTED_EDGE ( 'NONE', *, *, #203, .F. ) ;
#179 = UNCERTAINTY_MEASURE_WITH_UNIT (LENGTH_MEASURE( 1.000000000000000082E-05 ), #105, 'distance_accuracy_value', 'NONE');
#180 = AXIS2_PLACEMENT_3D ( 'NONE', #168, #242, #236 ) ;
#181 = VECTOR ( 'NONE', #235, 39.37007874015748143 ) ;
#182 = SURFACE_SIDE_STYLE ('',( #208 ) ) ;
#183 =( NAMED_UNIT ( * ) SI_UNIT ( $, .STERADIAN. ) SOLID_ANGLE_UNIT ( ) );
#184 = DIRECTION ( 'NONE',  ( -1.000000000000000000, -3.061616997868386099E-17, 0.000000000000000000 ) ) ;
#185 = ORIENTED_EDGE ( 'NONE', *, *, #174, .F. ) ;
#186 = DIMENSIONAL_EXPONENTS ( 1.000000000000000000, 0.000000000000000000, 0.000000000000000000, 0.000000000000000000, 0.000000000000000000, 0.000000000000000000, 0.000000000000000000 ) ;
#187 = CYLINDRICAL_SURFACE ( 'NONE', #80, 0.1250000000000000000 ) ;
#188 =( GEOMETRIC_REPRESENTATION_CONTEXT ( 3 ) GLOBAL_UNCERTAINTY_ASSIGNED_CONTEXT ( ( #206 ) ) GLOBAL_UNIT_ASSIGNED_CONTEXT ( ( #103, #50, #107 ) ) REPRESENTATION_CONTEXT ( 'NONE', 'WORKASPACE' ) );
#189 = AXIS2_PLACEMENT_3D ( 'NONE', #197, #49, #288 ) ;
#190 = DIMENSIONAL_EXPONENTS ( 1.000000000000000000, 0.000000000000000000, 0.000000000000000000, 0.000000000000000000, 0.000000000000000000, 0.000000000000000000, 0.000000000000000000 ) ;
#191 = PRODUCT_DEFINITION_SHAPE ( 'NONE', 'NONE',  #26 ) ;
#192 = DIMENSIONAL_EXPONENTS ( 1.000000000000000000, 0.000000000000000000, 0.000000000000000000, 0.000000000000000000, 0.000000000000000000, 0.000000000000000000, 0.000000000000000000 ) ;
#193 =( CONVERSION_BASED_UNIT ( 'INCH', #3 ) LENGTH_UNIT ( ) NAMED_UNIT ( #186 ) );
#194 = LINE ( 'NONE', #18, #90 ) ;
#195 = PRESENTATION_LAYER_ASSIGNMENT (  '', '', ( #121 ) ) ;
#196 = EDGE_CURVE ( 'NONE', #81, #272, #283, .T. ) ;
#197 = CARTESIAN_POINT ( 'NONE',  ( 0.000000000000000000, 1.000000000000000000, 0.000000000000000000 ) ) ;
#198 = CARTESIAN_POINT ( 'NONE',  ( 0.000000000000000000, 0.000000000000000000, 0.000000000000000000 ) ) ;
#199 = EDGE_LOOP ( 'NONE', ( #142, #59 ) ) ;
#200 = AXIS2_PLACEMENT_3D ( 'NONE', #162, #257, #137 ) ;
#201 = CARTESIAN_POINT ( 'NONE',  ( 0.000000000000000000, 0.000000000000000000, -0.1250000000000000000 ) ) ;
#202 = APPLICATION_PROTOCOL_DEFINITION ( 'draft international standard', 'automotive_design', 1998, #43 ) ;
#203 = EDGE_CURVE ( 'NONE', #81, #252, #131, .T. ) ;
#204 = CARTESIAN_POINT ( 'NONE',  ( 1.530808498934191509E-17, 0.000000000000000000, 0.1250000000000000000 ) ) ;
#205 = PLANE ( 'NONE',  #170 ) ;
#206 = UNCERTAINTY_MEASURE_WITH_UNIT (LENGTH_MEASURE( 1.000000000000000082E-05 ), #103, 'distance_accuracy_value', 'NONE');
#207 = FILL_AREA_STYLE_COLOUR ( '', #33 ) ;
#208 = SURFACE_STYLE_FILL_AREA ( #119 ) ;
#209 = DIRECTION ( 'NONE',  ( 0.000000000000000000, 0.000000000000000000, -1.000000000000000000 ) ) ;
#210 = EDGE_CURVE ( 'NONE', #231, #248, #111, .T. ) ;
#211 = MECHANICAL_DESIGN_GEOMETRIC_PRESENTATION_REPRESENTATION (  '', ( #38 ), #73 ) ;
#212 = ORIENTED_EDGE ( 'NONE', *, *, #118, .T. ) ;
#213 = MANIFOLD_SOLID_BREP ( 'Revolve - Tool Body (Straight Shanked)', #72 ) ;
#214 = DIMENSIONAL_EXPONENTS ( 1.000000000000000000, 0.000000000000000000, 0.000000000000000000, 0.000000000000000000, 0.000000000000000000, 0.000000000000000000, 0.000000000000000000 ) ;
#215 = LENGTH_MEASURE_WITH_UNIT ( LENGTH_MEASURE( 0.02539999999999999897 ), #265 );
#216 = DIRECTION ( 'NONE',  ( -3.061616997868386099E-17, 1.000000000000000000, -0.000000000000000000 ) ) ;
#217 =( NAMED_UNIT ( * ) SI_UNIT ( $, .STERADIAN. ) SOLID_ANGLE_UNIT ( ) );
#218 = DIRECTION ( 'NONE',  ( -0.000000000000000000, -1.000000000000000000, -0.000000000000000000 ) ) ;
#219 = LENGTH_MEASURE_WITH_UNIT ( LENGTH_MEASURE( 0.02539999999999999897 ), #264 );
#220 = DIRECTION ( 'NONE',  ( 0.000000000000000000, 0.000000000000000000, -1.000000000000000000 ) ) ;
#221 = ADVANCED_FACE ( 'NONE', ( #23 ), #187, .T. ) ;
#222 = CARTESIAN_POINT ( 'NONE',  ( 0.000000000000000000, 0.000000000000000000, 0.000000000000000000 ) ) ;
#223 = DIRECTION ( 'NONE',  ( 0.000000000000000000, 0.000000000000000000, -1.000000000000000000 ) ) ;
#224 = PRESENTATION_LAYER_ASSIGNMENT (  '', '', ( #173 ) ) ;
#225 = APPLICATION_PROTOCOL_DEFINITION ( 'draft international standard', 'automotive_design', 1998, #11 ) ;
#226 = ORIENTED_EDGE ( 'NONE', *, *, #210, .T. ) ;
#227 = CIRCLE ( 'NONE', #96, 0.1250000000000000555 ) ;
#228 = ORIENTED_EDGE ( 'NONE', *, *, #93, .F. ) ;
#229 = ADVANCED_FACE ( 'NONE', ( #276 ), #299, .T. ) ;
#230 = FACE_OUTER_BOUND ( 'NONE', #79, .T. ) ;
#231 = VERTEX_POINT ( 'NONE', #270 ) ;
#232 = AXIS2_PLACEMENT_3D ( 'NONE', #308, #92, #161 ) ;
#233 = SURFACE_STYLE_USAGE ( .BOTH. , #99 ) ;
#234 = PRODUCT_DEFINITION_CONTEXT ( 'detailed design', #11, 'design' ) ;
#235 = DIRECTION ( 'NONE',  ( -3.061616997868386099E-17, 1.000000000000000000, -0.000000000000000000 ) ) ;
#236 = DIRECTION ( 'NONE',  ( 0.000000000000000000, -0.000000000000000000, 1.000000000000000000 ) ) ;
#237 =( CONVERSION_BASED_UNIT ( 'INCH', #215 ) LENGTH_UNIT ( ) NAMED_UNIT ( #214 ) );
#238 = PRESENTATION_LAYER_ASSIGNMENT (  '', '', ( #61 ) ) ;
#239 = SURFACE_SIDE_STYLE ('',( #22 ) ) ;
#240 =( NAMED_UNIT ( * ) PLANE_ANGLE_UNIT ( ) SI_UNIT ( $, .RADIAN. ) );
#241 = EDGE_CURVE ( 'NONE', #231, #153, #77, .T. ) ;
#242 = DIRECTION ( 'NONE',  ( 0.000000000000000000, 1.000000000000000000, 0.000000000000000000 ) ) ;
#243 = CARTESIAN_POINT ( 'NONE',  ( 0.1249999999999999584, 3.000000000000000444, 1.530808498934191817E-17 ) ) ;
#244 = CARTESIAN_POINT ( 'NONE',  ( 7.582401355855259480E-33, 1.000000000000000000, 0.000000000000000000 ) ) ;
#245 = ADVANCED_BREP_SHAPE_REPRESENTATION ( '81842', ( #117, #213, #123 ), #42 ) ;
#246 = CARTESIAN_POINT ( 'NONE',  ( 1.530808498934191509E-17, 1.000000000000000000, 0.1250000000000000000 ) ) ;
#247 = DIRECTION ( 'NONE',  ( 0.000000000000000000, 0.000000000000000000, 1.000000000000000000 ) ) ;
#248 = VERTEX_POINT ( 'NONE', #246 ) ;
#249 = COLOUR_RGB ( '',0.7921568627450980005, 0.8196078431372548767, 0.9333333333333333481 ) ;
#250 = AXIS2_PLACEMENT_3D ( 'NONE', #244, #76, #25 ) ;
#251 = ORIENTED_EDGE ( 'NONE', *, *, #196, .F. ) ;
#252 = VERTEX_POINT ( 'NONE', #177 ) ;
#253 = CLOSED_SHELL ( 'NONE', ( #221, #85, #19, #128 ) ) ;
#254 = ORIENTED_EDGE ( 'NONE', *, *, #274, .F. ) ;
#255 = PLANE ( 'NONE',  #200 ) ;
#256 = DIMENSIONAL_EXPONENTS ( 1.000000000000000000, 0.000000000000000000, 0.000000000000000000, 0.000000000000000000, 0.000000000000000000, 0.000000000000000000, 0.000000000000000000 ) ;
#257 = DIRECTION ( 'NONE',  ( 3.061616997868386099E-17, -1.000000000000000000, 0.000000000000000000 ) ) ;
#258 = PLANE ( 'NONE',  #180 ) ;
#259 = FILL_AREA_STYLE ('',( #100 ) ) ;
#260 =( NAMED_UNIT ( * ) SI_UNIT ( $, .STERADIAN. ) SOLID_ANGLE_UNIT ( ) );
#261 = FILL_AREA_STYLE ('',( #126 ) ) ;
#262 = UNCERTAINTY_MEASURE_WITH_UNIT (LENGTH_MEASURE( 1.000000000000000082E-05 ), #193, 'distance_accuracy_value', 'NONE');
#263 = DIRECTION ( 'NONE',  ( 0.000000000000000000, 0.000000000000000000, -1.000000000000000000 ) ) ;
#264 =( LENGTH_UNIT ( ) NAMED_UNIT ( * ) SI_UNIT ( $, .METRE. ) );
#265 =( LENGTH_UNIT ( ) NAMED_UNIT ( * ) SI_UNIT ( $, .METRE. ) );
#266 = SURFACE_SIDE_STYLE ('',( #31 ) ) ;
#267 = VERTEX_POINT ( 'NONE', #204 ) ;
#268 = ORIENTED_EDGE ( 'NONE', *, *, #93, .T. ) ;
#269 = PLANE ( 'NONE',  #151 ) ;
#270 = CARTESIAN_POINT ( 'NONE',  ( 0.000000000000000000, 1.000000000000000000, -0.1250000000000000000 ) ) ;
#271 = DIRECTION ( 'NONE',  ( -0.000000000000000000, -1.000000000000000000, -0.000000000000000000 ) ) ;
#272 = VERTEX_POINT ( 'NONE', #57 ) ;
#273 = CARTESIAN_POINT ( 'NONE',  ( -0.1250000000000001110, 3.000000000000000444, 0.000000000000000000 ) ) ;
#274 = EDGE_CURVE ( 'NONE', #272, #116, #297, .T. ) ;
#275 = CIRCLE ( 'NONE', #232, 0.1250000000000000000 ) ;
#276 = FACE_OUTER_BOUND ( 'NONE', #138, .T. ) ;
#277 = LENGTH_MEASURE_WITH_UNIT ( LENGTH_MEASURE( 0.02539999999999999897 ), #302 );
#278 = ADVANCED_FACE ( 'NONE', ( #152 ), #84, .T. ) ;
#279 = AXIS2_PLACEMENT_3D ( 'NONE', #285, #216, #287 ) ;
#280 = FACE_OUTER_BOUND ( 'NONE', #86, .T. ) ;
#281 = CARTESIAN_POINT ( 'NONE',  ( 5.858436651022893041E-35, 1.000000000000000000, 0.000000000000000000 ) ) ;
#282 = DIMENSIONAL_EXPONENTS ( 1.000000000000000000, 0.000000000000000000, 0.000000000000000000, 0.000000000000000000, 0.000000000000000000, 0.000000000000000000, 0.000000000000000000 ) ;
#283 = CIRCLE ( 'NONE', #250, 0.1250000000000000000 ) ;
#284 = DIRECTION ( 'NONE',  ( -3.061616997868386099E-17, 1.000000000000000000, -0.000000000000000000 ) ) ;
#285 = CARTESIAN_POINT ( 'NONE',  ( -6.123233995736772199E-17, 3.000000000000000444, 0.000000000000000000 ) ) ;
#286 =( CONVERSION_BASED_UNIT ( 'INCH', #70 ) LENGTH_UNIT ( ) NAMED_UNIT ( #192 ) );
#287 = DIRECTION ( 'NONE',  ( -1.000000000000000000, 0.000000000000000000, 0.000000000000000000 ) ) ;
#288 = DIRECTION ( 'NONE',  ( 0.000000000000000000, 0.000000000000000000, -1.000000000000000000 ) ) ;
#289 = CARTESIAN_POINT ( 'NONE',  ( 7.582401355855259480E-33, 1.000000000000000000, 0.000000000000000000 ) ) ;
#290 =( LENGTH_UNIT ( ) NAMED_UNIT ( * ) SI_UNIT ( $, .METRE. ) );
#291 = CARTESIAN_POINT ( 'NONE',  ( 0.000000000000000000, 0.000000000000000000, -0.1250000000000000000 ) ) ;
#292 = CARTESIAN_POINT ( 'NONE',  ( -6.123233995736772199E-17, 3.000000000000000444, 0.000000000000000000 ) ) ;
#293 = CARTESIAN_POINT ( 'NONE',  ( -6.123233995736772199E-17, 3.000000000000000444, 0.000000000000000000 ) ) ;
#294 = PRESENTATION_LAYER_ASSIGNMENT (  '', '', ( #139 ) ) ;
#295 = PRESENTATION_LAYER_ASSIGNMENT (  '', '', ( #38 ) ) ;
#296 = ORIENTED_EDGE ( 'NONE', *, *, #106, .F. ) ;
#297 = LINE ( 'NONE', #273, #17 ) ;
#298 = CARTESIAN_POINT ( 'NONE',  ( 0.000000000000000000, 0.000000000000000000, 0.000000000000000000 ) ) ;
#299 = CYLINDRICAL_SURFACE ( 'NONE', #34, 0.1250000000000000278 ) ;
#300 = ORIENTED_EDGE ( 'NONE', *, *, #144, .F. ) ;
#301 = DIRECTION ( 'NONE',  ( -3.061616997868386099E-17, 1.000000000000000000, -0.000000000000000000 ) ) ;
#302 =( LENGTH_UNIT ( ) NAMED_UNIT ( * ) SI_UNIT ( $, .METRE. ) );
#303 = CIRCLE ( 'NONE', #134, 0.1250000000000000000 ) ;
#304 = PRODUCT_RELATED_PRODUCT_CATEGORY ( 'part', '', ( #108 ) ) ;
#305 = ORIENTED_EDGE ( 'NONE', *, *, #89, .F. ) ;
#306 = DIRECTION ( 'NONE',  ( -3.061616997868386099E-17, 1.000000000000000000, 0.000000000000000000 ) ) ;
#307 =( GEOMETRIC_REPRESENTATION_CONTEXT ( 3 ) GLOBAL_UNCERTAINTY_ASSIGNED_CONTEXT ( ( #130 ) ) GLOBAL_UNIT_ASSIGNED_CONTEXT ( ( #146, #98, #260 ) ) REPRESENTATION_CONTEXT ( 'NONE', 'WORKASPACE' ) );
#308 = CARTESIAN_POINT ( 'NONE',  ( 0.000000000000000000, 0.000000000000000000, 0.000000000000000000 ) ) ;
#309 = PRESENTATION_STYLE_ASSIGNMENT (( #75 ) ) ;
ENDSEC;
END-ISO-10303-21;
