ISO-10303-21;
HEADER;
FILE_DESCRIPTION (( 'STEP AP214' ),
    '1' );
FILE_NAME ('Micro_CREM-080-250X.STEP',
    '2021-09-02T15:22:49',
    ( '' ),
    ( '' ),
    'SwSTEP 2.0',
    'SolidWorks 2020',
    '' );
FILE_SCHEMA (( 'AUTOMOTIVE_DESIGN' ));
ENDSEC;

DATA;
#1 = APPLICATION_CONTEXT ( 'automotive_design' ) ;
#2 = ORIENTED_EDGE ( 'NONE', *, *, #244, .F. ) ;
#3 = EDGE_CURVE ( 'NONE', #56, #16, #219, .T. ) ;
#4 = ORIENTED_EDGE ( 'NONE', *, *, #60, .F. ) ;
#5 = VECTOR ( 'NONE', #89, 39.37007874015748854 ) ;
#6 = DIRECTION ( 'NONE',  ( 0.0000000000000000000, 0.0000000000000000000, -1.000000000000000000 ) ) ;
#7 = EDGE_LOOP ( 'NONE', ( #31, #255 ) ) ;
#8 =( NAMED_UNIT ( * ) SI_UNIT ( $, .STERADIAN. ) SOLID_ANGLE_UNIT ( ) );
#9 = ORIENTED_EDGE ( 'NONE', *, *, #204, .T. ) ;
#10 =( NAMED_UNIT ( * ) SI_UNIT ( $, .STERADIAN. ) SOLID_ANGLE_UNIT ( ) );
#11 = DIRECTION ( 'NONE',  ( 0.0000000000000000000, 0.0000000000000000000, 1.000000000000000000 ) ) ;
#12 = ADVANCED_FACE ( 'NONE', ( #114, #317 ), #220, .T. ) ;
#13 = EDGE_LOOP ( 'NONE', ( #214, #226, #262, #9 ) ) ;
#14 = CIRCLE ( 'NONE', #23, 0.1424804999999990940 ) ;
#15 = CIRCLE ( 'NONE', #178, 0.1574804999999999955 ) ;
#16 = VERTEX_POINT ( 'NONE', #191 ) ;
#17 = CARTESIAN_POINT ( 'NONE',  ( 0.1279489832375813041, 1.566923127760622777E-17, 0.1035429987917526884 ) ) ;
#18 = ADVANCED_FACE ( 'NONE', ( #150 ), #42, .T. ) ;
#19 = DIRECTION ( 'NONE',  ( -1.210145411504777164E-16, -0.0000000000000000000, -1.000000000000000000 ) ) ;
#20 = PRODUCT_DEFINITION_FORMATION_WITH_SPECIFIED_SOURCE ( 'ANY', '', #199, .NOT_KNOWN. ) ;
#21 = DIRECTION ( 'NONE',  ( 0.0000000000000000000, 0.0000000000000000000, -1.000000000000000000 ) ) ;
#22 = CARTESIAN_POINT ( 'NONE',  ( 0.1574804999999999955, 1.928579902531247412E-17, 2.465314999999999923 ) ) ;
#23 = AXIS2_PLACEMENT_3D ( 'NONE', #65, #141, #263 ) ;
#24 = DIRECTION ( 'NONE',  ( 0.0000000000000000000, 0.0000000000000000000, -1.000000000000000000 ) ) ;
#25 = CARTESIAN_POINT ( 'NONE',  ( -0.02952398323758125345, 0.0000000000000000000, -1.938079311732800320E-18 ) ) ;
#26 = ORIENTED_EDGE ( 'NONE', *, *, #100, .F. ) ;
#27 = AXIS2_PLACEMENT_3D ( 'NONE', #310, #209, #161 ) ;
#28 = TOROIDAL_SURFACE ( 'NONE', #61, 0.1279489832375812486, 0.09842500000000001248 ) ;
#29 = ADVANCED_FACE ( 'NONE', ( #292 ), #229, .F. ) ;
#30 = SURFACE_STYLE_USAGE ( .BOTH. , #55 ) ;
#31 = ORIENTED_EDGE ( 'NONE', *, *, #299, .T. ) ;
#32 = ADVANCED_BREP_SHAPE_REPRESENTATION ( 'Micro_CREM-080-250X', ( #108, #238 ), #164 ) ;
#33 = CARTESIAN_POINT ( 'NONE',  ( 0.02952398323758127080, 3.615645156998400008E-18, -9.083741880593384954E-18 ) ) ;
#34 = MECHANICAL_DESIGN_GEOMETRIC_PRESENTATION_REPRESENTATION (  '', ( #200 ), #303 ) ;
#35 = EDGE_LOOP ( 'NONE', ( #142, #182, #313, #88 ) ) ;
#36 = SURFACE_SIDE_STYLE ('',( #106 ) ) ;
#37 = EDGE_CURVE ( 'NONE', #147, #305, #323, .T. ) ;
#38 = DIRECTION ( 'NONE',  ( -0.0000000000000000000, -0.0000000000000000000, -1.000000000000000000 ) ) ;
#39 = ORIENTED_EDGE ( 'NONE', *, *, #3, .F. ) ;
#40 = CARTESIAN_POINT ( 'NONE',  ( 2.106723346832924349E-17, 0.0000000000000000000, 0.1035429987917527023 ) ) ;
#41 = ORIENTED_EDGE ( 'NONE', *, *, #136, .F. ) ;
#42 = CYLINDRICAL_SURFACE ( 'NONE', #213, 0.02952398323758126386 ) ;
#43 = FILL_AREA_STYLE_COLOUR ( '', #252 ) ;
#44 = DIRECTION ( 'NONE',  ( 0.0000000000000000000, 0.0000000000000000000, -1.000000000000000000 ) ) ;
#45 = CARTESIAN_POINT ( 'NONE',  ( 0.0000000000000000000, 0.0000000000000000000, 0.005117998791752690659 ) ) ;
#46 = CARTESIAN_POINT ( 'NONE',  ( 9.156377255593477561E-18, 0.0000000000000000000, 0.005117998791752709740 ) ) ;
#47 = CARTESIAN_POINT ( 'NONE',  ( -0.02952398323758125345, 0.0000000000000000000, 0.0000000000000000000 ) ) ;
#48 = DIRECTION ( 'NONE',  ( 0.0000000000000000000, 0.0000000000000000000, -1.000000000000000000 ) ) ;
#49 = UNCERTAINTY_MEASURE_WITH_UNIT (LENGTH_MEASURE( 1.000000000000000082E-05 ), #227, 'distance_accuracy_value', 'NONE');
#50 = ADVANCED_FACE ( 'NONE', ( #149 ), #242, .T. ) ;
#51 = CARTESIAN_POINT ( 'NONE',  ( 0.0000000000000000000, 0.0000000000000000000, 2.480315000000000047 ) ) ;
#52 = DIMENSIONAL_EXPONENTS ( 1.000000000000000000, 0.0000000000000000000, 0.0000000000000000000, 0.0000000000000000000, 0.0000000000000000000, 0.0000000000000000000, 0.0000000000000000000 ) ;
#53 = CIRCLE ( 'NONE', #162, 0.02952398323758126386 ) ;
#54 = CIRCLE ( 'NONE', #70, 0.1574804999999999955 ) ;
#55 = SURFACE_SIDE_STYLE ('',( #159 ) ) ;
#56 = VERTEX_POINT ( 'NONE', #294 ) ;
#57 = DIRECTION ( 'NONE',  ( 1.000000000000000000, 0.0000000000000000000, 0.0000000000000000000 ) ) ;
#58 = CARTESIAN_POINT ( 'NONE',  ( 0.1574804999999999955, 1.928579902531247412E-17, 2.480315000000000047 ) ) ;
#59 = EDGE_CURVE ( 'NONE', #165, #233, #287, .T. ) ;
#60 = EDGE_CURVE ( 'NONE', #174, #64, #181, .T. ) ;
#61 = AXIS2_PLACEMENT_3D ( 'NONE', #223, #179, #129 ) ;
#62 = LENGTH_MEASURE_WITH_UNIT ( LENGTH_MEASURE( 0.02539999999999999897 ), #228 );
#63 = ORIENTED_EDGE ( 'NONE', *, *, #3, .T. ) ;
#64 = VERTEX_POINT ( 'NONE', #17 ) ;
#65 = CARTESIAN_POINT ( 'NONE',  ( 0.0000000000000000000, 0.0000000000000000000, 2.480315000000000047 ) ) ;
#66 = VERTEX_POINT ( 'NONE', #118 ) ;
#67 = CARTESIAN_POINT ( 'NONE',  ( -0.1279489832375812486, 0.0000000000000000000, 0.1035429987917527161 ) ) ;
#68 = DIRECTION ( 'NONE',  ( 0.0000000000000000000, -1.000000000000000000, 0.0000000000000000000 ) ) ;
#69 = AXIS2_PLACEMENT_3D ( 'NONE', #40, #92, #116 ) ;
#70 = AXIS2_PLACEMENT_3D ( 'NONE', #250, #24, #74 ) ;
#71 = CARTESIAN_POINT ( 'NONE',  ( -0.1574804999999999955, 0.0000000000000000000, 2.480315000000000047 ) ) ;
#72 = AXIS2_PLACEMENT_3D ( 'NONE', #224, #48, #325 ) ;
#73 = CARTESIAN_POINT ( 'NONE',  ( 8.537024980200822558E-18, 0.0000000000000000000, 0.0000000000000000000 ) ) ;
#74 = DIRECTION ( 'NONE',  ( 1.000000000000000000, 0.0000000000000000000, 0.0000000000000000000 ) ) ;
#75 = ADVANCED_FACE ( 'NONE', ( #216 ), #127, .T. ) ;
#76 = DIRECTION ( 'NONE',  ( -1.210145411504777164E-16, -0.0000000000000000000, -1.000000000000000000 ) ) ;
#77 = PRESENTATION_LAYER_ASSIGNMENT (  '', '', ( #137 ) ) ;
#78 = FACE_OUTER_BOUND ( 'NONE', #35, .T. ) ;
#79 = ORIENTED_EDGE ( 'NONE', *, *, #293, .F. ) ;
#80 = PRESENTATION_STYLE_ASSIGNMENT (( #143 ) ) ;
#81 = VECTOR ( 'NONE', #210, 39.37007874015748854 ) ;
#82 =( CONVERSION_BASED_UNIT ( 'INCH', #62 ) LENGTH_UNIT ( ) NAMED_UNIT ( #52 ) );
#83 = SHAPE_DEFINITION_REPRESENTATION ( #297, #32 ) ;
#84 = EDGE_LOOP ( 'NONE', ( #63, #306, #320, #269 ) ) ;
#85 = CARTESIAN_POINT ( 'NONE',  ( 0.1424804999999990940, 1.744882882659133128E-17, 2.480315000000000047 ) ) ;
#86 = VECTOR ( 'NONE', #212, 39.37007874015748143 ) ;
#87 = LINE ( 'NONE', #58, #225 ) ;
#88 = ORIENTED_EDGE ( 'NONE', *, *, #59, .F. ) ;
#89 = DIRECTION ( 'NONE',  ( 0.7071067811865627828, 8.659560562355118980E-17, -0.7071067811865321406 ) ) ;
#90 = ADVANCED_FACE ( 'NONE', ( #240 ), #168, .F. ) ;
#91 = DIRECTION ( 'NONE',  ( -1.000000000000000000, 0.0000000000000000000, 1.210145411504776917E-16 ) ) ;
#92 = DIRECTION ( 'NONE',  ( -1.210145411504777164E-16, -0.0000000000000000000, -1.000000000000000000 ) ) ;
#93 = CARTESIAN_POINT ( 'NONE',  ( 8.537024980200822558E-18, 0.0000000000000000000, -5.510910596163092637E-18 ) ) ;
#94 = CLOSED_SHELL ( 'NONE', ( #247, #18, #270, #304, #307, #195, #75, #12, #50, #29, #90 ) ) ;
#95 = AXIS2_PLACEMENT_3D ( 'NONE', #51, #99, #246 ) ;
#96 = ORIENTED_EDGE ( 'NONE', *, *, #217, .T. ) ;
#97 = PRODUCT_DEFINITION_CONTEXT ( 'detailed design', #1, 'design' ) ;
#98 = CARTESIAN_POINT ( 'NONE',  ( 0.1279489832375812486, 1.566923127760622469E-17, 0.005117998791752675046 ) ) ;
#99 = DIRECTION ( 'NONE',  ( -0.0000000000000000000, -0.0000000000000000000, -1.000000000000000000 ) ) ;
#100 = EDGE_CURVE ( 'NONE', #16, #56, #53, .T. ) ;
#101 = AXIS2_PLACEMENT_3D ( 'NONE', #98, #203, #126 ) ;
#102 = EDGE_LOOP ( 'NONE', ( #316, #144, #251, #2 ) ) ;
#103 = DIRECTION ( 'NONE',  ( -1.000000000000000000, 0.0000000000000000000, 1.084200898549448639E-16 ) ) ;
#104 = ORIENTED_EDGE ( 'NONE', *, *, #321, .F. ) ;
#105 =( NAMED_UNIT ( * ) PLANE_ANGLE_UNIT ( ) SI_UNIT ( $, .RADIAN. ) );
#106 = SURFACE_STYLE_FILL_AREA ( #206 ) ;
#107 = DIRECTION ( 'NONE',  ( -1.000000000000000000, 0.0000000000000000000, 1.084333486377355109E-16 ) ) ;
#108 = MANIFOLD_SOLID_BREP ( 'Cut-Revolve1', #94 ) ;
#109 = CARTESIAN_POINT ( 'NONE',  ( -0.1424804999999990940, 0.0000000000000000000, 2.480315000000000047 ) ) ;
#110 = ORIENTED_EDGE ( 'NONE', *, *, #167, .T. ) ;
#111 = DIRECTION ( 'NONE',  ( -1.000000000000000000, 0.0000000000000000000, 1.210145411504776917E-16 ) ) ;
#112 = CARTESIAN_POINT ( 'NONE',  ( 8.537024980200822558E-18, 0.0000000000000000000, 0.0000000000000000000 ) ) ;
#113 = ORIENTED_EDGE ( 'NONE', *, *, #37, .F. ) ;
#114 = FACE_BOUND ( 'NONE', #309, .T. ) ;
#115 = AXIS2_PLACEMENT_3D ( 'NONE', #327, #330, #103 ) ;
#116 = DIRECTION ( 'NONE',  ( -1.000000000000000000, 0.0000000000000000000, 1.334442019652301694E-16 ) ) ;
#117 = ORIENTED_EDGE ( 'NONE', *, *, #167, .F. ) ;
#118 = CARTESIAN_POINT ( 'NONE',  ( -0.1424804999999990940, 0.0000000000000000000, 2.480315000000000047 ) ) ;
#119 = CARTESIAN_POINT ( 'NONE',  ( 9.156377255593477561E-18, 0.0000000000000000000, 0.005117998791752709740 ) ) ;
#120 = DIRECTION ( 'NONE',  ( -1.210145411504777164E-16, -0.0000000000000000000, -1.000000000000000000 ) ) ;
#121 =( GEOMETRIC_REPRESENTATION_CONTEXT ( 3 ) GLOBAL_UNCERTAINTY_ASSIGNED_CONTEXT ( ( #272 ) ) GLOBAL_UNIT_ASSIGNED_CONTEXT ( ( #82, #281, #8 ) ) REPRESENTATION_CONTEXT ( 'NONE', 'WORKASPACE' ) );
#122 = CONICAL_SURFACE ( 'NONE', #72, 0.1424804999999990940, 0.7853981633974699283 ) ;
#123 = EDGE_CURVE ( 'NONE', #305, #190, #87, .T. ) ;
#124 = DIRECTION ( 'NONE',  ( -1.210145411504777164E-16, -0.0000000000000000000, -1.000000000000000000 ) ) ;
#125 = EDGE_CURVE ( 'NONE', #66, #165, #234, .T. ) ;
#126 = DIRECTION ( 'NONE',  ( -1.000000000000000000, -1.224646799147353207E-16, 0.0000000000000000000 ) ) ;
#127 = CONICAL_SURFACE ( 'NONE', #276, 0.1424804999999990940, 0.7853981633974699283 ) ;
#128 = COLOUR_RGB ( '',0.7921568627450980005, 0.8196078431372548767, 0.9333333333333333481 ) ;
#129 = DIRECTION ( 'NONE',  ( -1.000000000000000000, 0.0000000000000000000, 1.210145411504777164E-16 ) ) ;
#130 = CARTESIAN_POINT ( 'NONE',  ( 0.0000000000000000000, 0.0000000000000000000, 2.465314999999999923 ) ) ;
#131 = DIRECTION ( 'NONE',  ( 1.000000000000000000, 0.0000000000000000000, -0.0000000000000000000 ) ) ;
#132 = EDGE_CURVE ( 'NONE', #147, #66, #258, .T. ) ;
#133 = VECTOR ( 'NONE', #284, 39.37007874015748143 ) ;
#134 = ORIENTED_EDGE ( 'NONE', *, *, #132, .T. ) ;
#135 = FILL_AREA_STYLE_COLOUR ( '', #128 ) ;
#136 = EDGE_CURVE ( 'NONE', #311, #230, #302, .T. ) ;
#137 = STYLED_ITEM ( 'NONE', ( #312 ), #108 ) ;
#138 = ORIENTED_EDGE ( 'NONE', *, *, #273, .F. ) ;
#139 = AXIS2_PLACEMENT_3D ( 'NONE', #185, #314, #266 ) ;
#140 = VECTOR ( 'NONE', #124, 39.37007874015748143 ) ;
#141 = DIRECTION ( 'NONE',  ( 0.0000000000000000000, 0.0000000000000000000, 1.000000000000000000 ) ) ;
#142 = ORIENTED_EDGE ( 'NONE', *, *, #273, .T. ) ;
#143 = SURFACE_STYLE_USAGE ( .BOTH. , #36 ) ;
#144 = ORIENTED_EDGE ( 'NONE', *, *, #321, .T. ) ;
#145 = DIRECTION ( 'NONE',  ( -1.000000000000000000, 0.0000000000000000000, 1.210145411504777164E-16 ) ) ;
#146 = EDGE_CURVE ( 'NONE', #16, #311, #257, .T. ) ;
#147 = VERTEX_POINT ( 'NONE', #285 ) ;
#148 = CARTESIAN_POINT ( 'NONE',  ( -0.1574804999999999955, 0.0000000000000000000, 2.465314999999999923 ) ) ;
#149 = FACE_OUTER_BOUND ( 'NONE', #13, .T. ) ;
#150 = FACE_OUTER_BOUND ( 'NONE', #84, .T. ) ;
#151 = AXIS2_PLACEMENT_3D ( 'NONE', #300, #76, #275 ) ;
#152 =( LENGTH_UNIT ( ) NAMED_UNIT ( * ) SI_UNIT ( $, .METRE. ) );
#153 = EDGE_CURVE ( 'NONE', #66, #147, #14, .T. ) ;
#154 = FACE_OUTER_BOUND ( 'NONE', #289, .T. ) ;
#155 = DIRECTION ( 'NONE',  ( 1.000000000000000000, 0.0000000000000000000, 0.0000000000000000000 ) ) ;
#156 = DIRECTION ( 'NONE',  ( -1.000000000000000000, 0.0000000000000000000, 0.0000000000000000000 ) ) ;
#157 = PRODUCT_DEFINITION ( 'UNKNOWN', '', #20, #97 ) ;
#158 = APPLICATION_PROTOCOL_DEFINITION ( 'draft international standard', 'automotive_design', 1998, #318 ) ;
#159 = SURFACE_STYLE_FILL_AREA ( #183 ) ;
#160 = ORIENTED_EDGE ( 'NONE', *, *, #204, .F. ) ;
#161 = DIRECTION ( 'NONE',  ( 1.000000000000000000, 0.0000000000000000000, 0.0000000000000000000 ) ) ;
#162 = AXIS2_PLACEMENT_3D ( 'NONE', #119, #218, #107 ) ;
#163 = ORIENTED_EDGE ( 'NONE', *, *, #125, .F. ) ;
#164 =( GEOMETRIC_REPRESENTATION_CONTEXT ( 3 ) GLOBAL_UNCERTAINTY_ASSIGNED_CONTEXT ( ( #201 ) ) GLOBAL_UNIT_ASSIGNED_CONTEXT ( ( #248, #301, #260 ) ) REPRESENTATION_CONTEXT ( 'NONE', 'WORKASPACE' ) );
#165 = VERTEX_POINT ( 'NONE', #148 ) ;
#166 = CARTESIAN_POINT ( 'NONE',  ( 2.106723346832924349E-17, 0.0000000000000000000, 0.1035429987917527023 ) ) ;
#167 = EDGE_CURVE ( 'NONE', #64, #174, #207, .T. ) ;
#168 = PLANE ( 'NONE',  #139 ) ;
#169 = ORIENTED_EDGE ( 'NONE', *, *, #132, .F. ) ;
#170 = DIRECTION ( 'NONE',  ( 0.0000000000000000000, 0.0000000000000000000, 1.000000000000000000 ) ) ;
#171 = DIRECTION ( 'NONE',  ( -1.000000000000000000, 0.0000000000000000000, 1.084333486377355109E-16 ) ) ;
#172 = MECHANICAL_DESIGN_GEOMETRIC_PRESENTATION_REPRESENTATION (  '', ( #137 ), #121 ) ;
#173 = CYLINDRICAL_SURFACE ( 'NONE', #308, 0.1574804999999999955 ) ;
#174 = VERTEX_POINT ( 'NONE', #192 ) ;
#175 = CIRCLE ( 'NONE', #101, 0.09842500000000001248 ) ;
#176 = DIRECTION ( 'NONE',  ( 0.0000000000000000000, 0.0000000000000000000, 1.000000000000000000 ) ) ;
#177 = PRODUCT_RELATED_PRODUCT_CATEGORY ( 'part', '', ( #199 ) ) ;
#178 = AXIS2_PLACEMENT_3D ( 'NONE', #130, #44, #155 ) ;
#179 = DIRECTION ( 'NONE',  ( -1.210145411504777164E-16, -0.0000000000000000000, -1.000000000000000000 ) ) ;
#180 = ORIENTED_EDGE ( 'NONE', *, *, #60, .T. ) ;
#181 = CIRCLE ( 'NONE', #315, 0.1279489832375812763 ) ;
#182 = ORIENTED_EDGE ( 'NONE', *, *, #123, .T. ) ;
#183 = FILL_AREA_STYLE ('',( #43 ) ) ;
#184 = LENGTH_MEASURE_WITH_UNIT ( LENGTH_MEASURE( 0.02539999999999999897 ), #254 );
#185 = CARTESIAN_POINT ( 'NONE',  ( 0.0000000000000000000, 0.0000000000000000000, 0.0000000000000000000 ) ) ;
#186 = AXIS2_PLACEMENT_3D ( 'NONE', #45, #239, #145 ) ;
#187 = ORIENTED_EDGE ( 'NONE', *, *, #217, .F. ) ;
#188 = PRESENTATION_LAYER_ASSIGNMENT (  '', '', ( #200 ) ) ;
#189 = DIRECTION ( 'NONE',  ( 1.000000000000000000, 0.0000000000000000000, 0.0000000000000000000 ) ) ;
#190 = VERTEX_POINT ( 'NONE', #215 ) ;
#191 = CARTESIAN_POINT ( 'NONE',  ( 0.02952398323758127080, 3.615645156998400008E-18, 0.005117998791752707138 ) ) ;
#192 = CARTESIAN_POINT ( 'NONE',  ( -0.1279489832375812486, 0.0000000000000000000, 0.1035429987917527161 ) ) ;
#193 = DIRECTION ( 'NONE',  ( -1.210145411504777164E-16, 0.0000000000000000000, -1.000000000000000000 ) ) ;
#194 = PLANE ( 'NONE',  #249 ) ;
#195 = ADVANCED_FACE ( 'NONE', ( #319 ), #194, .T. ) ;
#196 = AXIS2_PLACEMENT_3D ( 'NONE', #73, #176, #274 ) ;
#197 = CARTESIAN_POINT ( 'NONE',  ( 8.537024980200822558E-18, 0.0000000000000000000, -5.510910596163092637E-18 ) ) ;
#198 = CYLINDRICAL_SURFACE ( 'NONE', #95, 0.1574804999999999955 ) ;
#199 = PRODUCT ( 'Micro_CREM-080-250X', 'Micro_CREM-080-250X', '', ( #208 ) ) ;
#200 = STYLED_ITEM ( 'NONE', ( #80 ), #32 ) ;
#201 = UNCERTAINTY_MEASURE_WITH_UNIT (LENGTH_MEASURE( 1.000000000000000082E-05 ), #248, 'distance_accuracy_value', 'NONE');
#202 = CARTESIAN_POINT ( 'NONE',  ( 0.0000000000000000000, 0.0000000000000000000, 2.480315000000000047 ) ) ;
#203 = DIRECTION ( 'NONE',  ( -1.224646799147353207E-16, 1.000000000000000000, 1.482000704702181898E-32 ) ) ;
#204 = EDGE_CURVE ( 'NONE', #230, #311, #291, .T. ) ;
#205 = EDGE_LOOP ( 'NONE', ( #169, #279, #138, #163 ) ) ;
#206 = FILL_AREA_STYLE ('',( #135 ) ) ;
#207 = CIRCLE ( 'NONE', #69, 0.1279489832375812763 ) ;
#208 = PRODUCT_CONTEXT ( 'NONE', #318, 'mechanical' ) ;
#209 = DIRECTION ( 'NONE',  ( 0.0000000000000000000, 0.0000000000000000000, 1.000000000000000000 ) ) ;
#210 = DIRECTION ( 'NONE',  ( -0.7071067811865627828, 0.0000000000000000000, -0.7071067811865321406 ) ) ;
#211 = EDGE_LOOP ( 'NONE', ( #237, #134 ) ) ;
#212 = DIRECTION ( 'NONE',  ( -1.210145411504777164E-16, -0.0000000000000000000, -1.000000000000000000 ) ) ;
#213 = AXIS2_PLACEMENT_3D ( 'NONE', #93, #243, #111 ) ;
#214 = ORIENTED_EDGE ( 'NONE', *, *, #146, .F. ) ;
#215 = CARTESIAN_POINT ( 'NONE',  ( 0.1574804999999999955, 1.928579902531247412E-17, 0.1035429987917527994 ) ) ;
#216 = FACE_OUTER_BOUND ( 'NONE', #268, .T. ) ;
#217 = EDGE_CURVE ( 'NONE', #16, #64, #175, .T. ) ;
#218 = DIRECTION ( 'NONE',  ( -1.210145411504777164E-16, -0.0000000000000000000, -1.000000000000000000 ) ) ;
#219 = CIRCLE ( 'NONE', #331, 0.02952398323758126386 ) ;
#220 = PLANE ( 'NONE',  #267 ) ;
#221 = LINE ( 'NONE', #25, #140 ) ;
#222 = CARTESIAN_POINT ( 'NONE',  ( 0.02952398323758127080, 3.615645156998400008E-18, 0.0000000000000000000 ) ) ;
#223 = CARTESIAN_POINT ( 'NONE',  ( 0.0000000000000000000, 0.0000000000000000000, 0.005117998791752690659 ) ) ;
#224 = CARTESIAN_POINT ( 'NONE',  ( 0.0000000000000000000, 0.0000000000000000000, 2.480315000000000047 ) ) ;
#225 = VECTOR ( 'NONE', #38, 39.37007874015748143 ) ;
#226 = ORIENTED_EDGE ( 'NONE', *, *, #100, .T. ) ;
#227 =( CONVERSION_BASED_UNIT ( 'INCH', #184 ) LENGTH_UNIT ( ) NAMED_UNIT ( #326 ) );
#228 =( LENGTH_UNIT ( ) NAMED_UNIT ( * ) SI_UNIT ( $, .METRE. ) );
#229 = TOROIDAL_SURFACE ( 'NONE', #186, 0.1279489832375812486, 0.09842500000000001248 ) ;
#230 = VERTEX_POINT ( 'NONE', #47 ) ;
#231 = CARTESIAN_POINT ( 'NONE',  ( 0.0000000000000000000, 0.0000000000000000000, 0.0000000000000000000 ) ) ;
#232 = DIRECTION ( 'NONE',  ( -1.000000000000000000, 0.0000000000000000000, 0.0000000000000000000 ) ) ;
#233 = VERTEX_POINT ( 'NONE', #328 ) ;
#234 = LINE ( 'NONE', #109, #81 ) ;
#235 = ORIENTED_EDGE ( 'NONE', *, *, #153, .F. ) ;
#236 = DIRECTION ( 'NONE',  ( -1.000000000000000000, 0.0000000000000000000, 1.334442019652301694E-16 ) ) ;
#237 = ORIENTED_EDGE ( 'NONE', *, *, #153, .T. ) ;
#238 = AXIS2_PLACEMENT_3D ( 'NONE', #231, #280, #57 ) ;
#239 = DIRECTION ( 'NONE',  ( -1.210145411504777164E-16, -0.0000000000000000000, -1.000000000000000000 ) ) ;
#240 = FACE_OUTER_BOUND ( 'NONE', #283, .T. ) ;
#241 = DIRECTION ( 'NONE',  ( -1.000000000000000000, 0.0000000000000000000, 1.210145411504777164E-16 ) ) ;
#242 = CYLINDRICAL_SURFACE ( 'NONE', #271, 0.02952398323758126386 ) ;
#243 = DIRECTION ( 'NONE',  ( -1.210145411504777164E-16, -0.0000000000000000000, -1.000000000000000000 ) ) ;
#244 = EDGE_CURVE ( 'NONE', #190, #233, #322, .T. ) ;
#245 = LENGTH_MEASURE_WITH_UNIT ( LENGTH_MEASURE( 0.02539999999999999897 ), #152 );
#246 = DIRECTION ( 'NONE',  ( -1.000000000000000000, 0.0000000000000000000, 0.0000000000000000000 ) ) ;
#247 = ADVANCED_FACE ( 'NONE', ( #154 ), #28, .F. ) ;
#248 =( CONVERSION_BASED_UNIT ( 'INCH', #245 ) LENGTH_UNIT ( ) NAMED_UNIT ( #295 ) );
#249 = AXIS2_PLACEMENT_3D ( 'NONE', #288, #170, #131 ) ;
#250 = CARTESIAN_POINT ( 'NONE',  ( 0.0000000000000000000, 0.0000000000000000000, 2.465314999999999923 ) ) ;
#251 = ORIENTED_EDGE ( 'NONE', *, *, #59, .T. ) ;
#252 = COLOUR_RGB ( '',0.7921568627450980005, 0.8196078431372548767, 0.9333333333333333481 ) ;
#253 = AXIS2_PLACEMENT_3D ( 'NONE', #324, #68, #21 ) ;
#254 =( LENGTH_UNIT ( ) NAMED_UNIT ( * ) SI_UNIT ( $, .METRE. ) );
#255 = ORIENTED_EDGE ( 'NONE', *, *, #244, .T. ) ;
#256 = EDGE_CURVE ( 'NONE', #56, #230, #221, .T. ) ;
#257 = LINE ( 'NONE', #33, #86 ) ;
#258 = CIRCLE ( 'NONE', #27, 0.1424804999999990940 ) ;
#259 = CIRCLE ( 'NONE', #253, 0.09842500000000001248 ) ;
#260 =( NAMED_UNIT ( * ) SI_UNIT ( $, .STERADIAN. ) SOLID_ANGLE_UNIT ( ) );
#261 = CARTESIAN_POINT ( 'NONE',  ( 0.0000000000000000000, 0.0000000000000000000, 2.480315000000000047 ) ) ;
#262 = ORIENTED_EDGE ( 'NONE', *, *, #256, .T. ) ;
#263 = DIRECTION ( 'NONE',  ( 1.000000000000000000, 0.0000000000000000000, 0.0000000000000000000 ) ) ;
#264 = EDGE_LOOP ( 'NONE', ( #187, #39, #286, #180 ) ) ;
#265 = DIRECTION ( 'NONE',  ( -1.210145411504777164E-16, -0.0000000000000000000, -1.000000000000000000 ) ) ;
#266 = DIRECTION ( 'NONE',  ( 1.000000000000000000, 0.0000000000000000000, -0.0000000000000000000 ) ) ;
#267 = AXIS2_PLACEMENT_3D ( 'NONE', #67, #193, #241 ) ;
#268 = EDGE_LOOP ( 'NONE', ( #113, #235, #329, #104 ) ) ;
#269 = ORIENTED_EDGE ( 'NONE', *, *, #256, .F. ) ;
#270 = ADVANCED_FACE ( 'NONE', ( #277 ), #122, .T. ) ;
#271 = AXIS2_PLACEMENT_3D ( 'NONE', #197, #19, #91 ) ;
#272 = UNCERTAINTY_MEASURE_WITH_UNIT (LENGTH_MEASURE( 1.000000000000000082E-05 ), #82, 'distance_accuracy_value', 'NONE');
#273 = EDGE_CURVE ( 'NONE', #165, #305, #54, .T. ) ;
#274 = DIRECTION ( 'NONE',  ( 1.000000000000000000, 0.0000000000000000000, 0.0000000000000000000 ) ) ;
#275 = DIRECTION ( 'NONE',  ( -1.000000000000000000, 0.0000000000000000000, 1.084200898549448639E-16 ) ) ;
#276 = AXIS2_PLACEMENT_3D ( 'NONE', #261, #6, #232 ) ;
#277 = FACE_OUTER_BOUND ( 'NONE', #205, .T. ) ;
#278 = APPLICATION_PROTOCOL_DEFINITION ( 'draft international standard', 'automotive_design', 1998, #1 ) ;
#279 = ORIENTED_EDGE ( 'NONE', *, *, #37, .T. ) ;
#280 = DIRECTION ( 'NONE',  ( 0.0000000000000000000, 0.0000000000000000000, 1.000000000000000000 ) ) ;
#281 =( NAMED_UNIT ( * ) PLANE_ANGLE_UNIT ( ) SI_UNIT ( $, .RADIAN. ) );
#282 = CIRCLE ( 'NONE', #115, 0.1574804999999999955 ) ;
#283 = EDGE_LOOP ( 'NONE', ( #160, #41 ) ) ;
#284 = DIRECTION ( 'NONE',  ( -0.0000000000000000000, -0.0000000000000000000, -1.000000000000000000 ) ) ;
#285 = CARTESIAN_POINT ( 'NONE',  ( 0.1424804999999990940, 1.836731392595189962E-17, 2.480315000000000047 ) ) ;
#286 = ORIENTED_EDGE ( 'NONE', *, *, #293, .T. ) ;
#287 = LINE ( 'NONE', #71, #133 ) ;
#288 = CARTESIAN_POINT ( 'NONE',  ( 0.0000000000000000000, 0.0000000000000000000, 2.480315000000000047 ) ) ;
#289 = EDGE_LOOP ( 'NONE', ( #26, #96, #110, #79 ) ) ;
#290 = FACE_OUTER_BOUND ( 'NONE', #102, .T. ) ;
#291 = CIRCLE ( 'NONE', #196, 0.02952398323758126386 ) ;
#292 = FACE_OUTER_BOUND ( 'NONE', #264, .T. ) ;
#293 = EDGE_CURVE ( 'NONE', #56, #174, #259, .T. ) ;
#294 = CARTESIAN_POINT ( 'NONE',  ( -0.02952398323758125345, 0.0000000000000000000, 0.005117998791752713210 ) ) ;
#295 = DIMENSIONAL_EXPONENTS ( 1.000000000000000000, 0.0000000000000000000, 0.0000000000000000000, 0.0000000000000000000, 0.0000000000000000000, 0.0000000000000000000, 0.0000000000000000000 ) ;
#296 = AXIS2_PLACEMENT_3D ( 'NONE', #112, #11, #189 ) ;
#297 = PRODUCT_DEFINITION_SHAPE ( 'NONE', 'NONE',  #157 ) ;
#298 = DIRECTION ( 'NONE',  ( -0.0000000000000000000, -0.0000000000000000000, -1.000000000000000000 ) ) ;
#299 = EDGE_CURVE ( 'NONE', #233, #190, #282, .T. ) ;
#300 = CARTESIAN_POINT ( 'NONE',  ( 0.0000000000000000000, 0.0000000000000000000, 0.1035429987917528272 ) ) ;
#301 =( NAMED_UNIT ( * ) PLANE_ANGLE_UNIT ( ) SI_UNIT ( $, .RADIAN. ) );
#302 = CIRCLE ( 'NONE', #296, 0.02952398323758126386 ) ;
#303 =( GEOMETRIC_REPRESENTATION_CONTEXT ( 3 ) GLOBAL_UNCERTAINTY_ASSIGNED_CONTEXT ( ( #49 ) ) GLOBAL_UNIT_ASSIGNED_CONTEXT ( ( #227, #105, #10 ) ) REPRESENTATION_CONTEXT ( 'NONE', 'WORKASPACE' ) );
#304 = ADVANCED_FACE ( 'NONE', ( #78 ), #198, .T. ) ;
#305 = VERTEX_POINT ( 'NONE', #22 ) ;
#306 = ORIENTED_EDGE ( 'NONE', *, *, #146, .T. ) ;
#307 = ADVANCED_FACE ( 'NONE', ( #290 ), #173, .T. ) ;
#308 = AXIS2_PLACEMENT_3D ( 'NONE', #202, #298, #156 ) ;
#309 = EDGE_LOOP ( 'NONE', ( #4, #117 ) ) ;
#310 = CARTESIAN_POINT ( 'NONE',  ( 0.0000000000000000000, 0.0000000000000000000, 2.480315000000000047 ) ) ;
#311 = VERTEX_POINT ( 'NONE', #222 ) ;
#312 = PRESENTATION_STYLE_ASSIGNMENT (( #30 ) ) ;
#313 = ORIENTED_EDGE ( 'NONE', *, *, #299, .F. ) ;
#314 = DIRECTION ( 'NONE',  ( 0.0000000000000000000, 0.0000000000000000000, 1.000000000000000000 ) ) ;
#315 = AXIS2_PLACEMENT_3D ( 'NONE', #166, #265, #236 ) ;
#316 = ORIENTED_EDGE ( 'NONE', *, *, #123, .F. ) ;
#317 = FACE_OUTER_BOUND ( 'NONE', #7, .T. ) ;
#318 = APPLICATION_CONTEXT ( 'automotive_design' ) ;
#319 = FACE_OUTER_BOUND ( 'NONE', #211, .T. ) ;
#320 = ORIENTED_EDGE ( 'NONE', *, *, #136, .T. ) ;
#321 = EDGE_CURVE ( 'NONE', #305, #165, #15, .T. ) ;
#322 = CIRCLE ( 'NONE', #151, 0.1574804999999999955 ) ;
#323 = LINE ( 'NONE', #85, #5 ) ;
#324 = CARTESIAN_POINT ( 'NONE',  ( -0.1279489832375812486, 0.0000000000000000000, 0.005117998791752707138 ) ) ;
#325 = DIRECTION ( 'NONE',  ( -1.000000000000000000, 0.0000000000000000000, 0.0000000000000000000 ) ) ;
#326 = DIMENSIONAL_EXPONENTS ( 1.000000000000000000, 0.0000000000000000000, 0.0000000000000000000, 0.0000000000000000000, 0.0000000000000000000, 0.0000000000000000000, 0.0000000000000000000 ) ;
#327 = CARTESIAN_POINT ( 'NONE',  ( 0.0000000000000000000, 0.0000000000000000000, 0.1035429987917528272 ) ) ;
#328 = CARTESIAN_POINT ( 'NONE',  ( -0.1574804999999999955, 0.0000000000000000000, 0.1035429987917528410 ) ) ;
#329 = ORIENTED_EDGE ( 'NONE', *, *, #125, .T. ) ;
#330 = DIRECTION ( 'NONE',  ( -1.210145411504777164E-16, -0.0000000000000000000, -1.000000000000000000 ) ) ;
#331 = AXIS2_PLACEMENT_3D ( 'NONE', #46, #120, #171 ) ;
ENDSEC;
END-ISO-10303-21;
