ISO-10303-21;
HEADER;
FILE_DESCRIPTION (( 'STEP AP214' ),
    '1' );
FILE_NAME ('Micro_RMEM-013-2X.STEP',
    '2021-09-02T00:01:38',
    ( '' ),
    ( '' ),
    'SwSTEP 2.0',
    'SolidWorks 2020',
    '' );
FILE_SCHEMA (( 'AUTOMOTIVE_DESIGN' ));
ENDSEC;

DATA;
#1 = MECHANICAL_DESIGN_GEOMETRIC_PRESENTATION_REPRESENTATION (  '', ( #129 ), #67 ) ;
#2 = ORIENTED_EDGE ( 'NONE', *, *, #201, .T. ) ;
#3 = CARTESIAN_POINT ( 'NONE',  ( -0.02556490949999999998, 0.0000000000000000000, 6.261596917933352294E-18 ) ) ;
#4 = DIRECTION ( 'NONE',  ( -1.000000000000000000, 0.0000000000000000000, 0.0000000000000000000 ) ) ;
#5 = DIRECTION ( 'NONE',  ( -1.224646799147353207E-16, -0.0000000000000000000, -1.000000000000000000 ) ) ;
#6 =( GEOMETRIC_REPRESENTATION_CONTEXT ( 3 ) GLOBAL_UNCERTAINTY_ASSIGNED_CONTEXT ( ( #234 ) ) GLOBAL_UNIT_ASSIGNED_CONTEXT ( ( #224, #10, #78 ) ) REPRESENTATION_CONTEXT ( 'NONE', 'WORKASPACE' ) );
#7 = ORIENTED_EDGE ( 'NONE', *, *, #268, .T. ) ;
#8 = EDGE_CURVE ( 'NONE', #233, #111, #174, .T. ) ;
#9 = SURFACE_SIDE_STYLE ('',( #287 ) ) ;
#10 =( NAMED_UNIT ( * ) PLANE_ANGLE_UNIT ( ) SI_UNIT ( $, .RADIAN. ) );
#11 = DIRECTION ( 'NONE',  ( 0.0000000000000000000, 0.0000000000000000000, -1.000000000000000000 ) ) ;
#12 = LINE ( 'NONE', #223, #199 ) ;
#13 = CARTESIAN_POINT ( 'NONE',  ( -0.02556490949999999998, 0.0000000000000000000, 3.130798458966676147E-18 ) ) ;
#14 = FACE_OUTER_BOUND ( 'NONE', #251, .T. ) ;
#15 = ORIENTED_EDGE ( 'NONE', *, *, #45, .T. ) ;
#16 = CARTESIAN_POINT ( 'NONE',  ( 0.0000000000000000000, 0.0000000000000000000, 1.496062999999999921 ) ) ;
#17 = DIRECTION ( 'NONE',  ( -0.1736481776669311639, 2.126576849575783008E-17, 0.9848077530122080203 ) ) ;
#18 = COLOUR_RGB ( '',0.7921568627450980005, 0.8196078431372548767, 0.9333333333333333481 ) ;
#19 = EDGE_LOOP ( 'NONE', ( #298, #155, #278, #277 ) ) ;
#20 = CYLINDRICAL_SURFACE ( 'NONE', #261, 0.02556490949999999998 ) ;
#21 = CIRCLE ( 'NONE', #53, 0.05905500000000000332 ) ;
#22 = DIRECTION ( 'NONE',  ( -1.000000000000000000, 0.0000000000000000000, 0.0000000000000000000 ) ) ;
#23 = EDGE_CURVE ( 'NONE', #90, #275, #66, .T. ) ;
#24 = PLANE ( 'NONE',  #136 ) ;
#25 = DIRECTION ( 'NONE',  ( -1.224646799147353207E-16, -0.0000000000000000000, -1.000000000000000000 ) ) ;
#26 = EDGE_CURVE ( 'NONE', #230, #276, #71, .T. ) ;
#27 = AXIS2_PLACEMENT_3D ( 'NONE', #48, #215, #264 ) ;
#28 = CONICAL_SURFACE ( 'NONE', #91, 0.04405499999999973326, 0.7853981633974491672 ) ;
#29 = EDGE_CURVE ( 'NONE', #275, #276, #41, .T. ) ;
#30 = CARTESIAN_POINT ( 'NONE',  ( 0.05905500000000000332, 7.232151672364695422E-18, 1.481062999999999574 ) ) ;
#31 = LENGTH_MEASURE_WITH_UNIT ( LENGTH_MEASURE( 0.02539999999999999897 ), #123 );
#32 = DIRECTION ( 'NONE',  ( 1.000000000000000000, 0.0000000000000000000, 0.0000000000000000000 ) ) ;
#33 = CARTESIAN_POINT ( 'NONE',  ( 0.02556490949999999998, 3.130798458966676147E-18, -3.130798458966676147E-18 ) ) ;
#34 = FACE_OUTER_BOUND ( 'NONE', #98, .T. ) ;
#35 = CARTESIAN_POINT ( 'NONE',  ( -0.04405499999999973326, 0.0000000000000000000, 1.496062999999999921 ) ) ;
#36 = ORIENTED_EDGE ( 'NONE', *, *, #40, .F. ) ;
#37 = DIRECTION ( 'NONE',  ( 1.224646799147353207E-16, 0.0000000000000000000, 1.000000000000000000 ) ) ;
#38 = CARTESIAN_POINT ( 'NONE',  ( 1.880359434814820563E-17, 0.0000000000000000000, 0.1535430000000000128 ) ) ;
#39 = ORIENTED_EDGE ( 'NONE', *, *, #295, .T. ) ;
#40 = EDGE_CURVE ( 'NONE', #204, #230, #128, .T. ) ;
#41 = CIRCLE ( 'NONE', #27, 0.05905500000000000332 ) ;
#42 = AXIS2_PLACEMENT_3D ( 'NONE', #139, #281, #239 ) ;
#43 = ORIENTED_EDGE ( 'NONE', *, *, #209, .F. ) ;
#44 = CARTESIAN_POINT ( 'NONE',  ( -0.05905500000000000332, 0.0000000000000000000, 1.496062999999999921 ) ) ;
#45 = EDGE_CURVE ( 'NONE', #230, #204, #257, .T. ) ;
#46 = EDGE_CURVE ( 'NONE', #135, #62, #106, .T. ) ;
#47 = DIRECTION ( 'NONE',  ( -1.000000000000000000, 0.0000000000000000000, 0.0000000000000000000 ) ) ;
#48 = CARTESIAN_POINT ( 'NONE',  ( 4.206352426312293893E-17, 0.0000000000000000000, 0.3434747413900008373 ) ) ;
#49 = CARTESIAN_POINT ( 'NONE',  ( 0.0000000000000000000, 0.0000000000000000000, 1.496062999999999921 ) ) ;
#50 = ORIENTED_EDGE ( 'NONE', *, *, #268, .F. ) ;
#51 = PRESENTATION_STYLE_ASSIGNMENT (( #104 ) ) ;
#52 = ADVANCED_FACE ( 'NONE', ( #161 ), #68, .T. ) ;
#53 = AXIS2_PLACEMENT_3D ( 'NONE', #55, #150, #247 ) ;
#54 = DIRECTION ( 'NONE',  ( -1.224646799147353207E-16, -0.0000000000000000000, -1.000000000000000000 ) ) ;
#55 = CARTESIAN_POINT ( 'NONE',  ( 4.206352426312293893E-17, 0.0000000000000000000, 0.3434747413900008373 ) ) ;
#56 = FACE_OUTER_BOUND ( 'NONE', #19, .T. ) ;
#57 = ORIENTED_EDGE ( 'NONE', *, *, #23, .T. ) ;
#58 =( NAMED_UNIT ( * ) SI_UNIT ( $, .STERADIAN. ) SOLID_ANGLE_UNIT ( ) );
#59 = ORIENTED_EDGE ( 'NONE', *, *, #220, .F. ) ;
#60 = DIRECTION ( 'NONE',  ( 0.7071067811865482389, 8.659560562354941486E-17, -0.7071067811865469066 ) ) ;
#61 = DIRECTION ( 'NONE',  ( -1.000000000000000000, 0.0000000000000000000, 0.0000000000000000000 ) ) ;
#62 = VERTEX_POINT ( 'NONE', #3 ) ;
#63 = EDGE_LOOP ( 'NONE', ( #134, #160, #57, #43 ) ) ;
#64 = ADVANCED_FACE ( 'NONE', ( #280 ), #284, .T. ) ;
#65 = ORIENTED_EDGE ( 'NONE', *, *, #194, .T. ) ;
#66 = LINE ( 'NONE', #44, #198 ) ;
#67 =( GEOMETRIC_REPRESENTATION_CONTEXT ( 3 ) GLOBAL_UNCERTAINTY_ASSIGNED_CONTEXT ( ( #207 ) ) GLOBAL_UNIT_ASSIGNED_CONTEXT ( ( #283, #100, #192 ) ) REPRESENTATION_CONTEXT ( 'NONE', 'WORKASPACE' ) );
#68 = CYLINDRICAL_SURFACE ( 'NONE', #184, 0.05905500000000000332 ) ;
#69 = DIRECTION ( 'NONE',  ( -1.224646799147353207E-16, -0.0000000000000000000, -1.000000000000000000 ) ) ;
#70 = ORIENTED_EDGE ( 'NONE', *, *, #26, .F. ) ;
#71 = LINE ( 'NONE', #240, #291 ) ;
#72 = DIRECTION ( 'NONE',  ( 0.0000000000000000000, 0.0000000000000000000, 1.000000000000000000 ) ) ;
#73 = CIRCLE ( 'NONE', #265, 0.05905500000000000332 ) ;
#74 = ADVANCED_FACE ( 'NONE', ( #141 ), #24, .F. ) ;
#75 = CARTESIAN_POINT ( 'NONE',  ( 0.0000000000000000000, 0.0000000000000000000, 1.496062999999999921 ) ) ;
#76 = LINE ( 'NONE', #35, #274 ) ;
#77 = VECTOR ( 'NONE', #196, 39.37007874015748143 ) ;
#78 =( NAMED_UNIT ( * ) SI_UNIT ( $, .STERADIAN. ) SOLID_ANGLE_UNIT ( ) );
#79 = FACE_OUTER_BOUND ( 'NONE', #164, .T. ) ;
#80 = CARTESIAN_POINT ( 'NONE',  ( 0.0000000000000000000, 0.0000000000000000000, 1.496062999999999921 ) ) ;
#81 = DIRECTION ( 'NONE',  ( 0.0000000000000000000, 0.0000000000000000000, -1.000000000000000000 ) ) ;
#82 = FACE_OUTER_BOUND ( 'NONE', #113, .T. ) ;
#83 = ORIENTED_EDGE ( 'NONE', *, *, #102, .T. ) ;
#84 = DIRECTION ( 'NONE',  ( 1.000000000000000000, 0.0000000000000000000, 0.0000000000000000000 ) ) ;
#85 = PRESENTATION_LAYER_ASSIGNMENT (  '', '', ( #222 ) ) ;
#86 = LENGTH_MEASURE_WITH_UNIT ( LENGTH_MEASURE( 0.02539999999999999897 ), #127 );
#87 = ORIENTED_EDGE ( 'NONE', *, *, #40, .T. ) ;
#88 = PRODUCT_DEFINITION_CONTEXT ( 'detailed design', #137, 'design' ) ;
#89 = ORIENTED_EDGE ( 'NONE', *, *, #246, .F. ) ;
#90 = VERTEX_POINT ( 'NONE', #175 ) ;
#91 = AXIS2_PLACEMENT_3D ( 'NONE', #80, #124, #130 ) ;
#92 = ORIENTED_EDGE ( 'NONE', *, *, #29, .T. ) ;
#93 = DIMENSIONAL_EXPONENTS ( 1.000000000000000000, 0.0000000000000000000, 0.0000000000000000000, 0.0000000000000000000, 0.0000000000000000000, 0.0000000000000000000, 0.0000000000000000000 ) ;
#94 = EDGE_LOOP ( 'NONE', ( #163, #178 ) ) ;
#95 = CARTESIAN_POINT ( 'NONE',  ( 3.834122311549006146E-34, 0.0000000000000000000, 3.130798458966676147E-18 ) ) ;
#96 = VERTEX_POINT ( 'NONE', #30 ) ;
#97 = DIRECTION ( 'NONE',  ( 0.0000000000000000000, 0.0000000000000000000, 1.000000000000000000 ) ) ;
#98 = EDGE_LOOP ( 'NONE', ( #262, #15, #256, #143 ) ) ;
#99 = FACE_OUTER_BOUND ( 'NONE', #108, .T. ) ;
#100 =( NAMED_UNIT ( * ) PLANE_ANGLE_UNIT ( ) SI_UNIT ( $, .RADIAN. ) );
#101 = MANIFOLD_SOLID_BREP ( 'Cut-Revolve1', #235 ) ;
#102 = EDGE_CURVE ( 'NONE', #111, #233, #293, .T. ) ;
#103 = APPLICATION_CONTEXT ( 'automotive_design' ) ;
#104 = SURFACE_STYLE_USAGE ( .BOTH. , #9 ) ;
#105 = CARTESIAN_POINT ( 'NONE',  ( -0.02556490949999998263, 3.130798458966676147E-18, 0.1535430000000000128 ) ) ;
#106 = CIRCLE ( 'NONE', #120, 0.02556490949999999998 ) ;
#107 = CARTESIAN_POINT ( 'NONE',  ( 0.0000000000000000000, 0.0000000000000000000, 1.481062999999999574 ) ) ;
#108 = EDGE_LOOP ( 'NONE', ( #286, #83 ) ) ;
#109 =( NAMED_UNIT ( * ) PLANE_ANGLE_UNIT ( ) SI_UNIT ( $, .RADIAN. ) );
#110 = AXIS2_PLACEMENT_3D ( 'NONE', #38, #171, #248 ) ;
#111 = VERTEX_POINT ( 'NONE', #266 ) ;
#112 = APPLICATION_PROTOCOL_DEFINITION ( 'draft international standard', 'automotive_design', 1998, #137 ) ;
#113 = EDGE_LOOP ( 'NONE', ( #186, #232, #7, #181 ) ) ;
#114 = DIRECTION ( 'NONE',  ( -1.000000000000000000, 0.0000000000000000000, 1.224646799147353207E-16 ) ) ;
#115 = PRODUCT_CONTEXT ( 'NONE', #103, 'mechanical' ) ;
#116 = CARTESIAN_POINT ( 'NONE',  ( 0.0000000000000000000, 0.0000000000000000000, 0.0000000000000000000 ) ) ;
#117 = ADVANCED_BREP_SHAPE_REPRESENTATION ( 'Micro_RMEM-013-2X', ( #101, #42 ), #179 ) ;
#118 = DIRECTION ( 'NONE',  ( -0.0000000000000000000, -0.0000000000000000000, -1.000000000000000000 ) ) ;
#119 = CARTESIAN_POINT ( 'NONE',  ( 3.834122311549006146E-34, 0.0000000000000000000, 3.130798458966676147E-18 ) ) ;
#120 = AXIS2_PLACEMENT_3D ( 'NONE', #95, #25, #114 ) ;
#121 = FACE_OUTER_BOUND ( 'NONE', #132, .T. ) ;
#122 = CIRCLE ( 'NONE', #210, 0.05905500000000000332 ) ;
#123 =( LENGTH_UNIT ( ) NAMED_UNIT ( * ) SI_UNIT ( $, .METRE. ) );
#124 = DIRECTION ( 'NONE',  ( 0.0000000000000000000, 0.0000000000000000000, -1.000000000000000000 ) ) ;
#125 =( LENGTH_UNIT ( ) NAMED_UNIT ( * ) SI_UNIT ( $, .METRE. ) );
#126 = ADVANCED_FACE ( 'NONE', ( #121 ), #217, .T. ) ;
#127 =( LENGTH_UNIT ( ) NAMED_UNIT ( * ) SI_UNIT ( $, .METRE. ) );
#128 = CIRCLE ( 'NONE', #216, 0.02556490949999999998 ) ;
#129 = STYLED_ITEM ( 'NONE', ( #51 ), #101 ) ;
#130 = DIRECTION ( 'NONE',  ( -1.000000000000000000, 0.0000000000000000000, 0.0000000000000000000 ) ) ;
#131 = LINE ( 'NONE', #33, #77 ) ;
#132 = EDGE_LOOP ( 'NONE', ( #36, #2, #92, #70 ) ) ;
#133 = ADVANCED_FACE ( 'NONE', ( #79 ), #20, .T. ) ;
#134 = ORIENTED_EDGE ( 'NONE', *, *, #194, .F. ) ;
#135 = VERTEX_POINT ( 'NONE', #252 ) ;
#136 = AXIS2_PLACEMENT_3D ( 'NONE', #116, #212, #195 ) ;
#137 = APPLICATION_CONTEXT ( 'automotive_design' ) ;
#138 = DIRECTION ( 'NONE',  ( 0.1736481776669313581, 0.0000000000000000000, 0.9848077530122077983 ) ) ;
#139 = CARTESIAN_POINT ( 'NONE',  ( 0.0000000000000000000, 0.0000000000000000000, 0.0000000000000000000 ) ) ;
#140 = AXIS2_PLACEMENT_3D ( 'NONE', #16, #81, #61 ) ;
#141 = FACE_OUTER_BOUND ( 'NONE', #94, .T. ) ;
#142 = ADVANCED_FACE ( 'NONE', ( #82 ), #28, .T. ) ;
#143 = ORIENTED_EDGE ( 'NONE', *, *, #46, .F. ) ;
#144 = PLANE ( 'NONE',  #206 ) ;
#145 = PRESENTATION_LAYER_ASSIGNMENT (  '', '', ( #129 ) ) ;
#146 = CARTESIAN_POINT ( 'NONE',  ( -0.04405499999999973326, 0.0000000000000000000, 1.496062999999999921 ) ) ;
#147 = PRODUCT ( 'Micro_RMEM-013-2X', 'Micro_RMEM-013-2X', '', ( #115 ) ) ;
#148 = PRODUCT_DEFINITION_FORMATION_WITH_SPECIFIED_SOURCE ( 'ANY', '', #147, .NOT_KNOWN. ) ;
#149 = PRESENTATION_STYLE_ASSIGNMENT (( #269 ) ) ;
#150 = DIRECTION ( 'NONE',  ( -1.224646799147353207E-16, -0.0000000000000000000, -1.000000000000000000 ) ) ;
#151 = DIRECTION ( 'NONE',  ( -0.7071067811865482389, 0.0000000000000000000, -0.7071067811865469066 ) ) ;
#152 = EDGE_CURVE ( 'NONE', #90, #96, #122, .T. ) ;
#153 = ORIENTED_EDGE ( 'NONE', *, *, #29, .F. ) ;
#154 = VECTOR ( 'NONE', #54, 39.37007874015748143 ) ;
#155 = ORIENTED_EDGE ( 'NONE', *, *, #45, .F. ) ;
#156 = DIRECTION ( 'NONE',  ( -0.0000000000000000000, -0.0000000000000000000, -1.000000000000000000 ) ) ;
#157 = CONICAL_SURFACE ( 'NONE', #140, 0.04405499999999973326, 0.7853981633974491672 ) ;
#158 = DIRECTION ( 'NONE',  ( -1.224646799147353207E-16, -0.0000000000000000000, -1.000000000000000000 ) ) ;
#159 = EDGE_CURVE ( 'NONE', #96, #90, #73, .T. ) ;
#160 = ORIENTED_EDGE ( 'NONE', *, *, #159, .T. ) ;
#161 = FACE_OUTER_BOUND ( 'NONE', #63, .T. ) ;
#162 = DIMENSIONAL_EXPONENTS ( 1.000000000000000000, 0.0000000000000000000, 0.0000000000000000000, 0.0000000000000000000, 0.0000000000000000000, 0.0000000000000000000, 0.0000000000000000000 ) ;
#163 = ORIENTED_EDGE ( 'NONE', *, *, #220, .T. ) ;
#164 = EDGE_LOOP ( 'NONE', ( #87, #39, #59, #89 ) ) ;
#165 = CARTESIAN_POINT ( 'NONE',  ( 0.0000000000000000000, 0.0000000000000000000, 0.0000000000000000000 ) ) ;
#166 = DIRECTION ( 'NONE',  ( -1.224646799147353207E-16, -0.0000000000000000000, -1.000000000000000000 ) ) ;
#167 = CARTESIAN_POINT ( 'NONE',  ( 0.0000000000000000000, 0.0000000000000000000, 1.496062999999999921 ) ) ;
#168 = AXIS2_PLACEMENT_3D ( 'NONE', #221, #37, #84 ) ;
#169 = DIRECTION ( 'NONE',  ( 1.000000000000000000, 0.0000000000000000000, 0.0000000000000000000 ) ) ;
#170 = FILL_AREA_STYLE ('',( #273 ) ) ;
#171 = DIRECTION ( 'NONE',  ( 1.224646799147353207E-16, 0.0000000000000000000, 1.000000000000000000 ) ) ;
#172 = AXIS2_PLACEMENT_3D ( 'NONE', #244, #219, #189 ) ;
#173 = CONICAL_SURFACE ( 'NONE', #110, 0.02556490949999999998, 0.1745329251994338637 ) ;
#174 = CIRCLE ( 'NONE', #172, 0.04405499999999973326 ) ;
#175 = CARTESIAN_POINT ( 'NONE',  ( -0.05905500000000000332, 0.0000000000000000000, 1.481062999999999574 ) ) ;
#176 = CARTESIAN_POINT ( 'NONE',  ( -0.05905499999999996169, 0.0000000000000000000, 0.3434747413900008373 ) ) ;
#177 = DIRECTION ( 'NONE',  ( -1.000000000000000000, 0.0000000000000000000, 1.224646799147353207E-16 ) ) ;
#178 = ORIENTED_EDGE ( 'NONE', *, *, #46, .T. ) ;
#179 =( GEOMETRIC_REPRESENTATION_CONTEXT ( 3 ) GLOBAL_UNCERTAINTY_ASSIGNED_CONTEXT ( ( #285 ) ) GLOBAL_UNIT_ASSIGNED_CONTEXT ( ( #203, #109, #58 ) ) REPRESENTATION_CONTEXT ( 'NONE', 'WORKASPACE' ) );
#180 = SURFACE_SIDE_STYLE ('',( #202 ) ) ;
#181 = ORIENTED_EDGE ( 'NONE', *, *, #159, .F. ) ;
#182 = CARTESIAN_POINT ( 'NONE',  ( 0.0000000000000000000, 0.0000000000000000000, 0.0000000000000000000 ) ) ;
#183 = AXIS2_PLACEMENT_3D ( 'NONE', #237, #166, #22 ) ;
#184 = AXIS2_PLACEMENT_3D ( 'NONE', #243, #118, #211 ) ;
#185 = SHAPE_DEFINITION_REPRESENTATION ( #241, #117 ) ;
#186 = ORIENTED_EDGE ( 'NONE', *, *, #188, .F. ) ;
#187 = ORIENTED_EDGE ( 'NONE', *, *, #152, .F. ) ;
#188 = EDGE_CURVE ( 'NONE', #111, #96, #296, .T. ) ;
#189 = DIRECTION ( 'NONE',  ( 1.000000000000000000, 0.0000000000000000000, 0.0000000000000000000 ) ) ;
#190 = CARTESIAN_POINT ( 'NONE',  ( 1.880359434814820563E-17, 0.0000000000000000000, 0.1535430000000000128 ) ) ;
#191 = DIRECTION ( 'NONE',  ( -0.0000000000000000000, -0.0000000000000000000, -1.000000000000000000 ) ) ;
#192 =( NAMED_UNIT ( * ) SI_UNIT ( $, .STERADIAN. ) SOLID_ANGLE_UNIT ( ) );
#193 = CIRCLE ( 'NONE', #288, 0.02556490949999999998 ) ;
#194 = EDGE_CURVE ( 'NONE', #96, #276, #12, .T. ) ;
#195 = DIRECTION ( 'NONE',  ( 1.000000000000000000, 0.0000000000000000000, -0.0000000000000000000 ) ) ;
#196 = DIRECTION ( 'NONE',  ( -1.224646799147353207E-16, -0.0000000000000000000, -1.000000000000000000 ) ) ;
#197 = CARTESIAN_POINT ( 'NONE',  ( -0.02556490949999998263, 5.181475065665685785E-18, 0.1535430000000000128 ) ) ;
#198 = VECTOR ( 'NONE', #191, 39.37007874015748143 ) ;
#199 = VECTOR ( 'NONE', #156, 39.37007874015748143 ) ;
#200 = CYLINDRICAL_SURFACE ( 'NONE', #258, 0.02556490949999999998 ) ;
#201 = EDGE_CURVE ( 'NONE', #204, #275, #254, .T. ) ;
#202 = SURFACE_STYLE_FILL_AREA ( #205 ) ;
#203 =( CONVERSION_BASED_UNIT ( 'INCH', #86 ) LENGTH_UNIT ( ) NAMED_UNIT ( #162 ) );
#204 = VERTEX_POINT ( 'NONE', #197 ) ;
#205 = FILL_AREA_STYLE ('',( #231 ) ) ;
#206 = AXIS2_PLACEMENT_3D ( 'NONE', #75, #72, #267 ) ;
#207 = UNCERTAINTY_MEASURE_WITH_UNIT (LENGTH_MEASURE( 1.000000000000000082E-05 ), #283, 'distance_accuracy_value', 'NONE');
#208 = EDGE_LOOP ( 'NONE', ( #236, #65, #153, #282 ) ) ;
#209 = EDGE_CURVE ( 'NONE', #276, #275, #21, .T. ) ;
#210 = AXIS2_PLACEMENT_3D ( 'NONE', #107, #229, #32 ) ;
#211 = DIRECTION ( 'NONE',  ( -1.000000000000000000, 0.0000000000000000000, 0.0000000000000000000 ) ) ;
#212 = DIRECTION ( 'NONE',  ( 0.0000000000000000000, 0.0000000000000000000, 1.000000000000000000 ) ) ;
#213 = DIMENSIONAL_EXPONENTS ( 1.000000000000000000, 0.0000000000000000000, 0.0000000000000000000, 0.0000000000000000000, 0.0000000000000000000, 0.0000000000000000000, 0.0000000000000000000 ) ;
#214 = ADVANCED_FACE ( 'NONE', ( #34 ), #200, .T. ) ;
#215 = DIRECTION ( 'NONE',  ( -1.224646799147353207E-16, -0.0000000000000000000, -1.000000000000000000 ) ) ;
#216 = AXIS2_PLACEMENT_3D ( 'NONE', #190, #5, #4 ) ;
#217 = CONICAL_SURFACE ( 'NONE', #168, 0.02556490949999999998, 0.1745329251994338637 ) ;
#218 = DIRECTION ( 'NONE',  ( -1.000000000000000000, 0.0000000000000000000, 1.224646799147353207E-16 ) ) ;
#219 = DIRECTION ( 'NONE',  ( 0.0000000000000000000, 0.0000000000000000000, 1.000000000000000000 ) ) ;
#220 = EDGE_CURVE ( 'NONE', #62, #135, #193, .T. ) ;
#221 = CARTESIAN_POINT ( 'NONE',  ( 1.880359434814820563E-17, 0.0000000000000000000, 0.1535430000000000128 ) ) ;
#222 = STYLED_ITEM ( 'NONE', ( #149 ), #117 ) ;
#223 = CARTESIAN_POINT ( 'NONE',  ( 0.05905500000000000332, 7.232151672364695422E-18, 1.496062999999999921 ) ) ;
#224 =( CONVERSION_BASED_UNIT ( 'INCH', #255 ) LENGTH_UNIT ( ) NAMED_UNIT ( #213 ) );
#225 = CARTESIAN_POINT ( 'NONE',  ( 0.0000000000000000000, 0.0000000000000000000, 1.481062999999999574 ) ) ;
#226 = CARTESIAN_POINT ( 'NONE',  ( 0.05905500000000004496, 7.232151672364700045E-18, 0.3434747413900008373 ) ) ;
#227 = AXIS2_PLACEMENT_3D ( 'NONE', #167, #97, #169 ) ;
#228 = COLOUR_RGB ( '',0.7921568627450980005, 0.8196078431372548767, 0.9333333333333333481 ) ;
#229 = DIRECTION ( 'NONE',  ( 0.0000000000000000000, 0.0000000000000000000, -1.000000000000000000 ) ) ;
#230 = VERTEX_POINT ( 'NONE', #289 ) ;
#231 = FILL_AREA_STYLE_COLOUR ( '', #18 ) ;
#232 = ORIENTED_EDGE ( 'NONE', *, *, #8, .F. ) ;
#233 = VERTEX_POINT ( 'NONE', #146 ) ;
#234 = UNCERTAINTY_MEASURE_WITH_UNIT (LENGTH_MEASURE( 1.000000000000000082E-05 ), #224, 'distance_accuracy_value', 'NONE');
#235 = CLOSED_SHELL ( 'NONE', ( #133, #126, #272, #64, #52, #242, #142, #263, #214, #74 ) ) ;
#236 = ORIENTED_EDGE ( 'NONE', *, *, #152, .T. ) ;
#237 = CARTESIAN_POINT ( 'NONE',  ( 1.880359434814820563E-17, 0.0000000000000000000, 0.1535430000000000128 ) ) ;
#238 = VECTOR ( 'NONE', #17, 39.37007874015747433 ) ;
#239 = DIRECTION ( 'NONE',  ( 1.000000000000000000, 0.0000000000000000000, 0.0000000000000000000 ) ) ;
#240 = CARTESIAN_POINT ( 'NONE',  ( 0.02556490950000001733, 0.0000000000000000000, 0.1535430000000000128 ) ) ;
#241 = PRODUCT_DEFINITION_SHAPE ( 'NONE', 'NONE',  #245 ) ;
#242 = ADVANCED_FACE ( 'NONE', ( #99 ), #144, .T. ) ;
#243 = CARTESIAN_POINT ( 'NONE',  ( 0.0000000000000000000, 0.0000000000000000000, 1.496062999999999921 ) ) ;
#244 = CARTESIAN_POINT ( 'NONE',  ( 0.0000000000000000000, 0.0000000000000000000, 1.496062999999999921 ) ) ;
#245 = PRODUCT_DEFINITION ( 'UNKNOWN', '', #148, #88 ) ;
#246 = EDGE_CURVE ( 'NONE', #204, #62, #249, .T. ) ;
#247 = DIRECTION ( 'NONE',  ( 1.000000000000000000, 0.0000000000000000000, 0.0000000000000000000 ) ) ;
#248 = DIRECTION ( 'NONE',  ( 1.000000000000000000, 0.0000000000000000000, 0.0000000000000000000 ) ) ;
#249 = LINE ( 'NONE', #13, #154 ) ;
#250 = VECTOR ( 'NONE', #60, 39.37007874015748143 ) ;
#251 = EDGE_LOOP ( 'NONE', ( #259, #253, #187, #50 ) ) ;
#252 = CARTESIAN_POINT ( 'NONE',  ( 0.02556490949999999998, 3.130798458966676147E-18, 0.0000000000000000000 ) ) ;
#253 = ORIENTED_EDGE ( 'NONE', *, *, #188, .T. ) ;
#254 = LINE ( 'NONE', #105, #238 ) ;
#255 = LENGTH_MEASURE_WITH_UNIT ( LENGTH_MEASURE( 0.02539999999999999897 ), #125 );
#256 = ORIENTED_EDGE ( 'NONE', *, *, #246, .T. ) ;
#257 = CIRCLE ( 'NONE', #183, 0.02556490949999999998 ) ;
#258 = AXIS2_PLACEMENT_3D ( 'NONE', #182, #158, #279 ) ;
#259 = ORIENTED_EDGE ( 'NONE', *, *, #102, .F. ) ;
#260 = DIRECTION ( 'NONE',  ( -0.0000000000000000000, -0.0000000000000000000, -1.000000000000000000 ) ) ;
#261 = AXIS2_PLACEMENT_3D ( 'NONE', #165, #69, #177 ) ;
#262 = ORIENTED_EDGE ( 'NONE', *, *, #295, .F. ) ;
#263 = ADVANCED_FACE ( 'NONE', ( #56 ), #173, .T. ) ;
#264 = DIRECTION ( 'NONE',  ( 1.000000000000000000, 0.0000000000000000000, 0.0000000000000000000 ) ) ;
#265 = AXIS2_PLACEMENT_3D ( 'NONE', #225, #11, #294 ) ;
#266 = CARTESIAN_POINT ( 'NONE',  ( 0.04405499999999973326, 6.313666573004162521E-18, 1.496062999999999921 ) ) ;
#267 = DIRECTION ( 'NONE',  ( 1.000000000000000000, 0.0000000000000000000, -0.0000000000000000000 ) ) ;
#268 = EDGE_CURVE ( 'NONE', #233, #90, #76, .T. ) ;
#269 = SURFACE_STYLE_USAGE ( .BOTH. , #180 ) ;
#270 = AXIS2_PLACEMENT_3D ( 'NONE', #49, #260, #47 ) ;
#271 = CARTESIAN_POINT ( 'NONE',  ( 0.04405499999999973326, 5.395181473643630390E-18, 1.496062999999999921 ) ) ;
#272 = ADVANCED_FACE ( 'NONE', ( #14 ), #157, .T. ) ;
#273 = FILL_AREA_STYLE_COLOUR ( '', #228 ) ;
#274 = VECTOR ( 'NONE', #151, 39.37007874015748143 ) ;
#275 = VERTEX_POINT ( 'NONE', #176 ) ;
#276 = VERTEX_POINT ( 'NONE', #226 ) ;
#277 = ORIENTED_EDGE ( 'NONE', *, *, #209, .T. ) ;
#278 = ORIENTED_EDGE ( 'NONE', *, *, #26, .T. ) ;
#279 = DIRECTION ( 'NONE',  ( -1.000000000000000000, 0.0000000000000000000, 1.224646799147353207E-16 ) ) ;
#280 = FACE_OUTER_BOUND ( 'NONE', #208, .T. ) ;
#281 = DIRECTION ( 'NONE',  ( 0.0000000000000000000, 0.0000000000000000000, 1.000000000000000000 ) ) ;
#282 = ORIENTED_EDGE ( 'NONE', *, *, #23, .F. ) ;
#283 =( CONVERSION_BASED_UNIT ( 'INCH', #31 ) LENGTH_UNIT ( ) NAMED_UNIT ( #93 ) );
#284 = CYLINDRICAL_SURFACE ( 'NONE', #270, 0.05905500000000000332 ) ;
#285 = UNCERTAINTY_MEASURE_WITH_UNIT (LENGTH_MEASURE( 1.000000000000000082E-05 ), #203, 'distance_accuracy_value', 'NONE');
#286 = ORIENTED_EDGE ( 'NONE', *, *, #8, .T. ) ;
#287 = SURFACE_STYLE_FILL_AREA ( #170 ) ;
#288 = AXIS2_PLACEMENT_3D ( 'NONE', #119, #290, #218 ) ;
#289 = CARTESIAN_POINT ( 'NONE',  ( 0.02556490950000001733, 0.0000000000000000000, 0.1535430000000000128 ) ) ;
#290 = DIRECTION ( 'NONE',  ( -1.224646799147353207E-16, -0.0000000000000000000, -1.000000000000000000 ) ) ;
#291 = VECTOR ( 'NONE', #138, 39.37007874015748143 ) ;
#292 = APPLICATION_PROTOCOL_DEFINITION ( 'draft international standard', 'automotive_design', 1998, #103 ) ;
#293 = CIRCLE ( 'NONE', #227, 0.04405499999999973326 ) ;
#294 = DIRECTION ( 'NONE',  ( 1.000000000000000000, 0.0000000000000000000, 0.0000000000000000000 ) ) ;
#295 = EDGE_CURVE ( 'NONE', #230, #135, #131, .T. ) ;
#296 = LINE ( 'NONE', #271, #250 ) ;
#297 = MECHANICAL_DESIGN_GEOMETRIC_PRESENTATION_REPRESENTATION (  '', ( #222 ), #6 ) ;
#298 = ORIENTED_EDGE ( 'NONE', *, *, #201, .F. ) ;
#299 = PRODUCT_RELATED_PRODUCT_CATEGORY ( 'part', '', ( #147 ) ) ;
ENDSEC;
END-ISO-10303-21;
