ISO-10303-21;
HEADER;
FILE_DESCRIPTION (( 'STEP AP214' ),
    '1' );
FILE_NAME ('83876.STEP',
    '2023-07-12T13:07:50',
    ( '' ),
    ( '' ),
    'SwSTEP 2.0',
    'SolidWorks 2023',
    '' );
FILE_SCHEMA (( 'AUTOMOTIVE_DESIGN' ));
ENDSEC;

DATA;
#1 = VECTOR ( 'NONE', #228, 39.37007874015748143 ) ;
#2 =( GEOMETRIC_REPRESENTATION_CONTEXT ( 3 ) GLOBAL_UNCERTAINTY_ASSIGNED_CONTEXT ( ( #272 ) ) GLOBAL_UNIT_ASSIGNED_CONTEXT ( ( #172, #286, #246 ) ) REPRESENTATION_CONTEXT ( 'NONE', 'WORKASPACE' ) );
#3 = ADVANCED_FACE ( 'NONE', ( #102 ), #270, .T. ) ;
#4 =( CONVERSION_BASED_UNIT ( 'INCH', #215 ) LENGTH_UNIT ( ) NAMED_UNIT ( #264 ) );
#5 = LENGTH_MEASURE_WITH_UNIT ( LENGTH_MEASURE( 0.02539999999999999897 ), #141 );
#6 = PRODUCT_CONTEXT ( 'NONE', #55, 'mechanical' ) ;
#7 = PRESENTATION_LAYER_ASSIGNMENT (  '', '', ( #58 ) ) ;
#8 = VERTEX_POINT ( 'NONE', #209 ) ;
#9 =( NAMED_UNIT ( * ) PLANE_ANGLE_UNIT ( ) SI_UNIT ( $, .RADIAN. ) );
#10 = APPLICATION_PROTOCOL_DEFINITION ( 'draft international standard', 'automotive_design', 1998, #55 ) ;
#11 = ORIENTED_EDGE ( 'NONE', *, *, #43, .T. ) ;
#12 = UNCERTAINTY_MEASURE_WITH_UNIT (LENGTH_MEASURE( 1.000000000000000082E-05 ), #240, 'distance_accuracy_value', 'NONE');
#13 = CARTESIAN_POINT ( 'NONE',  ( -0.09374999999999998612, 0.06874999999999974187, 0.000000000000000000 ) ) ;
#14 = AXIS2_PLACEMENT_3D ( 'NONE', #127, #300, #208 ) ;
#15 = EDGE_LOOP ( 'NONE', ( #227, #98 ) ) ;
#16 = DIRECTION ( 'NONE',  ( -1.000000000000000000, 0.000000000000000000, 0.000000000000000000 ) ) ;
#17 = EDGE_CURVE ( 'NONE', #103, #223, #49, .T. ) ;
#18 =( LENGTH_UNIT ( ) NAMED_UNIT ( * ) SI_UNIT ( $, .METRE. ) );
#19 = STYLED_ITEM ( 'NONE', ( #309 ), #279 ) ;
#20 = DIRECTION ( 'NONE',  ( -1.000000000000000000, 0.000000000000000000, 0.000000000000000000 ) ) ;
#21 = FILL_AREA_STYLE ('',( #233 ) ) ;
#22 = DIRECTION ( 'NONE',  ( -1.000000000000000000, -2.698347612634933429E-17, 0.000000000000000000 ) ) ;
#23 = SURFACE_STYLE_FILL_AREA ( #21 ) ;
#24 = FILL_AREA_STYLE_COLOUR ( '', #251 ) ;
#25 = DIRECTION ( 'NONE',  ( 1.000000000000000000, 0.000000000000000000, 0.000000000000000000 ) ) ;
#26 = COLOUR_RGB ( '',1.000000000000000000, 0.000000000000000000, 0.000000000000000000 ) ;
#27 = VECTOR ( 'NONE', #147, 39.37007874015748854 ) ;
#28 = AXIS2_PLACEMENT_3D ( 'NONE', #185, #63, #80 ) ;
#29 = DIMENSIONAL_EXPONENTS ( 1.000000000000000000, 0.000000000000000000, 0.000000000000000000, 0.000000000000000000, 0.000000000000000000, 0.000000000000000000, 0.000000000000000000 ) ;
#30 = ORIENTED_EDGE ( 'NONE', *, *, #59, .T. ) ;
#31 = STYLED_ITEM ( 'NONE', ( #170 ), #3 ) ;
#32 = CONICAL_SURFACE ( 'NONE', #95, 0.02500000000000000139, 0.7853981633974500554 ) ;
#33 = EDGE_CURVE ( 'NONE', #149, #103, #242, .T. ) ;
#34 = CARTESIAN_POINT ( 'NONE',  ( 1.820269959653161649E-35, -6.745869031587334151E-19, 0.000000000000000000 ) ) ;
#35 = CARTESIAN_POINT ( 'NONE',  ( -0.02500000000000000139, -1.349173806317466830E-18, 0.000000000000000000 ) ) ;
#36 = ADVANCED_FACE ( 'NONE', ( #301 ), #88, .F. ) ;
#37 = VERTEX_POINT ( 'NONE', #210 ) ;
#38 = SURFACE_STYLE_USAGE ( .BOTH. , #253 ) ;
#39 = MECHANICAL_DESIGN_GEOMETRIC_PRESENTATION_REPRESENTATION (  '', ( #19 ), #153 ) ;
#40 = SURFACE_STYLE_FILL_AREA ( #65 ) ;
#41 = UNCERTAINTY_MEASURE_WITH_UNIT (LENGTH_MEASURE( 1.000000000000000082E-05 ), #4, 'distance_accuracy_value', 'NONE');
#42 =( NAMED_UNIT ( * ) PLANE_ANGLE_UNIT ( ) SI_UNIT ( $, .RADIAN. ) );
#43 = EDGE_CURVE ( 'NONE', #128, #8, #189, .T. ) ;
#44 = DIRECTION ( 'NONE',  ( 2.698347612634933429E-17, -1.000000000000000000, -0.000000000000000000 ) ) ;
#45 = CLOSED_SHELL ( 'NONE', ( #232, #51, #139, #36 ) ) ;
#46 =( NAMED_UNIT ( * ) SI_UNIT ( $, .STERADIAN. ) SOLID_ANGLE_UNIT ( ) );
#47 = FACE_OUTER_BOUND ( 'NONE', #77, .T. ) ;
#48 = DIRECTION ( 'NONE',  ( -1.232950076816922318E-16, 1.000000000000000000, -0.000000000000000000 ) ) ;
#49 = LINE ( 'NONE', #207, #196 ) ;
#50 = SURFACE_SIDE_STYLE ('',( #256 ) ) ;
#51 = ADVANCED_FACE ( 'NONE', ( #71 ), #67, .F. ) ;
#52 =( LENGTH_UNIT ( ) NAMED_UNIT ( * ) SI_UNIT ( $, .METRE. ) );
#53 = SHAPE_DEFINITION_REPRESENTATION ( #295, #154 ) ;
#54 = ORIENTED_EDGE ( 'NONE', *, *, #118, .T. ) ;
#55 = APPLICATION_CONTEXT ( 'automotive_design' ) ;
#56 = CARTESIAN_POINT ( 'NONE',  ( 0.000000000000000000, 0.000000000000000000, 0.000000000000000000 ) ) ;
#57 = PRODUCT_DEFINITION_CONTEXT ( 'detailed design', #109, 'design' ) ;
#58 = STYLED_ITEM ( 'NONE', ( #235 ), #293 ) ;
#59 = EDGE_CURVE ( 'NONE', #149, #37, #90, .T. ) ;
#60 = ORIENTED_EDGE ( 'NONE', *, *, #206, .T. ) ;
#61 = CARTESIAN_POINT ( 'NONE',  ( 0.02500000000000000139, 0.000000000000000000, 7.271340369937408974E-18 ) ) ;
#62 = EDGE_LOOP ( 'NONE', ( #176, #296, #202, #167 ) ) ;
#63 = DIRECTION ( 'NONE',  ( -1.232950076816922318E-16, 1.000000000000000000, -0.000000000000000000 ) ) ;
#64 =( NAMED_UNIT ( * ) PLANE_ANGLE_UNIT ( ) SI_UNIT ( $, .RADIAN. ) );
#65 = FILL_AREA_STYLE ('',( #224 ) ) ;
#66 = COLOUR_RGB ( '',0.7921568627450980005, 0.8196078431372548767, 0.9333333333333333481 ) ;
#67 = PLANE ( 'NONE',  #142 ) ;
#68 = CARTESIAN_POINT ( 'NONE',  ( -0.09375000000000012490, 2.000000000000000000, 0.000000000000000000 ) ) ;
#69 = CIRCLE ( 'NONE', #211, 0.02500000000000000139 ) ;
#70 = AXIS2_PLACEMENT_3D ( 'NONE', #182, #230, #294 ) ;
#71 = FACE_OUTER_BOUND ( 'NONE', #119, .T. ) ;
#72 = DIRECTION ( 'NONE',  ( -1.000000000000000000, -2.698347612634933429E-17, 0.000000000000000000 ) ) ;
#73 = SURFACE_SIDE_STYLE ('',( #278 ) ) ;
#74 = CARTESIAN_POINT ( 'NONE',  ( -1.855113983686509741E-18, 0.06874999999999974187, 0.000000000000000000 ) ) ;
#75 = AXIS2_PLACEMENT_3D ( 'NONE', #177, #273, #22 ) ;
#76 = MECHANICAL_DESIGN_GEOMETRIC_PRESENTATION_REPRESENTATION (  '', ( #58 ), #198 ) ;
#77 = EDGE_LOOP ( 'NONE', ( #143, #30, #126, #173 ) ) ;
#78 = SURFACE_STYLE_USAGE ( .BOTH. , #168 ) ;
#79 = CIRCLE ( 'NONE', #89, 0.09375000000000005551 ) ;
#80 = DIRECTION ( 'NONE',  ( -1.000000000000000000, 0.000000000000000000, 0.000000000000000000 ) ) ;
#81 = ORIENTED_EDGE ( 'NONE', *, *, #217, .T. ) ;
#82 = CARTESIAN_POINT ( 'NONE',  ( 0.09374999999999998612, 2.000000000000000000, 0.000000000000000000 ) ) ;
#83 = AXIS2_PLACEMENT_3D ( 'NONE', #34, #122, #72 ) ;
#84 = DIRECTION ( 'NONE',  ( 1.000000000000000000, 2.698347612634933429E-17, 0.000000000000000000 ) ) ;
#85 =( CONVERSION_BASED_UNIT ( 'INCH', #199 ) LENGTH_UNIT ( ) NAMED_UNIT ( #285 ) );
#86 = CARTESIAN_POINT ( 'NONE',  ( -0.09374999999999965306, 0.06874999999999963085, 0.000000000000000000 ) ) ;
#87 = CARTESIAN_POINT ( 'NONE',  ( 0.09374999999999998612, 0.06874999999999964473, 1.148106374200643555E-17 ) ) ;
#88 = PLANE ( 'NONE',  #178 ) ;
#89 = AXIS2_PLACEMENT_3D ( 'NONE', #254, #48, #20 ) ;
#90 = LINE ( 'NONE', #158, #1 ) ;
#91 = PLANE ( 'NONE',  #250 ) ;
#92 = EDGE_CURVE ( 'NONE', #37, #223, #79, .T. ) ;
#93 = DIRECTION ( 'NONE',  ( 1.000000000000000000, 0.000000000000000000, 0.000000000000000000 ) ) ;
#94 = LENGTH_MEASURE_WITH_UNIT ( LENGTH_MEASURE( 0.02539999999999999897 ), #191 );
#95 = AXIS2_PLACEMENT_3D ( 'NONE', #225, #307, #114 ) ;
#96 = LENGTH_MEASURE_WITH_UNIT ( LENGTH_MEASURE( 0.02539999999999999897 ), #18 );
#97 = FILL_AREA_STYLE_COLOUR ( '', #252 ) ;
#98 = ORIENTED_EDGE ( 'NONE', *, *, #282, .F. ) ;
#99 = ORIENTED_EDGE ( 'NONE', *, *, #110, .F. ) ;
#100 = CYLINDRICAL_SURFACE ( 'NONE', #70, 0.09374999999999994449 ) ;
#101 = STYLED_ITEM ( 'NONE', ( #274 ), #190 ) ;
#102 = FACE_OUTER_BOUND ( 'NONE', #15, .T. ) ;
#103 = VERTEX_POINT ( 'NONE', #86 ) ;
#104 = AXIS2_PLACEMENT_3D ( 'NONE', #303, #212, #306 ) ;
#105 = LINE ( 'NONE', #35, #165 ) ;
#106 =( NAMED_UNIT ( * ) SI_UNIT ( $, .STERADIAN. ) SOLID_ANGLE_UNIT ( ) );
#107 = DIRECTION ( 'NONE',  ( 2.698347612634933429E-17, -1.000000000000000000, -0.000000000000000000 ) ) ;
#108 = DIRECTION ( 'NONE',  ( -1.000000000000000000, -1.232950076816922318E-16, 0.000000000000000000 ) ) ;
#109 = APPLICATION_CONTEXT ( 'automotive_design' ) ;
#110 = EDGE_CURVE ( 'NONE', #8, #128, #69, .T. ) ;
#111 = CIRCLE ( 'NONE', #257, 0.09374999999999998612 ) ;
#112 = DIRECTION ( 'NONE',  ( -1.232950076816922318E-16, 1.000000000000000000, -0.000000000000000000 ) ) ;
#113 = DIMENSIONAL_EXPONENTS ( 1.000000000000000000, 0.000000000000000000, 0.000000000000000000, 0.000000000000000000, 0.000000000000000000, 0.000000000000000000, 0.000000000000000000 ) ;
#114 = DIRECTION ( 'NONE',  ( -1.000000000000000000, -2.698347612634933429E-17, 0.000000000000000000 ) ) ;
#115 = ADVANCED_FACE ( 'NONE', ( #131 ), #218, .T. ) ;
#116 = STYLED_ITEM ( 'NONE', ( #291 ), #115 ) ;
#117 =( NAMED_UNIT ( * ) PLANE_ANGLE_UNIT ( ) SI_UNIT ( $, .RADIAN. ) );
#118 = EDGE_CURVE ( 'NONE', #197, #298, #111, .T. ) ;
#119 = EDGE_LOOP ( 'NONE', ( #268, #201 ) ) ;
#120 =( GEOMETRIC_REPRESENTATION_CONTEXT ( 3 ) GLOBAL_UNCERTAINTY_ASSIGNED_CONTEXT ( ( #123 ) ) GLOBAL_UNIT_ASSIGNED_CONTEXT ( ( #259, #9, #239 ) ) REPRESENTATION_CONTEXT ( 'NONE', 'WORKASPACE' ) );
#121 = ORIENTED_EDGE ( 'NONE', *, *, #217, .F. ) ;
#122 = DIRECTION ( 'NONE',  ( -2.698347612634933429E-17, 1.000000000000000000, 0.000000000000000000 ) ) ;
#123 = UNCERTAINTY_MEASURE_WITH_UNIT (LENGTH_MEASURE( 1.000000000000000082E-05 ), #259, 'distance_accuracy_value', 'NONE');
#124 = ORIENTED_EDGE ( 'NONE', *, *, #282, .T. ) ;
#125 = DIRECTION ( 'NONE',  ( -0.7071067811865486830, 0.7071067811865462405, 0.000000000000000000 ) ) ;
#126 = ORIENTED_EDGE ( 'NONE', *, *, #258, .F. ) ;
#127 = CARTESIAN_POINT ( 'NONE',  ( 1.768811436279005459E-16, 0.06874999999999964473, 0.000000000000000000 ) ) ;
#128 = VERTEX_POINT ( 'NONE', #61 ) ;
#129 = CARTESIAN_POINT ( 'NONE',  ( 1.768811436279005459E-16, 0.06874999999999974187, 0.000000000000000000 ) ) ;
#130 = SURFACE_STYLE_USAGE ( .BOTH. , #255 ) ;
#131 = FACE_OUTER_BOUND ( 'NONE', #146, .T. ) ;
#132 = DIRECTION ( 'NONE',  ( 2.698347612634933429E-17, -1.000000000000000000, -0.000000000000000000 ) ) ;
#133 = PRODUCT_RELATED_PRODUCT_CATEGORY ( 'part', '', ( #308 ) ) ;
#134 = UNCERTAINTY_MEASURE_WITH_UNIT (LENGTH_MEASURE( 1.000000000000000082E-05 ), #85, 'distance_accuracy_value', 'NONE');
#135 = SURFACE_STYLE_USAGE ( .BOTH. , #50 ) ;
#136 =( GEOMETRIC_REPRESENTATION_CONTEXT ( 3 ) GLOBAL_UNCERTAINTY_ASSIGNED_CONTEXT ( ( #12 ) ) GLOBAL_UNIT_ASSIGNED_CONTEXT ( ( #240, #64, #150 ) ) REPRESENTATION_CONTEXT ( 'NONE', 'WORKASPACE' ) );
#137 = FILL_AREA_STYLE ('',( #187 ) ) ;
#138 =( CONVERSION_BASED_UNIT ( 'INCH', #160 ) LENGTH_UNIT ( ) NAMED_UNIT ( #113 ) );
#139 = ADVANCED_FACE ( 'NONE', ( #288 ), #100, .T. ) ;
#140 = ORIENTED_EDGE ( 'NONE', *, *, #258, .T. ) ;
#141 =( LENGTH_UNIT ( ) NAMED_UNIT ( * ) SI_UNIT ( $, .METRE. ) );
#142 = AXIS2_PLACEMENT_3D ( 'NONE', #129, #156, #108 ) ;
#143 = ORIENTED_EDGE ( 'NONE', *, *, #151, .T. ) ;
#144 = COLOUR_RGB ( '',1.000000000000000000, 0.000000000000000000, 0.000000000000000000 ) ;
#145 = SURFACE_STYLE_FILL_AREA ( #195 ) ;
#146 = EDGE_LOOP ( 'NONE', ( #247, #60, #124, #121 ) ) ;
#147 = DIRECTION ( 'NONE',  ( 0.7071067811865486830, 0.7071067811865462405, 8.659560562354947649E-17 ) ) ;
#148 = CARTESIAN_POINT ( 'NONE',  ( 0.09374999999999998612, 0.06874999999999974187, 1.148106374200643401E-17 ) ) ;
#149 = VERTEX_POINT ( 'NONE', #87 ) ;
#150 =( NAMED_UNIT ( * ) SI_UNIT ( $, .STERADIAN. ) SOLID_ANGLE_UNIT ( ) );
#151 = EDGE_CURVE ( 'NONE', #103, #149, #214, .T. ) ;
#152 = UNCERTAINTY_MEASURE_WITH_UNIT (LENGTH_MEASURE( 1.000000000000000082E-05 ), #192, 'distance_accuracy_value', 'NONE');
#153 =( GEOMETRIC_REPRESENTATION_CONTEXT ( 3 ) GLOBAL_UNCERTAINTY_ASSIGNED_CONTEXT ( ( #181 ) ) GLOBAL_UNIT_ASSIGNED_CONTEXT ( ( #138, #234, #238 ) ) REPRESENTATION_CONTEXT ( 'NONE', 'WORKASPACE' ) );
#154 = ADVANCED_BREP_SHAPE_REPRESENTATION ( '83876', ( #190, #293, #260 ), #136 ) ;
#155 = FACE_OUTER_BOUND ( 'NONE', #220, .T. ) ;
#156 = DIRECTION ( 'NONE',  ( -1.232950076816922318E-16, 1.000000000000000000, 0.000000000000000000 ) ) ;
#157 = FILL_AREA_STYLE_COLOUR ( '', #144 ) ;
#158 = CARTESIAN_POINT ( 'NONE',  ( 0.09374999999999987510, 2.000000000000000000, 1.148106374200642938E-17 ) ) ;
#159 = CARTESIAN_POINT ( 'NONE',  ( -1.855113983686509741E-18, 0.06874999999999974187, 0.000000000000000000 ) ) ;
#160 = LENGTH_MEASURE_WITH_UNIT ( LENGTH_MEASURE( 0.02539999999999999897 ), #52 );
#161 = DIMENSIONAL_EXPONENTS ( 1.000000000000000000, 0.000000000000000000, 0.000000000000000000, 0.000000000000000000, 0.000000000000000000, 0.000000000000000000, 0.000000000000000000 ) ;
#162 = CLOSED_SHELL ( 'NONE', ( #115, #3, #279, #297 ) ) ;
#163 = PRESENTATION_LAYER_ASSIGNMENT (  '', '', ( #19 ) ) ;
#164 = DIMENSIONAL_EXPONENTS ( 1.000000000000000000, 0.000000000000000000, 0.000000000000000000, 0.000000000000000000, 0.000000000000000000, 0.000000000000000000, 0.000000000000000000 ) ;
#165 = VECTOR ( 'NONE', #125, 39.37007874015748854 ) ;
#166 = STYLED_ITEM ( 'NONE', ( #244 ), #297 ) ;
#167 = ORIENTED_EDGE ( 'NONE', *, *, #92, .F. ) ;
#168 = SURFACE_SIDE_STYLE ('',( #40 ) ) ;
#169 = SURFACE_SIDE_STYLE ('',( #145 ) ) ;
#170 = PRESENTATION_STYLE_ASSIGNMENT (( #78 ) ) ;
#171 = CIRCLE ( 'NONE', #229, 0.09375000000000005551 ) ;
#172 =( CONVERSION_BASED_UNIT ( 'INCH', #94 ) LENGTH_UNIT ( ) NAMED_UNIT ( #261 ) );
#173 = ORIENTED_EDGE ( 'NONE', *, *, #17, .F. ) ;
#174 = FILL_AREA_STYLE ('',( #157 ) ) ;
#175 = LENGTH_MEASURE_WITH_UNIT ( LENGTH_MEASURE( 0.02539999999999999897 ), #263 );
#176 = ORIENTED_EDGE ( 'NONE', *, *, #59, .F. ) ;
#177 = CARTESIAN_POINT ( 'NONE',  ( -1.855113983686509741E-18, 0.06874999999999974187, 0.000000000000000000 ) ) ;
#178 = AXIS2_PLACEMENT_3D ( 'NONE', #82, #183, #299 ) ;
#179 =( NAMED_UNIT ( * ) PLANE_ANGLE_UNIT ( ) SI_UNIT ( $, .RADIAN. ) );
#180 = CARTESIAN_POINT ( 'NONE',  ( 1.820269959653161649E-35, -6.745869031587334151E-19, 0.000000000000000000 ) ) ;
#181 = UNCERTAINTY_MEASURE_WITH_UNIT (LENGTH_MEASURE( 1.000000000000000082E-05 ), #138, 'distance_accuracy_value', 'NONE');
#182 = CARTESIAN_POINT ( 'NONE',  ( -6.123233995736763571E-17, 2.000000000000000000, 0.000000000000000000 ) ) ;
#183 = DIRECTION ( 'NONE',  ( 1.232950076816922318E-16, -1.000000000000000000, 0.000000000000000000 ) ) ;
#184 = COLOUR_RGB ( '',0.7921568627450980005, 0.8196078431372548767, 0.9333333333333333481 ) ;
#185 = CARTESIAN_POINT ( 'NONE',  ( -6.123233995736763571E-17, 2.000000000000000000, 0.000000000000000000 ) ) ;
#186 = FILL_AREA_STYLE ('',( #24 ) ) ;
#187 = FILL_AREA_STYLE_COLOUR ( '', #184 ) ;
#188 =( NAMED_UNIT ( * ) SI_UNIT ( $, .STERADIAN. ) SOLID_ANGLE_UNIT ( ) );
#189 = CIRCLE ( 'NONE', #280, 0.02500000000000000139 ) ;
#190 = MANIFOLD_SOLID_BREP ( 'Revolve - Cutting Edge', #162 ) ;
#191 =( LENGTH_UNIT ( ) NAMED_UNIT ( * ) SI_UNIT ( $, .METRE. ) );
#192 =( CONVERSION_BASED_UNIT ( 'INCH', #96 ) LENGTH_UNIT ( ) NAMED_UNIT ( #164 ) );
#193 =( LENGTH_UNIT ( ) NAMED_UNIT ( * ) SI_UNIT ( $, .METRE. ) );
#194 = PRODUCT_DEFINITION ( 'UNKNOWN', '', #283, #57 ) ;
#195 = FILL_AREA_STYLE ('',( #97 ) ) ;
#196 = VECTOR ( 'NONE', #112, 39.37007874015748143 ) ;
#197 = VERTEX_POINT ( 'NONE', #13 ) ;
#198 =( GEOMETRIC_REPRESENTATION_CONTEXT ( 3 ) GLOBAL_UNCERTAINTY_ASSIGNED_CONTEXT ( ( #41 ) ) GLOBAL_UNIT_ASSIGNED_CONTEXT ( ( #4, #117, #188 ) ) REPRESENTATION_CONTEXT ( 'NONE', 'WORKASPACE' ) );
#199 = LENGTH_MEASURE_WITH_UNIT ( LENGTH_MEASURE( 0.02539999999999999897 ), #193 );
#200 = APPLICATION_PROTOCOL_DEFINITION ( 'draft international standard', 'automotive_design', 1998, #109 ) ;
#201 = ORIENTED_EDGE ( 'NONE', *, *, #33, .F. ) ;
#202 = ORIENTED_EDGE ( 'NONE', *, *, #17, .T. ) ;
#203 =( GEOMETRIC_REPRESENTATION_CONTEXT ( 3 ) GLOBAL_UNCERTAINTY_ASSIGNED_CONTEXT ( ( #152 ) ) GLOBAL_UNIT_ASSIGNED_CONTEXT ( ( #192, #42, #106 ) ) REPRESENTATION_CONTEXT ( 'NONE', 'WORKASPACE' ) );
#204 = AXIS2_PLACEMENT_3D ( 'NONE', #74, #213, #93 ) ;
#205 = CYLINDRICAL_SURFACE ( 'NONE', #28, 0.09374999999999994449 ) ;
#206 = EDGE_CURVE ( 'NONE', #128, #298, #305, .T. ) ;
#207 = CARTESIAN_POINT ( 'NONE',  ( -0.09375000000000001388, 2.000000000000000000, 0.000000000000000000 ) ) ;
#208 = DIRECTION ( 'NONE',  ( -1.000000000000000000, -9.106159978880894651E-17, 0.000000000000000000 ) ) ;
#209 = CARTESIAN_POINT ( 'NONE',  ( -0.02500000000000000139, -1.349173806317466830E-18, 0.000000000000000000 ) ) ;
#210 = CARTESIAN_POINT ( 'NONE',  ( 0.09374999999999998612, 2.000000000000000000, 1.148106374200643555E-17 ) ) ;
#211 = AXIS2_PLACEMENT_3D ( 'NONE', #180, #132, #231 ) ;
#212 = DIRECTION ( 'NONE',  ( -1.232950076816922318E-16, 1.000000000000000000, -0.000000000000000000 ) ) ;
#213 = DIRECTION ( 'NONE',  ( 2.698347612634933429E-17, -1.000000000000000000, -0.000000000000000000 ) ) ;
#214 = CIRCLE ( 'NONE', #14, 0.09374999999999981959 ) ;
#215 = LENGTH_MEASURE_WITH_UNIT ( LENGTH_MEASURE( 0.02539999999999999897 ), #237 );
#216 = DIRECTION ( 'NONE',  ( 0.000000000000000000, 0.000000000000000000, 1.000000000000000000 ) ) ;
#217 = EDGE_CURVE ( 'NONE', #8, #197, #105, .T. ) ;
#218 = CONICAL_SURFACE ( 'NONE', #83, 0.02500000000000000139, 0.7853981633974500554 ) ;
#219 = PRESENTATION_LAYER_ASSIGNMENT (  '', '', ( #166 ) ) ;
#220 = EDGE_LOOP ( 'NONE', ( #245, #99, #81, #54 ) ) ;
#221 = CARTESIAN_POINT ( 'NONE',  ( 9.101349798265808245E-36, -3.372934515793667075E-19, 0.000000000000000000 ) ) ;
#222 = SURFACE_STYLE_USAGE ( .BOTH. , #73 ) ;
#223 = VERTEX_POINT ( 'NONE', #68 ) ;
#224 = FILL_AREA_STYLE_COLOUR ( '', #26 ) ;
#225 = CARTESIAN_POINT ( 'NONE',  ( 1.820269959653161649E-35, -6.745869031587334151E-19, 0.000000000000000000 ) ) ;
#226 = MECHANICAL_DESIGN_GEOMETRIC_PRESENTATION_REPRESENTATION (  '', ( #31 ), #203 ) ;
#227 = ORIENTED_EDGE ( 'NONE', *, *, #118, .F. ) ;
#228 = DIRECTION ( 'NONE',  ( -1.232950076816922318E-16, 1.000000000000000000, -0.000000000000000000 ) ) ;
#229 = AXIS2_PLACEMENT_3D ( 'NONE', #277, #248, #16 ) ;
#230 = DIRECTION ( 'NONE',  ( -1.232950076816922318E-16, 1.000000000000000000, -0.000000000000000000 ) ) ;
#231 = DIRECTION ( 'NONE',  ( 1.000000000000000000, 2.698347612634933429E-17, 0.000000000000000000 ) ) ;
#232 = ADVANCED_FACE ( 'NONE', ( #47 ), #205, .T. ) ;
#233 = FILL_AREA_STYLE_COLOUR ( '', #66 ) ;
#234 =( NAMED_UNIT ( * ) PLANE_ANGLE_UNIT ( ) SI_UNIT ( $, .RADIAN. ) );
#235 = PRESENTATION_STYLE_ASSIGNMENT (( #135 ) ) ;
#236 = MECHANICAL_DESIGN_GEOMETRIC_PRESENTATION_REPRESENTATION (  '', ( #166 ), #2 ) ;
#237 =( LENGTH_UNIT ( ) NAMED_UNIT ( * ) SI_UNIT ( $, .METRE. ) );
#238 =( NAMED_UNIT ( * ) SI_UNIT ( $, .STERADIAN. ) SOLID_ANGLE_UNIT ( ) );
#239 =( NAMED_UNIT ( * ) SI_UNIT ( $, .STERADIAN. ) SOLID_ANGLE_UNIT ( ) );
#240 =( CONVERSION_BASED_UNIT ( 'INCH', #175 ) LENGTH_UNIT ( ) NAMED_UNIT ( #29 ) );
#241 = ORIENTED_EDGE ( 'NONE', *, *, #92, .T. ) ;
#242 = CIRCLE ( 'NONE', #104, 0.09374999999999981959 ) ;
#243 = EDGE_LOOP ( 'NONE', ( #140, #241 ) ) ;
#244 = PRESENTATION_STYLE_ASSIGNMENT (( #290 ) ) ;
#245 = ORIENTED_EDGE ( 'NONE', *, *, #206, .F. ) ;
#246 =( NAMED_UNIT ( * ) SI_UNIT ( $, .STERADIAN. ) SOLID_ANGLE_UNIT ( ) );
#247 = ORIENTED_EDGE ( 'NONE', *, *, #43, .F. ) ;
#248 = DIRECTION ( 'NONE',  ( -1.232950076816922318E-16, 1.000000000000000000, -0.000000000000000000 ) ) ;
#249 = ORIENTED_EDGE ( 'NONE', *, *, #110, .T. ) ;
#250 = AXIS2_PLACEMENT_3D ( 'NONE', #221, #284, #267 ) ;
#251 = COLOUR_RGB ( '',1.000000000000000000, 0.000000000000000000, 0.000000000000000000 ) ;
#252 = COLOUR_RGB ( '',1.000000000000000000, 0.000000000000000000, 0.000000000000000000 ) ;
#253 = SURFACE_SIDE_STYLE ('',( #269 ) ) ;
#254 = CARTESIAN_POINT ( 'NONE',  ( -6.123233995736763571E-17, 2.000000000000000000, 0.000000000000000000 ) ) ;
#255 = SURFACE_SIDE_STYLE ('',( #23 ) ) ;
#256 = SURFACE_STYLE_FILL_AREA ( #137 ) ;
#257 = AXIS2_PLACEMENT_3D ( 'NONE', #159, #107, #25 ) ;
#258 = EDGE_CURVE ( 'NONE', #223, #37, #171, .T. ) ;
#259 =( CONVERSION_BASED_UNIT ( 'INCH', #5 ) LENGTH_UNIT ( ) NAMED_UNIT ( #161 ) );
#260 = AXIS2_PLACEMENT_3D ( 'NONE', #56, #216, #262 ) ;
#261 = DIMENSIONAL_EXPONENTS ( 1.000000000000000000, 0.000000000000000000, 0.000000000000000000, 0.000000000000000000, 0.000000000000000000, 0.000000000000000000, 0.000000000000000000 ) ;
#262 = DIRECTION ( 'NONE',  ( 1.000000000000000000, 0.000000000000000000, 0.000000000000000000 ) ) ;
#263 =( LENGTH_UNIT ( ) NAMED_UNIT ( * ) SI_UNIT ( $, .METRE. ) );
#264 = DIMENSIONAL_EXPONENTS ( 1.000000000000000000, 0.000000000000000000, 0.000000000000000000, 0.000000000000000000, 0.000000000000000000, 0.000000000000000000, 0.000000000000000000 ) ;
#265 = FACE_OUTER_BOUND ( 'NONE', #287, .T. ) ;
#266 =( GEOMETRIC_REPRESENTATION_CONTEXT ( 3 ) GLOBAL_UNCERTAINTY_ASSIGNED_CONTEXT ( ( #134 ) ) GLOBAL_UNIT_ASSIGNED_CONTEXT ( ( #85, #179, #46 ) ) REPRESENTATION_CONTEXT ( 'NONE', 'WORKASPACE' ) );
#267 = DIRECTION ( 'NONE',  ( 1.000000000000000000, 2.698347612634933429E-17, 0.000000000000000000 ) ) ;
#268 = ORIENTED_EDGE ( 'NONE', *, *, #151, .F. ) ;
#269 = SURFACE_STYLE_FILL_AREA ( #174 ) ;
#270 = PLANE ( 'NONE',  #75 ) ;
#271 = PRESENTATION_LAYER_ASSIGNMENT (  '', '', ( #31 ) ) ;
#272 = UNCERTAINTY_MEASURE_WITH_UNIT (LENGTH_MEASURE( 1.000000000000000082E-05 ), #172, 'distance_accuracy_value', 'NONE');
#273 = DIRECTION ( 'NONE',  ( -2.698347612634933429E-17, 1.000000000000000000, 0.000000000000000000 ) ) ;
#274 = PRESENTATION_STYLE_ASSIGNMENT (( #130 ) ) ;
#275 = CARTESIAN_POINT ( 'NONE',  ( 1.820269959653161649E-35, -6.745869031587334151E-19, 0.000000000000000000 ) ) ;
#276 = PRESENTATION_LAYER_ASSIGNMENT (  '', '', ( #116 ) ) ;
#277 = CARTESIAN_POINT ( 'NONE',  ( -6.123233995736763571E-17, 2.000000000000000000, 0.000000000000000000 ) ) ;
#278 = SURFACE_STYLE_FILL_AREA ( #186 ) ;
#279 = ADVANCED_FACE ( 'NONE', ( #155 ), #32, .T. ) ;
#280 = AXIS2_PLACEMENT_3D ( 'NONE', #275, #44, #84 ) ;
#281 = PRESENTATION_LAYER_ASSIGNMENT (  '', '', ( #101 ) ) ;
#282 = EDGE_CURVE ( 'NONE', #298, #197, #292, .T. ) ;
#283 = PRODUCT_DEFINITION_FORMATION_WITH_SPECIFIED_SOURCE ( 'ANY', '', #308, .NOT_KNOWN. ) ;
#284 = DIRECTION ( 'NONE',  ( 2.698347612634933429E-17, -1.000000000000000000, -0.000000000000000000 ) ) ;
#285 = DIMENSIONAL_EXPONENTS ( 1.000000000000000000, 0.000000000000000000, 0.000000000000000000, 0.000000000000000000, 0.000000000000000000, 0.000000000000000000, 0.000000000000000000 ) ;
#286 =( NAMED_UNIT ( * ) PLANE_ANGLE_UNIT ( ) SI_UNIT ( $, .RADIAN. ) );
#287 = EDGE_LOOP ( 'NONE', ( #249, #11 ) ) ;
#288 = FACE_OUTER_BOUND ( 'NONE', #62, .T. ) ;
#289 = MECHANICAL_DESIGN_GEOMETRIC_PRESENTATION_REPRESENTATION (  '', ( #116 ), #120 ) ;
#290 = SURFACE_STYLE_USAGE ( .BOTH. , #169 ) ;
#291 = PRESENTATION_STYLE_ASSIGNMENT (( #222 ) ) ;
#292 = CIRCLE ( 'NONE', #204, 0.09374999999999998612 ) ;
#293 = MANIFOLD_SOLID_BREP ( 'Revolve - Tool Body (Tipped Off)', #45 ) ;
#294 = DIRECTION ( 'NONE',  ( -1.000000000000000000, 0.000000000000000000, 0.000000000000000000 ) ) ;
#295 = PRODUCT_DEFINITION_SHAPE ( 'NONE', 'NONE',  #194 ) ;
#296 = ORIENTED_EDGE ( 'NONE', *, *, #33, .T. ) ;
#297 = ADVANCED_FACE ( 'NONE', ( #265 ), #91, .T. ) ;
#298 = VERTEX_POINT ( 'NONE', #148 ) ;
#299 = DIRECTION ( 'NONE',  ( 1.000000000000000000, 1.232950076816922318E-16, 0.000000000000000000 ) ) ;
#300 = DIRECTION ( 'NONE',  ( -1.232950076816922318E-16, 1.000000000000000000, -0.000000000000000000 ) ) ;
#301 = FACE_OUTER_BOUND ( 'NONE', #243, .T. ) ;
#302 = CARTESIAN_POINT ( 'NONE',  ( 0.02500000000000000139, 0.000000000000000000, 3.061616997868383172E-18 ) ) ;
#303 = CARTESIAN_POINT ( 'NONE',  ( 1.768811436279005459E-16, 0.06874999999999964473, 0.000000000000000000 ) ) ;
#304 = MECHANICAL_DESIGN_GEOMETRIC_PRESENTATION_REPRESENTATION (  '', ( #101 ), #266 ) ;
#305 = LINE ( 'NONE', #302, #27 ) ;
#306 = DIRECTION ( 'NONE',  ( -1.000000000000000000, -9.106159978880894651E-17, 0.000000000000000000 ) ) ;
#307 = DIRECTION ( 'NONE',  ( -2.698347612634933429E-17, 1.000000000000000000, 0.000000000000000000 ) ) ;
#308 = PRODUCT ( '83876', '83876', '', ( #6 ) ) ;
#309 = PRESENTATION_STYLE_ASSIGNMENT (( #38 ) ) ;
ENDSEC;
END-ISO-10303-21;
