ISO-10303-21;
HEADER;
FILE_DESCRIPTION (( 'STEP AP214' ),
    '1' );
FILE_NAME ('59506.STEP',
    '2023-07-24T15:08:15',
    ( '' ),
    ( '' ),
    'SwSTEP 2.0',
    'SolidWorks 2023',
    '' );
FILE_SCHEMA (( 'AUTOMOTIVE_DESIGN' ));
ENDSEC;

DATA;
#1 = AXIS2_PLACEMENT_3D ( 'NONE', #229, #144, #254 ) ;
#2 = FACE_OUTER_BOUND ( 'NONE', #249, .T. ) ;
#3 = APPLICATION_PROTOCOL_DEFINITION ( 'draft international standard', 'automotive_design', 1998, #203 ) ;
#4 = SURFACE_SIDE_STYLE ('',( #58 ) ) ;
#5 =( GEOMETRIC_REPRESENTATION_CONTEXT ( 3 ) GLOBAL_UNCERTAINTY_ASSIGNED_CONTEXT ( ( #205 ) ) GLOBAL_UNIT_ASSIGNED_CONTEXT ( ( #318, #259, #370 ) ) REPRESENTATION_CONTEXT ( 'NONE', 'WORKASPACE' ) );
#6 = CARTESIAN_POINT ( 'NONE',  ( 0.000000000000000000, 50.00000000000000000, 0.000000000000000000 ) ) ;
#7 = SURFACE_STYLE_FILL_AREA ( #66 ) ;
#8 = VECTOR ( 'NONE', #94, 1000.000000000000000 ) ;
#9 = EDGE_CURVE ( 'NONE', #191, #140, #323, .T. ) ;
#10 = EDGE_CURVE ( 'NONE', #190, #334, #319, .T. ) ;
#11 = SURFACE_STYLE_USAGE ( .BOTH. , #180 ) ;
#12 = STYLED_ITEM ( 'NONE', ( #29 ), #284 ) ;
#13 = FACE_OUTER_BOUND ( 'NONE', #269, .T. ) ;
#14 = COLOUR_RGB ( '',1.000000000000000000, 0.000000000000000000, 0.000000000000000000 ) ;
#15 = DIRECTION ( 'NONE',  ( 1.252807796048505441E-16, -1.000000000000000000, 0.000000000000000000 ) ) ;
#16 = CARTESIAN_POINT ( 'NONE',  ( 1.224646799147353256E-15, 50.00000000000000000, 10.00000000000000000 ) ) ;
#17 = ORIENTED_EDGE ( 'NONE', *, *, #71, .F. ) ;
#18 = AXIS2_PLACEMENT_3D ( 'NONE', #355, #329, #260 ) ;
#19 = STYLED_ITEM ( 'NONE', ( #288 ), #232 ) ;
#20 = CARTESIAN_POINT ( 'NONE',  ( -9.999999999999991118, 50.00000000000000000, 0.000000000000000000 ) ) ;
#21 = ORIENTED_EDGE ( 'NONE', *, *, #10, .F. ) ;
#22 = EDGE_CURVE ( 'NONE', #83, #363, #266, .T. ) ;
#23 = VERTEX_POINT ( 'NONE', #56 ) ;
#24 = LINE ( 'NONE', #82, #339 ) ;
#25 = ORIENTED_EDGE ( 'NONE', *, *, #357, .T. ) ;
#26 = ORIENTED_EDGE ( 'NONE', *, *, #22, .F. ) ;
#27 = CARTESIAN_POINT ( 'NONE',  ( 4.987329993433318819E-15, 50.00000000000000000, 0.000000000000000000 ) ) ;
#28 = EDGE_CURVE ( 'NONE', #23, #83, #286, .T. ) ;
#29 = PRESENTATION_STYLE_ASSIGNMENT (( #57 ) ) ;
#30 = AXIS2_PLACEMENT_3D ( 'NONE', #184, #98, #213 ) ;
#31 = PLANE ( 'NONE',  #210 ) ;
#32 =( GEOMETRIC_REPRESENTATION_CONTEXT ( 3 ) GLOBAL_UNCERTAINTY_ASSIGNED_CONTEXT ( ( #351 ) ) GLOBAL_UNIT_ASSIGNED_CONTEXT ( ( #119, #34, #160 ) ) REPRESENTATION_CONTEXT ( 'NONE', 'WORKASPACE' ) );
#33 = DIRECTION ( 'NONE',  ( -1.252807796048505441E-16, 1.000000000000000000, -0.000000000000000000 ) ) ;
#34 =( NAMED_UNIT ( * ) PLANE_ANGLE_UNIT ( ) SI_UNIT ( $, .RADIAN. ) );
#35 =( NAMED_UNIT ( * ) SI_UNIT ( $, .STERADIAN. ) SOLID_ANGLE_UNIT ( ) );
#36 = CARTESIAN_POINT ( 'NONE',  ( 9.999999999999994671, 124.9999999999999858, 1.224646799147353256E-15 ) ) ;
#37 = STYLED_ITEM ( 'NONE', ( #326 ), #337 ) ;
#38 = DIRECTION ( 'NONE',  ( -1.252807796048505441E-16, 1.000000000000000000, -0.000000000000000000 ) ) ;
#39 = FILL_AREA_STYLE ('',( #268 ) ) ;
#40 = CLOSED_SHELL ( 'NONE', ( #100, #284, #68, #337, #179, #232 ) ) ;
#41 = AXIS2_PLACEMENT_3D ( 'NONE', #76, #110, #280 ) ;
#42 = FACE_OUTER_BOUND ( 'NONE', #304, .T. ) ;
#43 = SURFACE_STYLE_FILL_AREA ( #322 ) ;
#44 = STYLED_ITEM ( 'NONE', ( #338 ), #100 ) ;
#45 = ORIENTED_EDGE ( 'NONE', *, *, #291, .F. ) ;
#46 =( LENGTH_UNIT ( ) NAMED_UNIT ( * ) SI_UNIT ( .MILLI., .METRE. ) );
#47 = ORIENTED_EDGE ( 'NONE', *, *, #79, .F. ) ;
#48 = AXIS2_PLACEMENT_3D ( 'NONE', #273, #112, #53 ) ;
#49 = CIRCLE ( 'NONE', #198, 9.500000000000000000 ) ;
#50 = DIRECTION ( 'NONE',  ( 0.000000000000000000, 0.000000000000000000, -1.000000000000000000 ) ) ;
#51 = DIRECTION ( 'NONE',  ( -0.000000000000000000, -1.000000000000000000, -0.000000000000000000 ) ) ;
#52 = FACE_OUTER_BOUND ( 'NONE', #365, .T. ) ;
#53 = DIRECTION ( 'NONE',  ( 0.000000000000000000, 0.000000000000000000, -1.000000000000000000 ) ) ;
#54 = DIRECTION ( 'NONE',  ( -0.000000000000000000, -1.000000000000000000, -0.000000000000000000 ) ) ;
#55 = EDGE_LOOP ( 'NONE', ( #45, #25, #104, #21 ) ) ;
#56 = CARTESIAN_POINT ( 'NONE',  ( 10.00000000000000355, 50.00000000000000000, 1.224646799147353848E-15 ) ) ;
#57 = SURFACE_STYLE_USAGE ( .BOTH. , #195 ) ;
#58 = SURFACE_STYLE_FILL_AREA ( #345 ) ;
#59 = PRODUCT_DEFINITION_CONTEXT ( 'detailed design', #203, 'design' ) ;
#60 = PLANE ( 'NONE',  #170 ) ;
#61 =( NAMED_UNIT ( * ) SI_UNIT ( $, .STERADIAN. ) SOLID_ANGLE_UNIT ( ) );
#62 = FILL_AREA_STYLE ('',( #118 ) ) ;
#63 = SURFACE_STYLE_USAGE ( .BOTH. , #151 ) ;
#64 = PRESENTATION_LAYER_ASSIGNMENT (  '', '', ( #331 ) ) ;
#65 = SURFACE_STYLE_FILL_AREA ( #89 ) ;
#66 = FILL_AREA_STYLE ('',( #290 ) ) ;
#67 = CARTESIAN_POINT ( 'NONE',  ( 0.000000000000000000, 0.5000000000000000000, 0.000000000000000000 ) ) ;
#68 = ADVANCED_FACE ( 'NONE', ( #178 ), #256, .T. ) ;
#69 = CYLINDRICAL_SURFACE ( 'NONE', #287, 10.00000000000000000 ) ;
#70 = DIRECTION ( 'NONE',  ( -1.224646799147353454E-16, 0.000000000000000000, -1.000000000000000000 ) ) ;
#71 = EDGE_CURVE ( 'NONE', #103, #23, #303, .T. ) ;
#72 =( LENGTH_UNIT ( ) NAMED_UNIT ( * ) SI_UNIT ( .MILLI., .METRE. ) );
#73 = STYLED_ITEM ( 'NONE', ( #328 ), #324 ) ;
#74 =( GEOMETRIC_REPRESENTATION_CONTEXT ( 3 ) GLOBAL_UNCERTAINTY_ASSIGNED_CONTEXT ( ( #231 ) ) GLOBAL_UNIT_ASSIGNED_CONTEXT ( ( #230, #149, #61 ) ) REPRESENTATION_CONTEXT ( 'NONE', 'WORKASPACE' ) );
#75 = SURFACE_STYLE_USAGE ( .BOTH. , #248 ) ;
#76 = CARTESIAN_POINT ( 'NONE',  ( -4.408728476930469278E-15, 124.9999999999999858, 0.000000000000000000 ) ) ;
#77 = MANIFOLD_SOLID_BREP ( 'Revolve - Tool Body (Straight Shanked)', #271 ) ;
#78 =( NAMED_UNIT ( * ) SI_UNIT ( $, .STERADIAN. ) SOLID_ANGLE_UNIT ( ) );
#79 = EDGE_CURVE ( 'NONE', #23, #103, #101, .T. ) ;
#80 = ORIENTED_EDGE ( 'NONE', *, *, #357, .F. ) ;
#81 = COLOUR_RGB ( '',1.000000000000000000, 0.000000000000000000, 0.000000000000000000 ) ;
#82 = CARTESIAN_POINT ( 'NONE',  ( 0.000000000000000000, 0.000000000000000000, -10.00000000000000000 ) ) ;
#83 = VERTEX_POINT ( 'NONE', #238 ) ;
#84 = SURFACE_STYLE_FILL_AREA ( #189 ) ;
#85 = ORIENTED_EDGE ( 'NONE', *, *, #157, .F. ) ;
#86 = SURFACE_STYLE_FILL_AREA ( #39 ) ;
#87 = ORIENTED_EDGE ( 'NONE', *, *, #291, .T. ) ;
#88 = FILL_AREA_STYLE_COLOUR ( '', #81 ) ;
#89 = FILL_AREA_STYLE ('',( #88 ) ) ;
#90 = MECHANICAL_DESIGN_GEOMETRIC_PRESENTATION_REPRESENTATION (  '', ( #122 ), #32 ) ;
#91 = DIRECTION ( 'NONE',  ( 0.000000000000000000, 1.000000000000000000, 0.000000000000000000 ) ) ;
#92 = DIRECTION ( 'NONE',  ( -0.000000000000000000, -1.000000000000000000, -0.000000000000000000 ) ) ;
#93 = CARTESIAN_POINT ( 'NONE',  ( 0.000000000000000000, 0.000000000000000000, 0.000000000000000000 ) ) ;
#94 = DIRECTION ( 'NONE',  ( -1.252807796048505441E-16, 1.000000000000000000, -0.000000000000000000 ) ) ;
#95 = COLOUR_RGB ( '',1.000000000000000000, 0.000000000000000000, 0.000000000000000000 ) ;
#96 = DIRECTION ( 'NONE',  ( 1.000000000000000000, 0.000000000000000000, -1.224646799147353207E-16 ) ) ;
#97 = FILL_AREA_STYLE_COLOUR ( '', #214 ) ;
#98 = DIRECTION ( 'NONE',  ( -0.000000000000000000, -1.000000000000000000, -0.000000000000000000 ) ) ;
#99 = DIRECTION ( 'NONE',  ( -1.000000000000000000, 0.000000000000000000, 0.000000000000000000 ) ) ;
#100 = ADVANCED_FACE ( 'NONE', ( #13 ), #69, .T. ) ;
#101 = CIRCLE ( 'NONE', #226, 9.999999999999996447 ) ;
#102 = DIRECTION ( 'NONE',  ( 0.000000000000000000, 0.000000000000000000, -1.000000000000000000 ) ) ;
#103 = VERTEX_POINT ( 'NONE', #20 ) ;
#104 = ORIENTED_EDGE ( 'NONE', *, *, #129, .T. ) ;
#105 = DIRECTION ( 'NONE',  ( -0.000000000000000000, -1.000000000000000000, -0.000000000000000000 ) ) ;
#106 = TOROIDAL_SURFACE ( 'NONE', #130, 9.500000000000000000, 0.5000000000000002220 ) ;
#107 = ORIENTED_EDGE ( 'NONE', *, *, #211, .T. ) ;
#108 = CIRCLE ( 'NONE', #239, 10.00000000000000533 ) ;
#109 = PRODUCT_DEFINITION ( 'UNKNOWN', '', #317, #59 ) ;
#110 = DIRECTION ( 'NONE',  ( -1.252807796048505441E-16, 1.000000000000000000, -0.000000000000000000 ) ) ;
#111 = SURFACE_STYLE_USAGE ( .BOTH. , #279 ) ;
#112 = DIRECTION ( 'NONE',  ( -0.000000000000000000, -1.000000000000000000, -0.000000000000000000 ) ) ;
#113 = MECHANICAL_DESIGN_GEOMETRIC_PRESENTATION_REPRESENTATION (  '', ( #12 ), #301 ) ;
#114 =( GEOMETRIC_REPRESENTATION_CONTEXT ( 3 ) GLOBAL_UNCERTAINTY_ASSIGNED_CONTEXT ( ( #201 ) ) GLOBAL_UNIT_ASSIGNED_CONTEXT ( ( #72, #263, #35 ) ) REPRESENTATION_CONTEXT ( 'NONE', 'WORKASPACE' ) );
#115 = MECHANICAL_DESIGN_GEOMETRIC_PRESENTATION_REPRESENTATION (  '', ( #331 ), #311 ) ;
#116 = CARTESIAN_POINT ( 'NONE',  ( -4.408728476930469278E-15, 124.9999999999999858, 0.000000000000000000 ) ) ;
#117 = SURFACE_STYLE_USAGE ( .BOTH. , #4 ) ;
#118 = FILL_AREA_STYLE_COLOUR ( '', #346 ) ;
#119 =( LENGTH_UNIT ( ) NAMED_UNIT ( * ) SI_UNIT ( .MILLI., .METRE. ) );
#120 = CARTESIAN_POINT ( 'NONE',  ( 4.987329993433320396E-15, 50.00000000000000000, 0.000000000000000000 ) ) ;
#121 = PRESENTATION_STYLE_ASSIGNMENT (( #63 ) ) ;
#122 = STYLED_ITEM ( 'NONE', ( #349 ), #77 ) ;
#123 = DIRECTION ( 'NONE',  ( -1.000000000000000000, 0.000000000000000000, 0.000000000000000000 ) ) ;
#124 = FILL_AREA_STYLE_COLOUR ( '', #125 ) ;
#125 = COLOUR_RGB ( '',0.7921568627450980005, 0.8196078431372548767, 0.9333333333333333481 ) ;
#126 = CIRCLE ( 'NONE', #176, 0.5000000000000004441 ) ;
#127 = DIRECTION ( 'NONE',  ( -0.000000000000000000, -1.000000000000000000, -0.000000000000000000 ) ) ;
#128 = ADVANCED_BREP_SHAPE_REPRESENTATION ( '59506', ( #324, #77, #147 ), #215 ) ;
#129 = EDGE_CURVE ( 'NONE', #222, #334, #126, .T. ) ;
#130 = AXIS2_PLACEMENT_3D ( 'NONE', #67, #127, #358 ) ;
#131 = CARTESIAN_POINT ( 'NONE',  ( -10.00000000000000533, 124.9999999999999858, 0.000000000000000000 ) ) ;
#132 = ORIENTED_EDGE ( 'NONE', *, *, #294, .T. ) ;
#133 = AXIS2_PLACEMENT_3D ( 'NONE', #335, #54, #50 ) ;
#134 =( NAMED_UNIT ( * ) SI_UNIT ( $, .STERADIAN. ) SOLID_ANGLE_UNIT ( ) );
#135 = EDGE_LOOP ( 'NONE', ( #186, #360 ) ) ;
#136 = PRODUCT_RELATED_PRODUCT_CATEGORY ( 'part', '', ( #305 ) ) ;
#137 = EDGE_LOOP ( 'NONE', ( #17, #47 ) ) ;
#138 = MECHANICAL_DESIGN_GEOMETRIC_PRESENTATION_REPRESENTATION (  '', ( #44 ), #240 ) ;
#139 =( LENGTH_UNIT ( ) NAMED_UNIT ( * ) SI_UNIT ( .MILLI., .METRE. ) );
#140 = VERTEX_POINT ( 'NONE', #16 ) ;
#141 =( NAMED_UNIT ( * ) PLANE_ANGLE_UNIT ( ) SI_UNIT ( $, .RADIAN. ) );
#142 = ADVANCED_FACE ( 'NONE', ( #52 ), #163, .F. ) ;
#143 = CARTESIAN_POINT ( 'NONE',  ( 4.987329993433318819E-15, 50.00000000000000000, 0.000000000000000000 ) ) ;
#144 = DIRECTION ( 'NONE',  ( -0.000000000000000000, -1.000000000000000000, -0.000000000000000000 ) ) ;
#145 = APPLICATION_PROTOCOL_DEFINITION ( 'draft international standard', 'automotive_design', 1998, #361 ) ;
#146 = CIRCLE ( 'NONE', #152, 0.5000000000000004441 ) ;
#147 = AXIS2_PLACEMENT_3D ( 'NONE', #315, #314, #258 ) ;
#148 = EDGE_CURVE ( 'NONE', #103, #363, #216, .T. ) ;
#149 =( NAMED_UNIT ( * ) PLANE_ANGLE_UNIT ( ) SI_UNIT ( $, .RADIAN. ) );
#150 = CARTESIAN_POINT ( 'NONE',  ( 0.000000000000000000, 50.00000000000000000, 0.000000000000000000 ) ) ;
#151 = SURFACE_SIDE_STYLE ('',( #7 ) ) ;
#152 = AXIS2_PLACEMENT_3D ( 'NONE', #283, #96, #70 ) ;
#153 = CIRCLE ( 'NONE', #18, 10.00000000000000000 ) ;
#154 = CARTESIAN_POINT ( 'NONE',  ( 1.224646799147353256E-15, 0.5000000000000000000, 10.00000000000000000 ) ) ;
#155 = AXIS2_PLACEMENT_3D ( 'NONE', #246, #15, #332 ) ;
#156 = CYLINDRICAL_SURFACE ( 'NONE', #194, 10.00000000000000000 ) ;
#157 = EDGE_CURVE ( 'NONE', #191, #222, #24, .T. ) ;
#158 =( LENGTH_UNIT ( ) NAMED_UNIT ( * ) SI_UNIT ( .MILLI., .METRE. ) );
#159 = FACE_OUTER_BOUND ( 'NONE', #55, .T. ) ;
#160 =( NAMED_UNIT ( * ) SI_UNIT ( $, .STERADIAN. ) SOLID_ANGLE_UNIT ( ) );
#161 = COLOUR_RGB ( '',1.000000000000000000, 0.000000000000000000, 0.000000000000000000 ) ;
#162 = ORIENTED_EDGE ( 'NONE', *, *, #22, .T. ) ;
#163 = PLANE ( 'NONE',  #155 ) ;
#164 = EDGE_LOOP ( 'NONE', ( #166, #132, #299, #80 ) ) ;
#165 = CARTESIAN_POINT ( 'NONE',  ( 1.194030629168669469E-15, 0.000000000000000000, 9.500000000000000000 ) ) ;
#166 = ORIENTED_EDGE ( 'NONE', *, *, #211, .F. ) ;
#167 = ORIENTED_EDGE ( 'NONE', *, *, #148, .F. ) ;
#168 = DIRECTION ( 'NONE',  ( -0.000000000000000000, -1.000000000000000000, -0.000000000000000000 ) ) ;
#169 = ORIENTED_EDGE ( 'NONE', *, *, #9, .T. ) ;
#170 = AXIS2_PLACEMENT_3D ( 'NONE', #120, #344, #204 ) ;
#171 = AXIS2_PLACEMENT_3D ( 'NONE', #366, #51, #278 ) ;
#172 = SHAPE_DEFINITION_REPRESENTATION ( #252, #128 ) ;
#173 = UNCERTAINTY_MEASURE_WITH_UNIT (LENGTH_MEASURE( 1.000000000000000082E-05 ), #139, 'distance_accuracy_value', 'NONE');
#174 = DIRECTION ( 'NONE',  ( 0.000000000000000000, 0.000000000000000000, -1.000000000000000000 ) ) ;
#175 = PRESENTATION_LAYER_ASSIGNMENT (  '', '', ( #73 ) ) ;
#176 = AXIS2_PLACEMENT_3D ( 'NONE', #250, #227, #224 ) ;
#177 = CARTESIAN_POINT ( 'NONE',  ( 0.000000000000000000, 0.5000000000000000000, -10.00000000000000000 ) ) ;
#178 = FACE_OUTER_BOUND ( 'NONE', #135, .T. ) ;
#179 = ADVANCED_FACE ( 'NONE', ( #221 ), #306, .T. ) ;
#180 = SURFACE_SIDE_STYLE ('',( #43 ) ) ;
#181 =( NAMED_UNIT ( * ) SI_UNIT ( $, .STERADIAN. ) SOLID_ANGLE_UNIT ( ) );
#182 = AXIS2_PLACEMENT_3D ( 'NONE', #116, #33, #350 ) ;
#183 = VECTOR ( 'NONE', #244, 1000.000000000000000 ) ;
#184 = CARTESIAN_POINT ( 'NONE',  ( 0.000000000000000000, 0.5000000000000000000, 0.000000000000000000 ) ) ;
#185 = PRESENTATION_LAYER_ASSIGNMENT (  '', '', ( #206 ) ) ;
#186 = ORIENTED_EDGE ( 'NONE', *, *, #267, .T. ) ;
#187 = CARTESIAN_POINT ( 'NONE',  ( 0.000000000000000000, 0.000000000000000000, 0.000000000000000000 ) ) ;
#188 = ORIENTED_EDGE ( 'NONE', *, *, #368, .F. ) ;
#189 = FILL_AREA_STYLE ('',( #218 ) ) ;
#190 = VERTEX_POINT ( 'NONE', #165 ) ;
#191 = VERTEX_POINT ( 'NONE', #275 ) ;
#192 = PRODUCT_CONTEXT ( 'NONE', #361, 'mechanical' ) ;
#193 = EDGE_LOOP ( 'NONE', ( #340, #87, #308, #247 ) ) ;
#194 = AXIS2_PLACEMENT_3D ( 'NONE', #237, #38, #123 ) ;
#195 = SURFACE_SIDE_STYLE ('',( #65 ) ) ;
#196 = DIRECTION ( 'NONE',  ( 0.000000000000000000, -1.000000000000000000, -0.000000000000000000 ) ) ;
#197 = VECTOR ( 'NONE', #168, 1000.000000000000000 ) ;
#198 = AXIS2_PLACEMENT_3D ( 'NONE', #93, #92, #174 ) ;
#199 = SURFACE_STYLE_FILL_AREA ( #62 ) ;
#200 = CARTESIAN_POINT ( 'NONE',  ( 0.000000000000000000, 0.000000000000000000, 0.000000000000000000 ) ) ;
#201 = UNCERTAINTY_MEASURE_WITH_UNIT (LENGTH_MEASURE( 1.000000000000000082E-05 ), #72, 'distance_accuracy_value', 'NONE');
#202 =( NAMED_UNIT ( * ) SI_UNIT ( $, .STERADIAN. ) SOLID_ANGLE_UNIT ( ) );
#203 = APPLICATION_CONTEXT ( 'automotive_design' ) ;
#204 = DIRECTION ( 'NONE',  ( -1.000000000000000000, -1.252807796048505441E-16, 0.000000000000000000 ) ) ;
#205 = UNCERTAINTY_MEASURE_WITH_UNIT (LENGTH_MEASURE( 1.000000000000000082E-05 ), #318, 'distance_accuracy_value', 'NONE');
#206 = STYLED_ITEM ( 'NONE', ( #121 ), #68 ) ;
#207 = DIRECTION ( 'NONE',  ( -1.000000000000000000, 0.000000000000000000, 0.000000000000000000 ) ) ;
#208 = CARTESIAN_POINT ( 'NONE',  ( -10.00000000000001066, 124.9999999999999858, 0.000000000000000000 ) ) ;
#209 = FILL_AREA_STYLE ('',( #97 ) ) ;
#210 = AXIS2_PLACEMENT_3D ( 'NONE', #6, #91, #313 ) ;
#211 = EDGE_CURVE ( 'NONE', #140, #369, #242, .T. ) ;
#212 = SURFACE_SIDE_STYLE ('',( #241 ) ) ;
#213 = DIRECTION ( 'NONE',  ( 0.000000000000000000, 0.000000000000000000, -1.000000000000000000 ) ) ;
#214 = COLOUR_RGB ( '',1.000000000000000000, 0.000000000000000000, 0.000000000000000000 ) ;
#215 =( GEOMETRIC_REPRESENTATION_CONTEXT ( 3 ) GLOBAL_UNCERTAINTY_ASSIGNED_CONTEXT ( ( #285 ) ) GLOBAL_UNIT_ASSIGNED_CONTEXT ( ( #296, #255, #307 ) ) REPRESENTATION_CONTEXT ( 'NONE', 'WORKASPACE' ) );
#216 = LINE ( 'NONE', #131, #183 ) ;
#217 = PRESENTATION_LAYER_ASSIGNMENT (  '', '', ( #122 ) ) ;
#218 = FILL_AREA_STYLE_COLOUR ( '', #14 ) ;
#219 = ADVANCED_FACE ( 'NONE', ( #353 ), #348, .T. ) ;
#220 = ORIENTED_EDGE ( 'NONE', *, *, #28, .F. ) ;
#221 = FACE_OUTER_BOUND ( 'NONE', #164, .T. ) ;
#222 = VERTEX_POINT ( 'NONE', #177 ) ;
#223 = MECHANICAL_DESIGN_GEOMETRIC_PRESENTATION_REPRESENTATION (  '', ( #73 ), #293 ) ;
#224 = DIRECTION ( 'NONE',  ( 0.000000000000000000, 0.000000000000000000, 1.000000000000000000 ) ) ;
#225 = EDGE_LOOP ( 'NONE', ( #253, #336, #276, #167 ) ) ;
#226 = AXIS2_PLACEMENT_3D ( 'NONE', #143, #265, #99 ) ;
#227 = DIRECTION ( 'NONE',  ( -1.000000000000000000, 0.000000000000000000, 0.000000000000000000 ) ) ;
#228 = ORIENTED_EDGE ( 'NONE', *, *, #148, .T. ) ;
#229 = CARTESIAN_POINT ( 'NONE',  ( 0.000000000000000000, 0.5000000000000000000, 0.000000000000000000 ) ) ;
#230 =( LENGTH_UNIT ( ) NAMED_UNIT ( * ) SI_UNIT ( .MILLI., .METRE. ) );
#231 = UNCERTAINTY_MEASURE_WITH_UNIT (LENGTH_MEASURE( 1.000000000000000082E-05 ), #230, 'distance_accuracy_value', 'NONE');
#232 = ADVANCED_FACE ( 'NONE', ( #2 ), #31, .T. ) ;
#233 = FILL_AREA_STYLE_COLOUR ( '', #262 ) ;
#234 = PRESENTATION_LAYER_ASSIGNMENT (  '', '', ( #19 ) ) ;
#235 = UNCERTAINTY_MEASURE_WITH_UNIT (LENGTH_MEASURE( 1.000000000000000082E-05 ), #46, 'distance_accuracy_value', 'NONE');
#236 = CARTESIAN_POINT ( 'NONE',  ( -4.408728476930469278E-15, 124.9999999999999858, 0.000000000000000000 ) ) ;
#237 = CARTESIAN_POINT ( 'NONE',  ( -4.408728476930469278E-15, 124.9999999999999858, 0.000000000000000000 ) ) ;
#238 = CARTESIAN_POINT ( 'NONE',  ( 10.00000000000000000, 124.9999999999999858, 1.224646799147353454E-15 ) ) ;
#239 = AXIS2_PLACEMENT_3D ( 'NONE', #236, #282, #207 ) ;
#240 =( GEOMETRIC_REPRESENTATION_CONTEXT ( 3 ) GLOBAL_UNCERTAINTY_ASSIGNED_CONTEXT ( ( #312 ) ) GLOBAL_UNIT_ASSIGNED_CONTEXT ( ( #277, #362, #78 ) ) REPRESENTATION_CONTEXT ( 'NONE', 'WORKASPACE' ) );
#241 = SURFACE_STYLE_FILL_AREA ( #209 ) ;
#242 = LINE ( 'NONE', #341, #197 ) ;
#243 = PRESENTATION_LAYER_ASSIGNMENT (  '', '', ( #37 ) ) ;
#244 = DIRECTION ( 'NONE',  ( -1.252807796048505441E-16, 1.000000000000000000, -0.000000000000000000 ) ) ;
#245 = ORIENTED_EDGE ( 'NONE', *, *, #9, .F. ) ;
#246 = CARTESIAN_POINT ( 'NONE',  ( 10.00000000000000000, 124.9999999999999858, 0.000000000000000000 ) ) ;
#247 = ORIENTED_EDGE ( 'NONE', *, *, #129, .F. ) ;
#248 = SURFACE_SIDE_STYLE ('',( #86 ) ) ;
#249 = EDGE_LOOP ( 'NONE', ( #245, #342 ) ) ;
#250 = CARTESIAN_POINT ( 'NONE',  ( 0.000000000000000000, 0.5000000000000000000, -9.500000000000000000 ) ) ;
#251 = ORIENTED_EDGE ( 'NONE', *, *, #274, .T. ) ;
#252 = PRODUCT_DEFINITION_SHAPE ( 'NONE', 'NONE',  #109 ) ;
#253 = ORIENTED_EDGE ( 'NONE', *, *, #71, .T. ) ;
#254 = DIRECTION ( 'NONE',  ( 0.000000000000000000, 0.000000000000000000, -1.000000000000000000 ) ) ;
#255 =( NAMED_UNIT ( * ) PLANE_ANGLE_UNIT ( ) SI_UNIT ( $, .RADIAN. ) );
#256 = PLANE ( 'NONE',  #281 ) ;
#257 = AXIS2_PLACEMENT_3D ( 'NONE', #27, #316, #289 ) ;
#258 = DIRECTION ( 'NONE',  ( 1.000000000000000000, 0.000000000000000000, 0.000000000000000000 ) ) ;
#259 =( NAMED_UNIT ( * ) PLANE_ANGLE_UNIT ( ) SI_UNIT ( $, .RADIAN. ) );
#260 = DIRECTION ( 'NONE',  ( 0.000000000000000000, 0.000000000000000000, -1.000000000000000000 ) ) ;
#261 = PRESENTATION_LAYER_ASSIGNMENT (  '', '', ( #12 ) ) ;
#262 = COLOUR_RGB ( '',0.7921568627450980005, 0.8196078431372548767, 0.9333333333333333481 ) ;
#263 =( NAMED_UNIT ( * ) PLANE_ANGLE_UNIT ( ) SI_UNIT ( $, .RADIAN. ) );
#264 =( NAMED_UNIT ( * ) PLANE_ANGLE_UNIT ( ) SI_UNIT ( $, .RADIAN. ) );
#265 = DIRECTION ( 'NONE',  ( -1.252807796048505441E-16, 1.000000000000000000, -0.000000000000000000 ) ) ;
#266 = CIRCLE ( 'NONE', #41, 10.00000000000000533 ) ;
#267 = EDGE_CURVE ( 'NONE', #334, #190, #49, .T. ) ;
#268 = FILL_AREA_STYLE_COLOUR ( '', #95 ) ;
#269 = EDGE_LOOP ( 'NONE', ( #169, #107, #188, #85 ) ) ;
#270 = ADVANCED_FACE ( 'NONE', ( #367 ), #60, .F. ) ;
#271 = CLOSED_SHELL ( 'NONE', ( #219, #270, #327, #142 ) ) ;
#272 = SURFACE_SIDE_STYLE ('',( #84 ) ) ;
#273 = CARTESIAN_POINT ( 'NONE',  ( 0.000000000000000000, 50.00000000000000000, 0.000000000000000000 ) ) ;
#274 = EDGE_CURVE ( 'NONE', #363, #83, #108, .T. ) ;
#275 = CARTESIAN_POINT ( 'NONE',  ( 0.000000000000000000, 50.00000000000000000, -10.00000000000000000 ) ) ;
#276 = ORIENTED_EDGE ( 'NONE', *, *, #274, .F. ) ;
#277 =( LENGTH_UNIT ( ) NAMED_UNIT ( * ) SI_UNIT ( .MILLI., .METRE. ) );
#278 = DIRECTION ( 'NONE',  ( 0.000000000000000000, 0.000000000000000000, -1.000000000000000000 ) ) ;
#279 = SURFACE_SIDE_STYLE ('',( #199 ) ) ;
#280 = DIRECTION ( 'NONE',  ( -1.000000000000000000, 0.000000000000000000, 0.000000000000000000 ) ) ;
#281 = AXIS2_PLACEMENT_3D ( 'NONE', #200, #196, #310 ) ;
#282 = DIRECTION ( 'NONE',  ( -1.252807796048505441E-16, 1.000000000000000000, -0.000000000000000000 ) ) ;
#283 = CARTESIAN_POINT ( 'NONE',  ( 1.163414459189985485E-15, 0.5000000000000000000, 9.500000000000000000 ) ) ;
#284 = ADVANCED_FACE ( 'NONE', ( #320 ), #309, .T. ) ;
#285 = UNCERTAINTY_MEASURE_WITH_UNIT (LENGTH_MEASURE( 1.000000000000000082E-05 ), #296, 'distance_accuracy_value', 'NONE');
#286 = LINE ( 'NONE', #36, #8 ) ;
#287 = AXIS2_PLACEMENT_3D ( 'NONE', #187, #364, #102 ) ;
#288 = PRESENTATION_STYLE_ASSIGNMENT (( #111 ) ) ;
#289 = DIRECTION ( 'NONE',  ( -1.000000000000000000, 0.000000000000000000, 0.000000000000000000 ) ) ;
#290 = FILL_AREA_STYLE_COLOUR ( '', #161 ) ;
#291 = EDGE_CURVE ( 'NONE', #369, #190, #146, .T. ) ;
#292 = CARTESIAN_POINT ( 'NONE',  ( 0.000000000000000000, 0.000000000000000000, -9.500000000000000000 ) ) ;
#293 =( GEOMETRIC_REPRESENTATION_CONTEXT ( 3 ) GLOBAL_UNCERTAINTY_ASSIGNED_CONTEXT ( ( #347 ) ) GLOBAL_UNIT_ASSIGNED_CONTEXT ( ( #158, #264, #181 ) ) REPRESENTATION_CONTEXT ( 'NONE', 'WORKASPACE' ) );
#294 = EDGE_CURVE ( 'NONE', #140, #191, #300, .T. ) ;
#295 = PRESENTATION_LAYER_ASSIGNMENT (  '', '', ( #44 ) ) ;
#296 =( LENGTH_UNIT ( ) NAMED_UNIT ( * ) SI_UNIT ( .MILLI., .METRE. ) );
#297 = DIRECTION ( 'NONE',  ( -0.000000000000000000, -1.000000000000000000, -0.000000000000000000 ) ) ;
#298 =( NAMED_UNIT ( * ) PLANE_ANGLE_UNIT ( ) SI_UNIT ( $, .RADIAN. ) );
#299 = ORIENTED_EDGE ( 'NONE', *, *, #157, .T. ) ;
#300 = CIRCLE ( 'NONE', #330, 10.00000000000000000 ) ;
#301 =( GEOMETRIC_REPRESENTATION_CONTEXT ( 3 ) GLOBAL_UNCERTAINTY_ASSIGNED_CONTEXT ( ( #173 ) ) GLOBAL_UNIT_ASSIGNED_CONTEXT ( ( #139, #141, #202 ) ) REPRESENTATION_CONTEXT ( 'NONE', 'WORKASPACE' ) );
#302 = PRESENTATION_STYLE_ASSIGNMENT (( #359 ) ) ;
#303 = CIRCLE ( 'NONE', #257, 9.999999999999996447 ) ;
#304 = EDGE_LOOP ( 'NONE', ( #220, #333, #228, #26 ) ) ;
#305 = PRODUCT ( '59506', '59506', '', ( #192 ) ) ;
#306 = CYLINDRICAL_SURFACE ( 'NONE', #133, 10.00000000000000000 ) ;
#307 =( NAMED_UNIT ( * ) SI_UNIT ( $, .STERADIAN. ) SOLID_ANGLE_UNIT ( ) );
#308 = ORIENTED_EDGE ( 'NONE', *, *, #267, .F. ) ;
#309 = TOROIDAL_SURFACE ( 'NONE', #1, 9.500000000000000000, 0.5000000000000002220 ) ;
#310 = DIRECTION ( 'NONE',  ( 0.000000000000000000, 0.000000000000000000, -1.000000000000000000 ) ) ;
#311 =( GEOMETRIC_REPRESENTATION_CONTEXT ( 3 ) GLOBAL_UNCERTAINTY_ASSIGNED_CONTEXT ( ( #235 ) ) GLOBAL_UNIT_ASSIGNED_CONTEXT ( ( #46, #298, #134 ) ) REPRESENTATION_CONTEXT ( 'NONE', 'WORKASPACE' ) );
#312 = UNCERTAINTY_MEASURE_WITH_UNIT (LENGTH_MEASURE( 1.000000000000000082E-05 ), #277, 'distance_accuracy_value', 'NONE');
#313 = DIRECTION ( 'NONE',  ( 0.000000000000000000, -0.000000000000000000, 1.000000000000000000 ) ) ;
#314 = DIRECTION ( 'NONE',  ( 0.000000000000000000, 0.000000000000000000, 1.000000000000000000 ) ) ;
#315 = CARTESIAN_POINT ( 'NONE',  ( 0.000000000000000000, 0.000000000000000000, 0.000000000000000000 ) ) ;
#316 = DIRECTION ( 'NONE',  ( -1.252807796048505441E-16, 1.000000000000000000, -0.000000000000000000 ) ) ;
#317 = PRODUCT_DEFINITION_FORMATION_WITH_SPECIFIED_SOURCE ( 'ANY', '', #305, .NOT_KNOWN. ) ;
#318 =( LENGTH_UNIT ( ) NAMED_UNIT ( * ) SI_UNIT ( .MILLI., .METRE. ) );
#319 = CIRCLE ( 'NONE', #171, 9.500000000000000000 ) ;
#320 = FACE_OUTER_BOUND ( 'NONE', #193, .T. ) ;
#321 = DIRECTION ( 'NONE',  ( 0.000000000000000000, 0.000000000000000000, -1.000000000000000000 ) ) ;
#322 = FILL_AREA_STYLE ('',( #124 ) ) ;
#323 = CIRCLE ( 'NONE', #48, 10.00000000000000000 ) ;
#324 = MANIFOLD_SOLID_BREP ( 'Revolve - Cutting Edge', #40 ) ;
#325 = MECHANICAL_DESIGN_GEOMETRIC_PRESENTATION_REPRESENTATION (  '', ( #206 ), #74 ) ;
#326 = PRESENTATION_STYLE_ASSIGNMENT (( #354 ) ) ;
#327 = ADVANCED_FACE ( 'NONE', ( #42 ), #156, .T. ) ;
#328 = PRESENTATION_STYLE_ASSIGNMENT (( #11 ) ) ;
#329 = DIRECTION ( 'NONE',  ( -0.000000000000000000, -1.000000000000000000, -0.000000000000000000 ) ) ;
#330 = AXIS2_PLACEMENT_3D ( 'NONE', #150, #297, #321 ) ;
#331 = STYLED_ITEM ( 'NONE', ( #302 ), #179 ) ;
#332 = DIRECTION ( 'NONE',  ( 1.000000000000000000, 1.252807796048505441E-16, 0.000000000000000000 ) ) ;
#333 = ORIENTED_EDGE ( 'NONE', *, *, #79, .T. ) ;
#334 = VERTEX_POINT ( 'NONE', #292 ) ;
#335 = CARTESIAN_POINT ( 'NONE',  ( 0.000000000000000000, 0.000000000000000000, 0.000000000000000000 ) ) ;
#336 = ORIENTED_EDGE ( 'NONE', *, *, #28, .T. ) ;
#337 = ADVANCED_FACE ( 'NONE', ( #159 ), #106, .T. ) ;
#338 = PRESENTATION_STYLE_ASSIGNMENT (( #75 ) ) ;
#339 = VECTOR ( 'NONE', #105, 1000.000000000000000 ) ;
#340 = ORIENTED_EDGE ( 'NONE', *, *, #368, .T. ) ;
#341 = CARTESIAN_POINT ( 'NONE',  ( 1.224646799147353256E-15, 0.000000000000000000, 10.00000000000000000 ) ) ;
#342 = ORIENTED_EDGE ( 'NONE', *, *, #294, .F. ) ;
#343 = MECHANICAL_DESIGN_GEOMETRIC_PRESENTATION_REPRESENTATION (  '', ( #37 ), #114 ) ;
#344 = DIRECTION ( 'NONE',  ( -1.252807796048505441E-16, 1.000000000000000000, 0.000000000000000000 ) ) ;
#345 = FILL_AREA_STYLE ('',( #233 ) ) ;
#346 = COLOUR_RGB ( '',1.000000000000000000, 0.000000000000000000, 0.000000000000000000 ) ;
#347 = UNCERTAINTY_MEASURE_WITH_UNIT (LENGTH_MEASURE( 1.000000000000000082E-05 ), #158, 'distance_accuracy_value', 'NONE');
#348 = CYLINDRICAL_SURFACE ( 'NONE', #182, 10.00000000000000000 ) ;
#349 = PRESENTATION_STYLE_ASSIGNMENT (( #117 ) ) ;
#350 = DIRECTION ( 'NONE',  ( -1.000000000000000000, 0.000000000000000000, 0.000000000000000000 ) ) ;
#351 = UNCERTAINTY_MEASURE_WITH_UNIT (LENGTH_MEASURE( 1.000000000000000082E-05 ), #119, 'distance_accuracy_value', 'NONE');
#352 = CIRCLE ( 'NONE', #30, 10.00000000000000000 ) ;
#353 = FACE_OUTER_BOUND ( 'NONE', #225, .T. ) ;
#354 = SURFACE_STYLE_USAGE ( .BOTH. , #212 ) ;
#355 = CARTESIAN_POINT ( 'NONE',  ( 0.000000000000000000, 0.5000000000000000000, 0.000000000000000000 ) ) ;
#356 = MECHANICAL_DESIGN_GEOMETRIC_PRESENTATION_REPRESENTATION (  '', ( #19 ), #5 ) ;
#357 = EDGE_CURVE ( 'NONE', #369, #222, #352, .T. ) ;
#358 = DIRECTION ( 'NONE',  ( 0.000000000000000000, 0.000000000000000000, -1.000000000000000000 ) ) ;
#359 = SURFACE_STYLE_USAGE ( .BOTH. , #272 ) ;
#360 = ORIENTED_EDGE ( 'NONE', *, *, #10, .T. ) ;
#361 = APPLICATION_CONTEXT ( 'automotive_design' ) ;
#362 =( NAMED_UNIT ( * ) PLANE_ANGLE_UNIT ( ) SI_UNIT ( $, .RADIAN. ) );
#363 = VERTEX_POINT ( 'NONE', #208 ) ;
#364 = DIRECTION ( 'NONE',  ( -0.000000000000000000, -1.000000000000000000, -0.000000000000000000 ) ) ;
#365 = EDGE_LOOP ( 'NONE', ( #251, #162 ) ) ;
#366 = CARTESIAN_POINT ( 'NONE',  ( 0.000000000000000000, 0.000000000000000000, 0.000000000000000000 ) ) ;
#367 = FACE_OUTER_BOUND ( 'NONE', #137, .T. ) ;
#368 = EDGE_CURVE ( 'NONE', #222, #369, #153, .T. ) ;
#369 = VERTEX_POINT ( 'NONE', #154 ) ;
#370 =( NAMED_UNIT ( * ) SI_UNIT ( $, .STERADIAN. ) SOLID_ANGLE_UNIT ( ) );
ENDSEC;
END-ISO-10303-21;
