ISO-10303-21;
HEADER;
FILE_DESCRIPTION (( 'STEP AP214' ),
    '1' );
FILE_NAME ('48655.STEP',
    '2023-06-22T21:55:31',
    ( '' ),
    ( '' ),
    'SwSTEP 2.0',
    'SolidWorks 2023',
    '' );
FILE_SCHEMA (( 'AUTOMOTIVE_DESIGN' ));
ENDSEC;

DATA;
#1 = AXIS2_PLACEMENT_3D ( 'NONE', #158, #305, #222 ) ;
#2 = MECHANICAL_DESIGN_GEOMETRIC_PRESENTATION_REPRESENTATION (  '', ( #272 ), #118 ) ;
#3 = ORIENTED_EDGE ( 'NONE', *, *, #54, .F. ) ;
#4 =( NAMED_UNIT ( * ) SI_UNIT ( $, .STERADIAN. ) SOLID_ANGLE_UNIT ( ) );
#5 = CARTESIAN_POINT ( 'NONE',  ( 0.000000000000000000, 0.000000000000000000, -0.3750000000000000555 ) ) ;
#6 = SURFACE_STYLE_FILL_AREA ( #260 ) ;
#7 = DIRECTION ( 'NONE',  ( 0.000000000000000000, 0.000000000000000000, -1.000000000000000000 ) ) ;
#8 =( NAMED_UNIT ( * ) PLANE_ANGLE_UNIT ( ) SI_UNIT ( $, .RADIAN. ) );
#9 = UNCERTAINTY_MEASURE_WITH_UNIT (LENGTH_MEASURE( 1.000000000000000082E-05 ), #128, 'distance_accuracy_value', 'NONE');
#10 = DIRECTION ( 'NONE',  ( 0.000000000000000000, 0.000000000000000000, -1.000000000000000000 ) ) ;
#11 = COLOUR_RGB ( '',0.7921568627450980005, 0.8196078431372548767, 0.9333333333333333481 ) ;
#12 = LENGTH_MEASURE_WITH_UNIT ( LENGTH_MEASURE( 0.02539999999999999897 ), #207 );
#13 =( GEOMETRIC_REPRESENTATION_CONTEXT ( 3 ) GLOBAL_UNCERTAINTY_ASSIGNED_CONTEXT ( ( #83 ) ) GLOBAL_UNIT_ASSIGNED_CONTEXT ( ( #31, #8, #4 ) ) REPRESENTATION_CONTEXT ( 'NONE', 'WORKASPACE' ) );
#14 = AXIS2_PLACEMENT_3D ( 'NONE', #197, #292, #152 ) ;
#15 = PRESENTATION_STYLE_ASSIGNMENT (( #188 ) ) ;
#16 = FACE_OUTER_BOUND ( 'NONE', #242, .T. ) ;
#17 = DIRECTION ( 'NONE',  ( 0.000000000000000000, -1.000000000000000000, -0.000000000000000000 ) ) ;
#18 = CARTESIAN_POINT ( 'NONE',  ( 4.592425496802575451E-17, 2.250000000000000000, 0.3750000000000000555 ) ) ;
#19 =( LENGTH_UNIT ( ) NAMED_UNIT ( * ) SI_UNIT ( $, .METRE. ) );
#20 = VECTOR ( 'NONE', #149, 39.37007874015748143 ) ;
#21 = AXIS2_PLACEMENT_3D ( 'NONE', #293, #56, #51 ) ;
#22 = CIRCLE ( 'NONE', #296, 0.3750000000000000555 ) ;
#23 = CARTESIAN_POINT ( 'NONE',  ( -0.3750000000000002776, 5.000000000000000000, 0.000000000000000000 ) ) ;
#24 = LENGTH_MEASURE_WITH_UNIT ( LENGTH_MEASURE( 0.02539999999999999897 ), #201 );
#25 = CARTESIAN_POINT ( 'NONE',  ( 0.000000000000000000, 2.250000000000000000, -0.3750000000000000555 ) ) ;
#26 = STYLED_ITEM ( 'NONE', ( #206 ), #64 ) ;
#27 = PRODUCT_DEFINITION ( 'UNKNOWN', '', #109, #70 ) ;
#28 = FILL_AREA_STYLE_COLOUR ( '', #200 ) ;
#29 = AXIS2_PLACEMENT_3D ( 'NONE', #150, #236, #43 ) ;
#30 =( LENGTH_UNIT ( ) NAMED_UNIT ( * ) SI_UNIT ( $, .METRE. ) );
#31 =( CONVERSION_BASED_UNIT ( 'INCH', #12 ) LENGTH_UNIT ( ) NAMED_UNIT ( #301 ) );
#32 = AXIS2_PLACEMENT_3D ( 'NONE', #282, #154, #191 ) ;
#33 = AXIS2_PLACEMENT_3D ( 'NONE', #180, #162, #263 ) ;
#34 = DIMENSIONAL_EXPONENTS ( 1.000000000000000000, 0.000000000000000000, 0.000000000000000000, 0.000000000000000000, 0.000000000000000000, 0.000000000000000000, 0.000000000000000000 ) ;
#35 =( NAMED_UNIT ( * ) SI_UNIT ( $, .STERADIAN. ) SOLID_ANGLE_UNIT ( ) );
#36 = ORIENTED_EDGE ( 'NONE', *, *, #151, .T. ) ;
#37 = SHAPE_DEFINITION_REPRESENTATION ( #240, #134 ) ;
#38 = CLOSED_SHELL ( 'NONE', ( #64, #74, #84, #203 ) ) ;
#39 = CARTESIAN_POINT ( 'NONE',  ( 0.000000000000000000, 0.000000000000000000, 0.000000000000000000 ) ) ;
#40 = CYLINDRICAL_SURFACE ( 'NONE', #304, 0.3750000000000000555 ) ;
#41 = ORIENTED_EDGE ( 'NONE', *, *, #54, .T. ) ;
#42 = SURFACE_STYLE_USAGE ( .BOTH. , #49 ) ;
#43 = DIRECTION ( 'NONE',  ( -1.000000000000000000, 0.000000000000000000, 0.000000000000000000 ) ) ;
#44 = STYLED_ITEM ( 'NONE', ( #230 ), #84 ) ;
#45 = VECTOR ( 'NONE', #179, 39.37007874015748143 ) ;
#46 = DIRECTION ( 'NONE',  ( -0.000000000000000000, -1.000000000000000000, -0.000000000000000000 ) ) ;
#47 = DIRECTION ( 'NONE',  ( -4.453261087808557677E-17, 1.000000000000000000, -0.000000000000000000 ) ) ;
#48 = DIRECTION ( 'NONE',  ( 1.000000000000000000, 4.453261087808557677E-17, 0.000000000000000000 ) ) ;
#49 = SURFACE_SIDE_STYLE ('',( #258 ) ) ;
#50 = PLANE ( 'NONE',  #256 ) ;
#51 = DIRECTION ( 'NONE',  ( 0.000000000000000000, -0.000000000000000000, 1.000000000000000000 ) ) ;
#52 = DIRECTION ( 'NONE',  ( 0.000000000000000000, 0.000000000000000000, -1.000000000000000000 ) ) ;
#53 = AXIS2_PLACEMENT_3D ( 'NONE', #183, #266, #159 ) ;
#54 = EDGE_CURVE ( 'NONE', #166, #153, #176, .T. ) ;
#55 = SURFACE_STYLE_FILL_AREA ( #273 ) ;
#56 = DIRECTION ( 'NONE',  ( 0.000000000000000000, 1.000000000000000000, 0.000000000000000000 ) ) ;
#57 = SURFACE_STYLE_FILL_AREA ( #297 ) ;
#58 = SURFACE_STYLE_USAGE ( .BOTH. , #274 ) ;
#59 = EDGE_CURVE ( 'NONE', #308, #153, #155, .T. ) ;
#60 = PRESENTATION_LAYER_ASSIGNMENT (  '', '', ( #164 ) ) ;
#61 = ORIENTED_EDGE ( 'NONE', *, *, #96, .T. ) ;
#62 = CIRCLE ( 'NONE', #285, 0.3750000000000000555 ) ;
#63 =( GEOMETRIC_REPRESENTATION_CONTEXT ( 3 ) GLOBAL_UNCERTAINTY_ASSIGNED_CONTEXT ( ( #247 ) ) GLOBAL_UNIT_ASSIGNED_CONTEXT ( ( #223, #78, #147 ) ) REPRESENTATION_CONTEXT ( 'NONE', 'WORKASPACE' ) );
#64 = ADVANCED_FACE ( 'NONE', ( #16 ), #110, .T. ) ;
#65 = DIMENSIONAL_EXPONENTS ( 1.000000000000000000, 0.000000000000000000, 0.000000000000000000, 0.000000000000000000, 0.000000000000000000, 0.000000000000000000, 0.000000000000000000 ) ;
#66 =( NAMED_UNIT ( * ) SI_UNIT ( $, .STERADIAN. ) SOLID_ANGLE_UNIT ( ) );
#67 = DIRECTION ( 'NONE',  ( 1.000000000000000000, 0.000000000000000000, 0.000000000000000000 ) ) ;
#68 = EDGE_LOOP ( 'NONE', ( #77, #115, #41, #97 ) ) ;
#69 =( GEOMETRIC_REPRESENTATION_CONTEXT ( 3 ) GLOBAL_UNCERTAINTY_ASSIGNED_CONTEXT ( ( #193 ) ) GLOBAL_UNIT_ASSIGNED_CONTEXT ( ( #270, #309, #100 ) ) REPRESENTATION_CONTEXT ( 'NONE', 'WORKASPACE' ) );
#70 = PRODUCT_DEFINITION_CONTEXT ( 'detailed design', #233, 'design' ) ;
#71 = DIRECTION ( 'NONE',  ( -1.000000000000000000, 0.000000000000000000, 0.000000000000000000 ) ) ;
#72 = LENGTH_MEASURE_WITH_UNIT ( LENGTH_MEASURE( 0.02539999999999999897 ), #307 );
#73 = VERTEX_POINT ( 'NONE', #132 ) ;
#74 = ADVANCED_FACE ( 'NONE', ( #254 ), #106, .T. ) ;
#75 = FILL_AREA_STYLE_COLOUR ( '', #219 ) ;
#76 = DIRECTION ( 'NONE',  ( 4.453261087808557677E-17, -1.000000000000000000, 0.000000000000000000 ) ) ;
#77 = ORIENTED_EDGE ( 'NONE', *, *, #96, .F. ) ;
#78 =( NAMED_UNIT ( * ) PLANE_ANGLE_UNIT ( ) SI_UNIT ( $, .RADIAN. ) );
#79 = MECHANICAL_DESIGN_GEOMETRIC_PRESENTATION_REPRESENTATION (  '', ( #44 ), #13 ) ;
#80 = MECHANICAL_DESIGN_GEOMETRIC_PRESENTATION_REPRESENTATION (  '', ( #224 ), #290 ) ;
#81 = CARTESIAN_POINT ( 'NONE',  ( 0.000000000000000000, 0.000000000000000000, 0.000000000000000000 ) ) ;
#82 = CYLINDRICAL_SURFACE ( 'NONE', #53, 0.3750000000000001110 ) ;
#83 = UNCERTAINTY_MEASURE_WITH_UNIT (LENGTH_MEASURE( 1.000000000000000082E-05 ), #31, 'distance_accuracy_value', 'NONE');
#84 = ADVANCED_FACE ( 'NONE', ( #186 ), #40, .T. ) ;
#85 = CARTESIAN_POINT ( 'NONE',  ( 0.000000000000000000, 2.250000000000000000, 0.000000000000000000 ) ) ;
#86 = SURFACE_STYLE_USAGE ( .BOTH. , #228 ) ;
#87 = LENGTH_MEASURE_WITH_UNIT ( LENGTH_MEASURE( 0.02539999999999999897 ), #157 );
#88 = EDGE_CURVE ( 'NONE', #153, #308, #129, .T. ) ;
#89 = MECHANICAL_DESIGN_GEOMETRIC_PRESENTATION_REPRESENTATION (  '', ( #26 ), #69 ) ;
#90 = SURFACE_SIDE_STYLE ('',( #55 ) ) ;
#91 = FILL_AREA_STYLE ('',( #142 ) ) ;
#92 = MECHANICAL_DESIGN_GEOMETRIC_PRESENTATION_REPRESENTATION (  '', ( #289 ), #136 ) ;
#93 = EDGE_LOOP ( 'NONE', ( #277, #275 ) ) ;
#94 = ORIENTED_EDGE ( 'NONE', *, *, #88, .T. ) ;
#95 = DIRECTION ( 'NONE',  ( 0.000000000000000000, 0.000000000000000000, -1.000000000000000000 ) ) ;
#96 = EDGE_CURVE ( 'NONE', #103, #308, #234, .T. ) ;
#97 = ORIENTED_EDGE ( 'NONE', *, *, #59, .F. ) ;
#98 = PRESENTATION_LAYER_ASSIGNMENT (  '', '', ( #272 ) ) ;
#99 = FACE_OUTER_BOUND ( 'NONE', #93, .T. ) ;
#100 =( NAMED_UNIT ( * ) SI_UNIT ( $, .STERADIAN. ) SOLID_ANGLE_UNIT ( ) );
#101 = CARTESIAN_POINT ( 'NONE',  ( 0.000000000000000000, 0.000000000000000000, 0.000000000000000000 ) ) ;
#102 = ORIENTED_EDGE ( 'NONE', *, *, #119, .F. ) ;
#103 = VERTEX_POINT ( 'NONE', #261 ) ;
#104 = FILL_AREA_STYLE ('',( #75 ) ) ;
#105 = AXIS2_PLACEMENT_3D ( 'NONE', #39, #17, #95 ) ;
#106 = PLANE ( 'NONE',  #21 ) ;
#107 = FACE_OUTER_BOUND ( 'NONE', #215, .T. ) ;
#108 = FILL_AREA_STYLE ('',( #112 ) ) ;
#109 = PRODUCT_DEFINITION_FORMATION_WITH_SPECIFIED_SOURCE ( 'ANY', '', #235, .NOT_KNOWN. ) ;
#110 = CYLINDRICAL_SURFACE ( 'NONE', #32, 0.3750000000000000555 ) ;
#111 = DIRECTION ( 'NONE',  ( -1.000000000000000000, 0.000000000000000000, 0.000000000000000000 ) ) ;
#112 = FILL_AREA_STYLE_COLOUR ( '', #248 ) ;
#113 = SURFACE_STYLE_FILL_AREA ( #91 ) ;
#114 = AXIS2_PLACEMENT_3D ( 'NONE', #284, #148, #71 ) ;
#115 = ORIENTED_EDGE ( 'NONE', *, *, #211, .T. ) ;
#116 = PRODUCT_RELATED_PRODUCT_CATEGORY ( 'part', '', ( #235 ) ) ;
#117 = ORIENTED_EDGE ( 'NONE', *, *, #211, .F. ) ;
#118 =( GEOMETRIC_REPRESENTATION_CONTEXT ( 3 ) GLOBAL_UNCERTAINTY_ASSIGNED_CONTEXT ( ( #279 ) ) GLOBAL_UNIT_ASSIGNED_CONTEXT ( ( #163, #202, #139 ) ) REPRESENTATION_CONTEXT ( 'NONE', 'WORKASPACE' ) );
#119 = EDGE_CURVE ( 'NONE', #216, #73, #62, .T. ) ;
#120 = PLANE ( 'NONE',  #105 ) ;
#121 = DIMENSIONAL_EXPONENTS ( 1.000000000000000000, 0.000000000000000000, 0.000000000000000000, 0.000000000000000000, 0.000000000000000000, 0.000000000000000000, 0.000000000000000000 ) ;
#122 = PRESENTATION_LAYER_ASSIGNMENT (  '', '', ( #26 ) ) ;
#123 = CIRCLE ( 'NONE', #29, 0.3750000000000000555 ) ;
#124 = FILL_AREA_STYLE_COLOUR ( '', #244 ) ;
#125 = DIRECTION ( 'NONE',  ( -0.000000000000000000, -1.000000000000000000, -0.000000000000000000 ) ) ;
#126 = PLANE ( 'NONE',  #33 ) ;
#127 = EDGE_LOOP ( 'NONE', ( #298, #276 ) ) ;
#128 =( CONVERSION_BASED_UNIT ( 'INCH', #281 ) LENGTH_UNIT ( ) NAMED_UNIT ( #278 ) );
#129 = CIRCLE ( 'NONE', #114, 0.3750000000000001665 ) ;
#130 = PRESENTATION_LAYER_ASSIGNMENT (  '', '', ( #224 ) ) ;
#131 = CARTESIAN_POINT ( 'NONE',  ( 4.592425496802575451E-17, 0.000000000000000000, 0.3750000000000000555 ) ) ;
#132 = CARTESIAN_POINT ( 'NONE',  ( 0.000000000000000000, 0.000000000000000000, -0.3750000000000000555 ) ) ;
#133 = CARTESIAN_POINT ( 'NONE',  ( 0.3750000000000000555, 5.000000000000000000, 0.000000000000000000 ) ) ;
#134 = ADVANCED_BREP_SHAPE_REPRESENTATION ( '48655', ( #189, #190, #143 ), #172 ) ;
#135 = LENGTH_MEASURE_WITH_UNIT ( LENGTH_MEASURE( 0.02539999999999999897 ), #161 );
#136 =( GEOMETRIC_REPRESENTATION_CONTEXT ( 3 ) GLOBAL_UNCERTAINTY_ASSIGNED_CONTEXT ( ( #9 ) ) GLOBAL_UNIT_ASSIGNED_CONTEXT ( ( #128, #239, #66 ) ) REPRESENTATION_CONTEXT ( 'NONE', 'WORKASPACE' ) );
#137 = AXIS2_PLACEMENT_3D ( 'NONE', #85, #220, #268 ) ;
#138 = FACE_OUTER_BOUND ( 'NONE', #257, .T. ) ;
#139 =( NAMED_UNIT ( * ) SI_UNIT ( $, .STERADIAN. ) SOLID_ANGLE_UNIT ( ) );
#140 = UNCERTAINTY_MEASURE_WITH_UNIT (LENGTH_MEASURE( 1.000000000000000082E-05 ), #145, 'distance_accuracy_value', 'NONE');
#141 = SURFACE_STYLE_USAGE ( .BOTH. , #90 ) ;
#142 = FILL_AREA_STYLE_COLOUR ( '', #182 ) ;
#143 = AXIS2_PLACEMENT_3D ( 'NONE', #101, #192, #67 ) ;
#144 = SURFACE_SIDE_STYLE ('',( #6 ) ) ;
#145 =( CONVERSION_BASED_UNIT ( 'INCH', #72 ) LENGTH_UNIT ( ) NAMED_UNIT ( #121 ) );
#146 = ORIENTED_EDGE ( 'NONE', *, *, #88, .F. ) ;
#147 =( NAMED_UNIT ( * ) SI_UNIT ( $, .STERADIAN. ) SOLID_ANGLE_UNIT ( ) );
#148 = DIRECTION ( 'NONE',  ( -4.453261087808557677E-17, 1.000000000000000000, -0.000000000000000000 ) ) ;
#149 = DIRECTION ( 'NONE',  ( -4.453261087808557677E-17, 1.000000000000000000, -0.000000000000000000 ) ) ;
#150 = CARTESIAN_POINT ( 'NONE',  ( 1.516480271171051896E-32, 2.250000000000000444, 0.000000000000000000 ) ) ;
#151 = EDGE_CURVE ( 'NONE', #166, #103, #123, .T. ) ;
#152 = DIRECTION ( 'NONE',  ( -1.000000000000000000, 0.000000000000000000, 0.000000000000000000 ) ) ;
#153 = VERTEX_POINT ( 'NONE', #23 ) ;
#154 = DIRECTION ( 'NONE',  ( -0.000000000000000000, -1.000000000000000000, -0.000000000000000000 ) ) ;
#155 = CIRCLE ( 'NONE', #1, 0.3750000000000001665 ) ;
#156 = VECTOR ( 'NONE', #125, 39.37007874015748143 ) ;
#157 =( LENGTH_UNIT ( ) NAMED_UNIT ( * ) SI_UNIT ( $, .METRE. ) );
#158 = CARTESIAN_POINT ( 'NONE',  ( -1.224646799147353207E-16, 5.000000000000000000, 0.000000000000000000 ) ) ;
#159 = DIRECTION ( 'NONE',  ( -1.000000000000000000, 0.000000000000000000, 0.000000000000000000 ) ) ;
#160 = CARTESIAN_POINT ( 'NONE',  ( -1.224646799147353207E-16, 5.000000000000000000, 0.000000000000000000 ) ) ;
#161 =( LENGTH_UNIT ( ) NAMED_UNIT ( * ) SI_UNIT ( $, .METRE. ) );
#162 = DIRECTION ( 'NONE',  ( -4.453261087808557677E-17, 1.000000000000000000, 0.000000000000000000 ) ) ;
#163 =( CONVERSION_BASED_UNIT ( 'INCH', #167 ) LENGTH_UNIT ( ) NAMED_UNIT ( #65 ) );
#164 = STYLED_ITEM ( 'NONE', ( #283 ), #189 ) ;
#165 =( CONVERSION_BASED_UNIT ( 'INCH', #87 ) LENGTH_UNIT ( ) NAMED_UNIT ( #243 ) );
#166 = VERTEX_POINT ( 'NONE', #291 ) ;
#167 = LENGTH_MEASURE_WITH_UNIT ( LENGTH_MEASURE( 0.02539999999999999897 ), #30 );
#168 =( NAMED_UNIT ( * ) PLANE_ANGLE_UNIT ( ) SI_UNIT ( $, .RADIAN. ) );
#169 = ORIENTED_EDGE ( 'NONE', *, *, #170, .T. ) ;
#170 = EDGE_CURVE ( 'NONE', #175, #216, #199, .T. ) ;
#171 = ORIENTED_EDGE ( 'NONE', *, *, #245, .T. ) ;
#172 =( GEOMETRIC_REPRESENTATION_CONTEXT ( 3 ) GLOBAL_UNCERTAINTY_ASSIGNED_CONTEXT ( ( #267 ) ) GLOBAL_UNIT_ASSIGNED_CONTEXT ( ( #165, #168, #35 ) ) REPRESENTATION_CONTEXT ( 'NONE', 'WORKASPACE' ) );
#173 = SURFACE_STYLE_FILL_AREA ( #108 ) ;
#174 = ORIENTED_EDGE ( 'NONE', *, *, #302, .F. ) ;
#175 = VERTEX_POINT ( 'NONE', #18 ) ;
#176 = LINE ( 'NONE', #259, #20 ) ;
#177 = ADVANCED_FACE ( 'NONE', ( #178 ), #82, .T. ) ;
#178 = FACE_OUTER_BOUND ( 'NONE', #68, .T. ) ;
#179 = DIRECTION ( 'NONE',  ( -4.453261087808557677E-17, 1.000000000000000000, -0.000000000000000000 ) ) ;
#180 = CARTESIAN_POINT ( 'NONE',  ( 3.718412684285598933E-34, 2.250000000000000000, 0.000000000000000000 ) ) ;
#181 = EDGE_LOOP ( 'NONE', ( #94, #251 ) ) ;
#182 = COLOUR_RGB ( '',1.000000000000000000, 0.000000000000000000, 0.000000000000000000 ) ;
#183 = CARTESIAN_POINT ( 'NONE',  ( -1.224646799147353207E-16, 5.000000000000000000, 0.000000000000000000 ) ) ;
#184 = PRESENTATION_LAYER_ASSIGNMENT (  '', '', ( #289 ) ) ;
#185 = VECTOR ( 'NONE', #288, 39.37007874015748143 ) ;
#186 = FACE_OUTER_BOUND ( 'NONE', #208, .T. ) ;
#187 = CIRCLE ( 'NONE', #14, 0.3750000000000000555 ) ;
#188 = SURFACE_STYLE_USAGE ( .BOTH. , #250 ) ;
#189 = MANIFOLD_SOLID_BREP ( 'Revolve - Cutting Edge', #38 ) ;
#190 = MANIFOLD_SOLID_BREP ( 'Revolve - Tool Body (Straight Shanked)', #303 ) ;
#191 = DIRECTION ( 'NONE',  ( 0.000000000000000000, 0.000000000000000000, -1.000000000000000000 ) ) ;
#192 = DIRECTION ( 'NONE',  ( 0.000000000000000000, 0.000000000000000000, 1.000000000000000000 ) ) ;
#193 = UNCERTAINTY_MEASURE_WITH_UNIT (LENGTH_MEASURE( 1.000000000000000082E-05 ), #270, 'distance_accuracy_value', 'NONE');
#194 = EDGE_CURVE ( 'NONE', #175, #210, #22, .T. ) ;
#195 = CIRCLE ( 'NONE', #214, 0.3750000000000000555 ) ;
#196 = CARTESIAN_POINT ( 'NONE',  ( 4.592425496802575451E-17, 0.000000000000000000, 0.3750000000000000555 ) ) ;
#197 = CARTESIAN_POINT ( 'NONE',  ( 1.516480271171051896E-32, 2.250000000000000444, 0.000000000000000000 ) ) ;
#198 = ORIENTED_EDGE ( 'NONE', *, *, #226, .T. ) ;
#199 = LINE ( 'NONE', #196, #156 ) ;
#200 = COLOUR_RGB ( '',1.000000000000000000, 0.000000000000000000, 0.000000000000000000 ) ;
#201 =( LENGTH_UNIT ( ) NAMED_UNIT ( * ) SI_UNIT ( $, .METRE. ) );
#202 =( NAMED_UNIT ( * ) PLANE_ANGLE_UNIT ( ) SI_UNIT ( $, .RADIAN. ) );
#203 = ADVANCED_FACE ( 'NONE', ( #99 ), #120, .T. ) ;
#204 = DIRECTION ( 'NONE',  ( -0.000000000000000000, -1.000000000000000000, -0.000000000000000000 ) ) ;
#205 = CARTESIAN_POINT ( 'NONE',  ( 0.000000000000000000, 2.250000000000000000, 0.000000000000000000 ) ) ;
#206 = PRESENTATION_STYLE_ASSIGNMENT (( #86 ) ) ;
#207 =( LENGTH_UNIT ( ) NAMED_UNIT ( * ) SI_UNIT ( $, .METRE. ) );
#208 = EDGE_LOOP ( 'NONE', ( #286, #280, #171, #102 ) ) ;
#209 = AXIS2_PLACEMENT_3D ( 'NONE', #160, #47, #111 ) ;
#210 = VERTEX_POINT ( 'NONE', #25 ) ;
#211 = EDGE_CURVE ( 'NONE', #103, #166, #187, .T. ) ;
#212 =( NAMED_UNIT ( * ) SI_UNIT ( $, .STERADIAN. ) SOLID_ANGLE_UNIT ( ) );
#213 = APPLICATION_PROTOCOL_DEFINITION ( 'draft international standard', 'automotive_design', 1998, #218 ) ;
#214 = AXIS2_PLACEMENT_3D ( 'NONE', #81, #204, #52 ) ;
#215 = EDGE_LOOP ( 'NONE', ( #36, #61, #146, #3 ) ) ;
#216 = VERTEX_POINT ( 'NONE', #131 ) ;
#217 = SURFACE_STYLE_USAGE ( .BOTH. , #144 ) ;
#218 = APPLICATION_CONTEXT ( 'automotive_design' ) ;
#219 = COLOUR_RGB ( '',0.7921568627450980005, 0.8196078431372548767, 0.9333333333333333481 ) ;
#220 = DIRECTION ( 'NONE',  ( -0.000000000000000000, -1.000000000000000000, -0.000000000000000000 ) ) ;
#221 = CARTESIAN_POINT ( 'NONE',  ( 0.3750000000000000555, 5.000000000000000000, 4.592425496802576684E-17 ) ) ;
#222 = DIRECTION ( 'NONE',  ( -1.000000000000000000, 0.000000000000000000, 0.000000000000000000 ) ) ;
#223 =( CONVERSION_BASED_UNIT ( 'INCH', #135 ) LENGTH_UNIT ( ) NAMED_UNIT ( #34 ) );
#224 = STYLED_ITEM ( 'NONE', ( #15 ), #203 ) ;
#225 = CYLINDRICAL_SURFACE ( 'NONE', #209, 0.3750000000000001110 ) ;
#226 = EDGE_CURVE ( 'NONE', #210, #175, #264, .T. ) ;
#227 = DIRECTION ( 'NONE',  ( -0.000000000000000000, -1.000000000000000000, -0.000000000000000000 ) ) ;
#228 = SURFACE_SIDE_STYLE ('',( #113 ) ) ;
#229 = FILL_AREA_STYLE_COLOUR ( '', #11 ) ;
#230 = PRESENTATION_STYLE_ASSIGNMENT (( #141 ) ) ;
#231 =( NAMED_UNIT ( * ) PLANE_ANGLE_UNIT ( ) SI_UNIT ( $, .RADIAN. ) );
#232 = PRESENTATION_STYLE_ASSIGNMENT (( #217 ) ) ;
#233 = APPLICATION_CONTEXT ( 'automotive_design' ) ;
#234 = LINE ( 'NONE', #287, #45 ) ;
#235 = PRODUCT ( '48655', '48655', '', ( #306 ) ) ;
#236 = DIRECTION ( 'NONE',  ( -4.453261087808557677E-17, 1.000000000000000000, -0.000000000000000000 ) ) ;
#237 = PRESENTATION_LAYER_ASSIGNMENT (  '', '', ( #44 ) ) ;
#238 = ORIENTED_EDGE ( 'NONE', *, *, #245, .F. ) ;
#239 =( NAMED_UNIT ( * ) PLANE_ANGLE_UNIT ( ) SI_UNIT ( $, .RADIAN. ) );
#240 = PRODUCT_DEFINITION_SHAPE ( 'NONE', 'NONE',  #27 ) ;
#241 = LINE ( 'NONE', #5, #185 ) ;
#242 = EDGE_LOOP ( 'NONE', ( #198, #169, #174, #238 ) ) ;
#243 = DIMENSIONAL_EXPONENTS ( 1.000000000000000000, 0.000000000000000000, 0.000000000000000000, 0.000000000000000000, 0.000000000000000000, 0.000000000000000000, 0.000000000000000000 ) ;
#244 = COLOUR_RGB ( '',1.000000000000000000, 0.000000000000000000, 0.000000000000000000 ) ;
#245 = EDGE_CURVE ( 'NONE', #210, #73, #241, .T. ) ;
#246 = ORIENTED_EDGE ( 'NONE', *, *, #151, .F. ) ;
#247 = UNCERTAINTY_MEASURE_WITH_UNIT (LENGTH_MEASURE( 1.000000000000000082E-05 ), #223, 'distance_accuracy_value', 'NONE');
#248 = COLOUR_RGB ( '',1.000000000000000000, 0.000000000000000000, 0.000000000000000000 ) ;
#249 = DIMENSIONAL_EXPONENTS ( 1.000000000000000000, 0.000000000000000000, 0.000000000000000000, 0.000000000000000000, 0.000000000000000000, 0.000000000000000000, 0.000000000000000000 ) ;
#250 = SURFACE_SIDE_STYLE ('',( #173 ) ) ;
#251 = ORIENTED_EDGE ( 'NONE', *, *, #59, .T. ) ;
#252 = DIRECTION ( 'NONE',  ( 0.000000000000000000, 0.000000000000000000, -1.000000000000000000 ) ) ;
#253 = ADVANCED_FACE ( 'NONE', ( #265 ), #50, .F. ) ;
#254 = FACE_OUTER_BOUND ( 'NONE', #127, .T. ) ;
#255 = APPLICATION_PROTOCOL_DEFINITION ( 'draft international standard', 'automotive_design', 1998, #233 ) ;
#256 = AXIS2_PLACEMENT_3D ( 'NONE', #133, #76, #48 ) ;
#257 = EDGE_LOOP ( 'NONE', ( #246, #117 ) ) ;
#258 = SURFACE_STYLE_FILL_AREA ( #104 ) ;
#259 = CARTESIAN_POINT ( 'NONE',  ( -0.3750000000000002220, 5.000000000000000000, 0.000000000000000000 ) ) ;
#260 = FILL_AREA_STYLE ('',( #124 ) ) ;
#261 = CARTESIAN_POINT ( 'NONE',  ( 0.3750000000000000555, 2.250000000000000444, 4.592425496802576684E-17 ) ) ;
#262 = CARTESIAN_POINT ( 'NONE',  ( 0.000000000000000000, 0.000000000000000000, 0.000000000000000000 ) ) ;
#263 = DIRECTION ( 'NONE',  ( -1.000000000000000000, -4.453261087808557677E-17, 0.000000000000000000 ) ) ;
#264 = CIRCLE ( 'NONE', #137, 0.3750000000000000555 ) ;
#265 = FACE_OUTER_BOUND ( 'NONE', #181, .T. ) ;
#266 = DIRECTION ( 'NONE',  ( -4.453261087808557677E-17, 1.000000000000000000, -0.000000000000000000 ) ) ;
#267 = UNCERTAINTY_MEASURE_WITH_UNIT (LENGTH_MEASURE( 1.000000000000000082E-05 ), #165, 'distance_accuracy_value', 'NONE');
#268 = DIRECTION ( 'NONE',  ( 0.000000000000000000, 0.000000000000000000, -1.000000000000000000 ) ) ;
#269 = PRESENTATION_STYLE_ASSIGNMENT (( #58 ) ) ;
#270 =( CONVERSION_BASED_UNIT ( 'INCH', #24 ) LENGTH_UNIT ( ) NAMED_UNIT ( #249 ) );
#271 = CARTESIAN_POINT ( 'NONE',  ( 0.000000000000000000, 0.000000000000000000, 0.000000000000000000 ) ) ;
#272 = STYLED_ITEM ( 'NONE', ( #269 ), #190 ) ;
#273 = FILL_AREA_STYLE ('',( #28 ) ) ;
#274 = SURFACE_SIDE_STYLE ('',( #57 ) ) ;
#275 = ORIENTED_EDGE ( 'NONE', *, *, #119, .T. ) ;
#276 = ORIENTED_EDGE ( 'NONE', *, *, #194, .F. ) ;
#277 = ORIENTED_EDGE ( 'NONE', *, *, #302, .T. ) ;
#278 = DIMENSIONAL_EXPONENTS ( 1.000000000000000000, 0.000000000000000000, 0.000000000000000000, 0.000000000000000000, 0.000000000000000000, 0.000000000000000000, 0.000000000000000000 ) ;
#279 = UNCERTAINTY_MEASURE_WITH_UNIT (LENGTH_MEASURE( 1.000000000000000082E-05 ), #163, 'distance_accuracy_value', 'NONE');
#280 = ORIENTED_EDGE ( 'NONE', *, *, #194, .T. ) ;
#281 = LENGTH_MEASURE_WITH_UNIT ( LENGTH_MEASURE( 0.02539999999999999897 ), #19 );
#282 = CARTESIAN_POINT ( 'NONE',  ( 0.000000000000000000, 0.000000000000000000, 0.000000000000000000 ) ) ;
#283 = PRESENTATION_STYLE_ASSIGNMENT (( #42 ) ) ;
#284 = CARTESIAN_POINT ( 'NONE',  ( -1.224646799147353207E-16, 5.000000000000000000, 0.000000000000000000 ) ) ;
#285 = AXIS2_PLACEMENT_3D ( 'NONE', #271, #227, #7 ) ;
#286 = ORIENTED_EDGE ( 'NONE', *, *, #170, .F. ) ;
#287 = CARTESIAN_POINT ( 'NONE',  ( 0.3749999999999999445, 5.000000000000000000, 4.592425496802576068E-17 ) ) ;
#288 = DIRECTION ( 'NONE',  ( -0.000000000000000000, -1.000000000000000000, -0.000000000000000000 ) ) ;
#289 = STYLED_ITEM ( 'NONE', ( #232 ), #74 ) ;
#290 =( GEOMETRIC_REPRESENTATION_CONTEXT ( 3 ) GLOBAL_UNCERTAINTY_ASSIGNED_CONTEXT ( ( #140 ) ) GLOBAL_UNIT_ASSIGNED_CONTEXT ( ( #145, #231, #212 ) ) REPRESENTATION_CONTEXT ( 'NONE', 'WORKASPACE' ) );
#291 = CARTESIAN_POINT ( 'NONE',  ( -0.3750000000000000555, 2.250000000000000444, 0.000000000000000000 ) ) ;
#292 = DIRECTION ( 'NONE',  ( -4.453261087808557677E-17, 1.000000000000000000, -0.000000000000000000 ) ) ;
#293 = CARTESIAN_POINT ( 'NONE',  ( 0.000000000000000000, 2.250000000000000000, 0.000000000000000000 ) ) ;
#294 = DIRECTION ( 'NONE',  ( -0.000000000000000000, -1.000000000000000000, -0.000000000000000000 ) ) ;
#295 = ADVANCED_FACE ( 'NONE', ( #138 ), #126, .F. ) ;
#296 = AXIS2_PLACEMENT_3D ( 'NONE', #205, #294, #10 ) ;
#297 = FILL_AREA_STYLE ('',( #229 ) ) ;
#298 = ORIENTED_EDGE ( 'NONE', *, *, #226, .F. ) ;
#299 = MECHANICAL_DESIGN_GEOMETRIC_PRESENTATION_REPRESENTATION (  '', ( #164 ), #63 ) ;
#300 = ADVANCED_FACE ( 'NONE', ( #107 ), #225, .T. ) ;
#301 = DIMENSIONAL_EXPONENTS ( 1.000000000000000000, 0.000000000000000000, 0.000000000000000000, 0.000000000000000000, 0.000000000000000000, 0.000000000000000000, 0.000000000000000000 ) ;
#302 = EDGE_CURVE ( 'NONE', #73, #216, #195, .T. ) ;
#303 = CLOSED_SHELL ( 'NONE', ( #300, #295, #177, #253 ) ) ;
#304 = AXIS2_PLACEMENT_3D ( 'NONE', #262, #46, #252 ) ;
#305 = DIRECTION ( 'NONE',  ( -4.453261087808557677E-17, 1.000000000000000000, -0.000000000000000000 ) ) ;
#306 = PRODUCT_CONTEXT ( 'NONE', #218, 'mechanical' ) ;
#307 =( LENGTH_UNIT ( ) NAMED_UNIT ( * ) SI_UNIT ( $, .METRE. ) );
#308 = VERTEX_POINT ( 'NONE', #221 ) ;
#309 =( NAMED_UNIT ( * ) PLANE_ANGLE_UNIT ( ) SI_UNIT ( $, .RADIAN. ) );
ENDSEC;
END-ISO-10303-21;
