ISO-10303-21;
HEADER;
FILE_DESCRIPTION (( 'STEP AP214' ),
    '1' );
FILE_NAME ('81461.STEP',
    '2023-06-30T22:27:54',
    ( '' ),
    ( '' ),
    'SwSTEP 2.0',
    'SolidWorks 2023',
    '' );
FILE_SCHEMA (( 'AUTOMOTIVE_DESIGN' ));
ENDSEC;

DATA;
#1 = CARTESIAN_POINT ( 'NONE',  ( 0.1562499999999998612, 2.000000000000000000, 1.913510623667736074E-17 ) ) ;
#2 = ORIENTED_EDGE ( 'NONE', *, *, #33, .T. ) ;
#3 = APPLICATION_CONTEXT ( 'automotive_design' ) ;
#4 = CARTESIAN_POINT ( 'NONE',  ( -1.913510623667739463E-17, 0.1562500000000000000, 0.000000000000000000 ) ) ;
#5 = CIRCLE ( 'NONE', #257, 0.1562500000000000000 ) ;
#6 = EDGE_LOOP ( 'NONE', ( #345, #86 ) ) ;
#7 = DIRECTION ( 'NONE',  ( 1.000000000000000000, 0.000000000000000000, 0.000000000000000000 ) ) ;
#8 = VERTEX_POINT ( 'NONE', #34 ) ;
#9 = CYLINDRICAL_SURFACE ( 'NONE', #31, 0.1562499999999997224 ) ;
#10 = ORIENTED_EDGE ( 'NONE', *, *, #282, .F. ) ;
#11 = STYLED_ITEM ( 'NONE', ( #343 ), #77 ) ;
#12 = VERTEX_POINT ( 'NONE', #334 ) ;
#13 = SURFACE_SIDE_STYLE ('',( #159 ) ) ;
#14 = FILL_AREA_STYLE ('',( #311 ) ) ;
#15 = AXIS2_PLACEMENT_3D ( 'NONE', #284, #196, #78 ) ;
#16 = DIRECTION ( 'NONE',  ( 0.000000000000000000, -0.000000000000000000, 1.000000000000000000 ) ) ;
#17 =( LENGTH_UNIT ( ) NAMED_UNIT ( * ) SI_UNIT ( $, .METRE. ) );
#18 = UNCERTAINTY_MEASURE_WITH_UNIT (LENGTH_MEASURE( 1.000000000000000082E-05 ), #148, 'distance_accuracy_value', 'NONE');
#19 = SURFACE_STYLE_USAGE ( .BOTH. , #262 ) ;
#20 = COLOUR_RGB ( '',1.000000000000000000, 0.000000000000000000, 0.000000000000000000 ) ;
#21 = CARTESIAN_POINT ( 'NONE',  ( 0.000000000000000000, 0.1562500000000000278, 0.000000000000000000 ) ) ;
#22 = CARTESIAN_POINT ( 'NONE',  ( 0.000000000000000000, 0.1562500000000000278, 0.000000000000000000 ) ) ;
#23 = DIRECTION ( 'NONE',  ( 0.000000000000000000, 0.000000000000000000, -1.000000000000000000 ) ) ;
#24 = ORIENTED_EDGE ( 'NONE', *, *, #260, .T. ) ;
#25 = DIRECTION ( 'NONE',  ( -0.000000000000000000, -1.000000000000000000, -0.000000000000000000 ) ) ;
#26 = DIMENSIONAL_EXPONENTS ( 1.000000000000000000, 0.000000000000000000, 0.000000000000000000, 0.000000000000000000, 0.000000000000000000, 0.000000000000000000, 0.000000000000000000 ) ;
#27 = VECTOR ( 'NONE', #71, 39.37007874015748143 ) ;
#28 = EDGE_CURVE ( 'NONE', #185, #154, #57, .T. ) ;
#29 = DIRECTION ( 'NONE',  ( -1.224617468841839956E-16, 1.000000000000000000, -0.000000000000000000 ) ) ;
#30 =( LENGTH_UNIT ( ) NAMED_UNIT ( * ) SI_UNIT ( $, .METRE. ) );
#31 = AXIS2_PLACEMENT_3D ( 'NONE', #330, #280, #121 ) ;
#32 = EDGE_LOOP ( 'NONE', ( #207, #183, #24, #150 ) ) ;
#33 = EDGE_CURVE ( 'NONE', #358, #8, #36, .T. ) ;
#34 = CARTESIAN_POINT ( 'NONE',  ( 0.000000000000000000, 0.4374999999999998890, -0.1562499999999999722 ) ) ;
#35 = DIRECTION ( 'NONE',  ( 0.000000000000000000, 0.000000000000000000, -1.000000000000000000 ) ) ;
#36 = CIRCLE ( 'NONE', #237, 0.1562499999999999722 ) ;
#37 = CIRCLE ( 'NONE', #90, 0.1562499999999996392 ) ;
#38 = EDGE_CURVE ( 'NONE', #154, #185, #141, .T. ) ;
#39 = ORIENTED_EDGE ( 'NONE', *, *, #203, .T. ) ;
#40 = EDGE_CURVE ( 'NONE', #12, #305, #51, .T. ) ;
#41 = LENGTH_MEASURE_WITH_UNIT ( LENGTH_MEASURE( 0.02539999999999999897 ), #98 );
#42 = LINE ( 'NONE', #269, #27 ) ;
#43 = SURFACE_SIDE_STYLE ('',( #250 ) ) ;
#44 =( NAMED_UNIT ( * ) PLANE_ANGLE_UNIT ( ) SI_UNIT ( $, .RADIAN. ) );
#45 = AXIS2_PLACEMENT_3D ( 'NONE', #47, #25, #136 ) ;
#46 = DIRECTION ( 'NONE',  ( -0.000000000000000000, -1.000000000000000000, -0.000000000000000000 ) ) ;
#47 = CARTESIAN_POINT ( 'NONE',  ( 0.000000000000000000, 0.000000000000000000, 0.000000000000000000 ) ) ;
#48 = FACE_OUTER_BOUND ( 'NONE', #217, .T. ) ;
#49 = CARTESIAN_POINT ( 'NONE',  ( 1.913510623667739463E-17, 0.000000000000000000, 0.1562500000000000000 ) ) ;
#50 = SURFACE_SIDE_STYLE ('',( #351 ) ) ;
#51 = CIRCLE ( 'NONE', #68, 0.1562499999999996392 ) ;
#52 = MECHANICAL_DESIGN_GEOMETRIC_PRESENTATION_REPRESENTATION (  '', ( #285 ), #278 ) ;
#53 = ORIENTED_EDGE ( 'NONE', *, *, #40, .F. ) ;
#54 = DIRECTION ( 'NONE',  ( 0.000000000000000000, 0.000000000000000000, 1.000000000000000000 ) ) ;
#55 = DIRECTION ( 'NONE',  ( -1.000000000000000000, 0.000000000000000000, 0.000000000000000000 ) ) ;
#56 = MANIFOLD_SOLID_BREP ( 'Revolve - Cutting Edge', #225 ) ;
#57 = CIRCLE ( 'NONE', #264, 0.1562499999999998335 ) ;
#58 = DIMENSIONAL_EXPONENTS ( 1.000000000000000000, 0.000000000000000000, 0.000000000000000000, 0.000000000000000000, 0.000000000000000000, 0.000000000000000000, 0.000000000000000000 ) ;
#59 = ORIENTED_EDGE ( 'NONE', *, *, #38, .F. ) ;
#60 = EDGE_LOOP ( 'NONE', ( #297, #248, #59, #222 ) ) ;
#61 = ADVANCED_FACE ( 'NONE', ( #228 ), #336, .T. ) ;
#62 = AXIS2_PLACEMENT_3D ( 'NONE', #4, #354, #211 ) ;
#63 = LENGTH_MEASURE_WITH_UNIT ( LENGTH_MEASURE( 0.02539999999999999897 ), #125 );
#64 = FACE_OUTER_BOUND ( 'NONE', #137, .T. ) ;
#65 = FACE_OUTER_BOUND ( 'NONE', #32, .T. ) ;
#66 = ORIENTED_EDGE ( 'NONE', *, *, #28, .F. ) ;
#67 = DIRECTION ( 'NONE',  ( 0.000000000000000000, 0.000000000000000000, -1.000000000000000000 ) ) ;
#68 = AXIS2_PLACEMENT_3D ( 'NONE', #277, #218, #55 ) ;
#69 = UNCERTAINTY_MEASURE_WITH_UNIT (LENGTH_MEASURE( 1.000000000000000082E-05 ), #88, 'distance_accuracy_value', 'NONE');
#70 =( NAMED_UNIT ( * ) SI_UNIT ( $, .STERADIAN. ) SOLID_ANGLE_UNIT ( ) );
#71 = DIRECTION ( 'NONE',  ( -1.224617468841839956E-16, 1.000000000000000000, -0.000000000000000000 ) ) ;
#72 = ADVANCED_FACE ( 'NONE', ( #190 ), #365, .T. ) ;
#73 = PRODUCT_DEFINITION_CONTEXT ( 'detailed design', #200, 'design' ) ;
#74 = LINE ( 'NONE', #201, #221 ) ;
#75 = COLOUR_RGB ( '',1.000000000000000000, 0.000000000000000000, 0.000000000000000000 ) ;
#76 = FILL_AREA_STYLE_COLOUR ( '', #226 ) ;
#77 = ADVANCED_FACE ( 'NONE', ( #65 ), #166, .T. ) ;
#78 = DIRECTION ( 'NONE',  ( 1.000000000000000000, 0.000000000000000000, -1.224646799147353207E-16 ) ) ;
#79 = LENGTH_MEASURE_WITH_UNIT ( LENGTH_MEASURE( 0.02539999999999999897 ), #287 );
#80 = ORIENTED_EDGE ( 'NONE', *, *, #340, .F. ) ;
#81 =( NAMED_UNIT ( * ) SI_UNIT ( $, .STERADIAN. ) SOLID_ANGLE_UNIT ( ) );
#82 = PRESENTATION_LAYER_ASSIGNMENT (  '', '', ( #11 ) ) ;
#83 = MECHANICAL_DESIGN_GEOMETRIC_PRESENTATION_REPRESENTATION (  '', ( #143 ), #165 ) ;
#84 = ORIENTED_EDGE ( 'NONE', *, *, #304, .T. ) ;
#85 =( CONVERSION_BASED_UNIT ( 'INCH', #119 ) LENGTH_UNIT ( ) NAMED_UNIT ( #147 ) );
#86 = ORIENTED_EDGE ( 'NONE', *, *, #28, .T. ) ;
#87 = CARTESIAN_POINT ( 'NONE',  ( 1.913510623667738847E-17, 0.4374999999999998890, 0.1562499999999999722 ) ) ;
#88 =( CONVERSION_BASED_UNIT ( 'INCH', #356 ) LENGTH_UNIT ( ) NAMED_UNIT ( #26 ) );
#89 =( GEOMETRIC_REPRESENTATION_CONTEXT ( 3 ) GLOBAL_UNCERTAINTY_ASSIGNED_CONTEXT ( ( #69 ) ) GLOBAL_UNIT_ASSIGNED_CONTEXT ( ( #88, #283, #195 ) ) REPRESENTATION_CONTEXT ( 'NONE', 'WORKASPACE' ) );
#90 = AXIS2_PLACEMENT_3D ( 'NONE', #107, #368, #350 ) ;
#91 = LENGTH_MEASURE_WITH_UNIT ( LENGTH_MEASURE( 0.02539999999999999897 ), #241 );
#92 = ORIENTED_EDGE ( 'NONE', *, *, #224, .F. ) ;
#93 = CARTESIAN_POINT ( 'NONE',  ( 1.224646799147353700E-16, 2.000000000000000000, 0.000000000000000000 ) ) ;
#94 = DIRECTION ( 'NONE',  ( 0.000000000000000000, 0.000000000000000000, 1.000000000000000000 ) ) ;
#95 = STYLED_ITEM ( 'NONE', ( #197 ), #61 ) ;
#96 = LENGTH_MEASURE_WITH_UNIT ( LENGTH_MEASURE( 0.02539999999999999897 ), #17 );
#97 = SURFACE_STYLE_USAGE ( .BOTH. , #43 ) ;
#98 =( LENGTH_UNIT ( ) NAMED_UNIT ( * ) SI_UNIT ( $, .METRE. ) );
#99 = ADVANCED_FACE ( 'NONE', ( #366 ), #321, .T. ) ;
#100 =( NAMED_UNIT ( * ) SI_UNIT ( $, .STERADIAN. ) SOLID_ANGLE_UNIT ( ) );
#101 =( NAMED_UNIT ( * ) PLANE_ANGLE_UNIT ( ) SI_UNIT ( $, .RADIAN. ) );
#102 = SURFACE_SIDE_STYLE ('',( #312 ) ) ;
#103 = PRODUCT_RELATED_PRODUCT_CATEGORY ( 'part', '', ( #259 ) ) ;
#104 = DIRECTION ( 'NONE',  ( -1.000000000000000000, -1.224617468841839956E-16, 0.000000000000000000 ) ) ;
#105 =( CONVERSION_BASED_UNIT ( 'INCH', #79 ) LENGTH_UNIT ( ) NAMED_UNIT ( #324 ) );
#106 = ORIENTED_EDGE ( 'NONE', *, *, #140, .T. ) ;
#107 = CARTESIAN_POINT ( 'NONE',  ( 3.138111594212728585E-16, 0.4374999999999998890, 0.000000000000000000 ) ) ;
#108 = DIRECTION ( 'NONE',  ( -1.224617468841839956E-16, 1.000000000000000000, 0.000000000000000000 ) ) ;
#109 = DIRECTION ( 'NONE',  ( 0.000000000000000000, 0.000000000000000000, 1.000000000000000000 ) ) ;
#110 = EDGE_CURVE ( 'NONE', #12, #185, #344, .T. ) ;
#111 = VERTEX_POINT ( 'NONE', #230 ) ;
#112 = FILL_AREA_STYLE_COLOUR ( '', #367 ) ;
#113 = DIMENSIONAL_EXPONENTS ( 1.000000000000000000, 0.000000000000000000, 0.000000000000000000, 0.000000000000000000, 0.000000000000000000, 0.000000000000000000, 0.000000000000000000 ) ;
#114 = PLANE ( 'NONE',  #325 ) ;
#115 = CARTESIAN_POINT ( 'NONE',  ( 0.000000000000000000, 0.4374999999999998890, 0.000000000000000000 ) ) ;
#116 = MECHANICAL_DESIGN_GEOMETRIC_PRESENTATION_REPRESENTATION (  '', ( #11 ), #361 ) ;
#117 = FACE_OUTER_BOUND ( 'NONE', #6, .T. ) ;
#118 = DIRECTION ( 'NONE',  ( -1.000000000000000000, 0.000000000000000000, 0.000000000000000000 ) ) ;
#119 = LENGTH_MEASURE_WITH_UNIT ( LENGTH_MEASURE( 0.02539999999999999897 ), #30 );
#120 = DIRECTION ( 'NONE',  ( -1.224617468841839956E-16, 1.000000000000000000, -0.000000000000000000 ) ) ;
#121 = DIRECTION ( 'NONE',  ( -1.000000000000000000, 0.000000000000000000, 0.000000000000000000 ) ) ;
#122 = CARTESIAN_POINT ( 'NONE',  ( 1.224646799147353700E-16, 2.000000000000000000, 0.000000000000000000 ) ) ;
#123 = PRESENTATION_LAYER_ASSIGNMENT (  '', '', ( #143 ) ) ;
#124 = EDGE_LOOP ( 'NONE', ( #212, #139 ) ) ;
#125 =( LENGTH_UNIT ( ) NAMED_UNIT ( * ) SI_UNIT ( $, .METRE. ) );
#126 = FILL_AREA_STYLE ('',( #219 ) ) ;
#127 = AXIS2_PLACEMENT_3D ( 'NONE', #306, #94, #128 ) ;
#128 = DIRECTION ( 'NONE',  ( 1.000000000000000000, 0.000000000000000000, 0.000000000000000000 ) ) ;
#129 = FILL_AREA_STYLE ('',( #223 ) ) ;
#130 =( CONVERSION_BASED_UNIT ( 'INCH', #96 ) LENGTH_UNIT ( ) NAMED_UNIT ( #296 ) );
#131 =( CONVERSION_BASED_UNIT ( 'INCH', #63 ) LENGTH_UNIT ( ) NAMED_UNIT ( #58 ) );
#132 =( CONVERSION_BASED_UNIT ( 'INCH', #318 ) LENGTH_UNIT ( ) NAMED_UNIT ( #210 ) );
#133 = COLOUR_RGB ( '',0.7921568627450980005, 0.8196078431372548767, 0.9333333333333333481 ) ;
#134 = DIRECTION ( 'NONE',  ( -1.224617468841839956E-16, 1.000000000000000000, -0.000000000000000000 ) ) ;
#135 =( LENGTH_UNIT ( ) NAMED_UNIT ( * ) SI_UNIT ( $, .METRE. ) );
#136 = DIRECTION ( 'NONE',  ( 0.000000000000000000, 0.000000000000000000, -1.000000000000000000 ) ) ;
#137 = EDGE_LOOP ( 'NONE', ( #295, #2, #173, #10, #341 ) ) ;
#138 = DIRECTION ( 'NONE',  ( 0.000000000000000000, 0.000000000000000000, -1.000000000000000000 ) ) ;
#139 = ORIENTED_EDGE ( 'NONE', *, *, #33, .F. ) ;
#140 = EDGE_CURVE ( 'NONE', #8, #358, #164, .T. ) ;
#141 = CIRCLE ( 'NONE', #192, 0.1562499999999998335 ) ;
#142 = CARTESIAN_POINT ( 'NONE',  ( -0.1562499999999996947, 2.000000000000000000, 0.000000000000000000 ) ) ;
#143 = STYLED_ITEM ( 'NONE', ( #171 ), #191 ) ;
#144 = FILL_AREA_STYLE ('',( #316 ) ) ;
#145 = DIRECTION ( 'NONE',  ( -0.000000000000000000, -1.000000000000000000, -0.000000000000000000 ) ) ;
#146 = MECHANICAL_DESIGN_GEOMETRIC_PRESENTATION_REPRESENTATION (  '', ( #319 ), #247 ) ;
#147 = DIMENSIONAL_EXPONENTS ( 1.000000000000000000, 0.000000000000000000, 0.000000000000000000, 0.000000000000000000, 0.000000000000000000, 0.000000000000000000, 0.000000000000000000 ) ;
#148 =( CONVERSION_BASED_UNIT ( 'INCH', #91 ) LENGTH_UNIT ( ) NAMED_UNIT ( #177 ) );
#149 = VERTEX_POINT ( 'NONE', #322 ) ;
#150 = ORIENTED_EDGE ( 'NONE', *, *, #340, .T. ) ;
#151 = ADVANCED_BREP_SHAPE_REPRESENTATION ( '81461', ( #56, #191, #293 ), #233 ) ;
#152 = EDGE_LOOP ( 'NONE', ( #106, #303, #332, #178, #231 ) ) ;
#153 = PRODUCT_DEFINITION_FORMATION_WITH_SPECIFIED_SOURCE ( 'ANY', '', #259, .NOT_KNOWN. ) ;
#154 = VERTEX_POINT ( 'NONE', #142 ) ;
#155 = UNCERTAINTY_MEASURE_WITH_UNIT (LENGTH_MEASURE( 1.000000000000000082E-05 ), #317, 'distance_accuracy_value', 'NONE');
#156 = DIRECTION ( 'NONE',  ( -1.224617468841839956E-16, 1.000000000000000000, -0.000000000000000000 ) ) ;
#157 = ADVANCED_FACE ( 'NONE', ( #372 ), #254, .T. ) ;
#158 = PRESENTATION_LAYER_ASSIGNMENT (  '', '', ( #353 ) ) ;
#159 = SURFACE_STYLE_FILL_AREA ( #126 ) ;
#160 = PRESENTATION_STYLE_ASSIGNMENT (( #315 ) ) ;
#161 = UNCERTAINTY_MEASURE_WITH_UNIT (LENGTH_MEASURE( 1.000000000000000082E-05 ), #105, 'distance_accuracy_value', 'NONE');
#162 = DIRECTION ( 'NONE',  ( 0.000000000000000000, 0.000000000000000000, -1.000000000000000000 ) ) ;
#163 =( NAMED_UNIT ( * ) SI_UNIT ( $, .STERADIAN. ) SOLID_ANGLE_UNIT ( ) );
#164 = CIRCLE ( 'NONE', #271, 0.1562499999999999722 ) ;
#165 =( GEOMETRIC_REPRESENTATION_CONTEXT ( 3 ) GLOBAL_UNCERTAINTY_ASSIGNED_CONTEXT ( ( #308 ) ) GLOBAL_UNIT_ASSIGNED_CONTEXT ( ( #132, #44, #163 ) ) REPRESENTATION_CONTEXT ( 'NONE', 'WORKASPACE' ) );
#166 = SPHERICAL_SURFACE ( 'NONE', #355, 0.1562500000000000000 ) ;
#167 = CARTESIAN_POINT ( 'NONE',  ( 0.1562499999999999722, 2.000000000000000000, 1.913510623667736382E-17 ) ) ;
#168 = DIRECTION ( 'NONE',  ( 1.000000000000000000, 0.000000000000000000, 0.000000000000000000 ) ) ;
#169 = EDGE_CURVE ( 'NONE', #328, #111, #202, .T. ) ;
#170 = CARTESIAN_POINT ( 'NONE',  ( 0.000000000000000000, 0.1562500000000000278, 0.000000000000000000 ) ) ;
#171 = PRESENTATION_STYLE_ASSIGNMENT (( #373 ) ) ;
#172 =( NAMED_UNIT ( * ) PLANE_ANGLE_UNIT ( ) SI_UNIT ( $, .RADIAN. ) );
#173 = ORIENTED_EDGE ( 'NONE', *, *, #327, .T. ) ;
#174 =( NAMED_UNIT ( * ) PLANE_ANGLE_UNIT ( ) SI_UNIT ( $, .RADIAN. ) );
#175 = ADVANCED_FACE ( 'NONE', ( #64 ), #249, .T. ) ;
#176 = EDGE_LOOP ( 'NONE', ( #359, #184, #39, #66 ) ) ;
#177 = DIMENSIONAL_EXPONENTS ( 1.000000000000000000, 0.000000000000000000, 0.000000000000000000, 0.000000000000000000, 0.000000000000000000, 0.000000000000000000, 0.000000000000000000 ) ;
#178 = ORIENTED_EDGE ( 'NONE', *, *, #260, .F. ) ;
#179 = SURFACE_SIDE_STYLE ('',( #357 ) ) ;
#180 = MECHANICAL_DESIGN_GEOMETRIC_PRESENTATION_REPRESENTATION (  '', ( #292 ), #313 ) ;
#181 = CIRCLE ( 'NONE', #62, 0.1562500000000000000 ) ;
#182 = EDGE_CURVE ( 'NONE', #358, #111, #204, .T. ) ;
#183 = ORIENTED_EDGE ( 'NONE', *, *, #282, .T. ) ;
#184 = ORIENTED_EDGE ( 'NONE', *, *, #40, .T. ) ;
#185 = VERTEX_POINT ( 'NONE', #167 ) ;
#186 =( GEOMETRIC_REPRESENTATION_CONTEXT ( 3 ) GLOBAL_UNCERTAINTY_ASSIGNED_CONTEXT ( ( #189 ) ) GLOBAL_UNIT_ASSIGNED_CONTEXT ( ( #131, #339, #310 ) ) REPRESENTATION_CONTEXT ( 'NONE', 'WORKASPACE' ) );
#187 = MECHANICAL_DESIGN_GEOMETRIC_PRESENTATION_REPRESENTATION (  '', ( #353 ), #89 ) ;
#188 = PRODUCT_DEFINITION ( 'UNKNOWN', '', #153, #73 ) ;
#189 = UNCERTAINTY_MEASURE_WITH_UNIT (LENGTH_MEASURE( 1.000000000000000082E-05 ), #131, 'distance_accuracy_value', 'NONE');
#190 = FACE_OUTER_BOUND ( 'NONE', #176, .T. ) ;
#191 = MANIFOLD_SOLID_BREP ( 'Revolve - Tool Body (Straight Shanked)', #245 ) ;
#192 = AXIS2_PLACEMENT_3D ( 'NONE', #93, #120, #272 ) ;
#193 = AXIS2_PLACEMENT_3D ( 'NONE', #263, #323, #265 ) ;
#194 = CIRCLE ( 'NONE', #363, 0.1562500000000000000 ) ;
#195 =( NAMED_UNIT ( * ) SI_UNIT ( $, .STERADIAN. ) SOLID_ANGLE_UNIT ( ) );
#196 = DIRECTION ( 'NONE',  ( 1.224646799147353207E-16, -0.000000000000000000, 1.000000000000000000 ) ) ;
#197 = PRESENTATION_STYLE_ASSIGNMENT (( #360 ) ) ;
#198 = DIRECTION ( 'NONE',  ( -0.000000000000000000, -1.000000000000000000, -0.000000000000000000 ) ) ;
#199 = CARTESIAN_POINT ( 'NONE',  ( 0.000000000000000000, 0.4374999999999998890, 0.000000000000000000 ) ) ;
#200 = APPLICATION_CONTEXT ( 'automotive_design' ) ;
#201 = CARTESIAN_POINT ( 'NONE',  ( 0.000000000000000000, 0.000000000000000000, -0.1562500000000000000 ) ) ;
#202 = CIRCLE ( 'NONE', #251, 0.1562500000000000000 ) ;
#203 = EDGE_CURVE ( 'NONE', #305, #154, #42, .T. ) ;
#204 = LINE ( 'NONE', #49, #307 ) ;
#205 = CARTESIAN_POINT ( 'NONE',  ( -0.1562500000000000000, 0.1562500000000000278, 1.913510623667738847E-17 ) ) ;
#206 = CARTESIAN_POINT ( 'NONE',  ( 0.000000000000000000, 0.1562500000000000278, 0.000000000000000000 ) ) ;
#207 = ORIENTED_EDGE ( 'NONE', *, *, #268, .F. ) ;
#208 = PRESENTATION_LAYER_ASSIGNMENT (  '', '', ( #285 ) ) ;
#209 = AXIS2_PLACEMENT_3D ( 'NONE', #286, #108, #104 ) ;
#210 = DIMENSIONAL_EXPONENTS ( 1.000000000000000000, 0.000000000000000000, 0.000000000000000000, 0.000000000000000000, 0.000000000000000000, 0.000000000000000000, 0.000000000000000000 ) ;
#211 = DIRECTION ( 'NONE',  ( -1.000000000000000000, 0.000000000000000000, 0.000000000000000000 ) ) ;
#212 = ORIENTED_EDGE ( 'NONE', *, *, #140, .F. ) ;
#213 = APPLICATION_PROTOCOL_DEFINITION ( 'draft international standard', 'automotive_design', 1998, #200 ) ;
#214 = CARTESIAN_POINT ( 'NONE',  ( 0.1562499999999999722, 2.000000000000000000, 0.000000000000000000 ) ) ;
#215 = ORIENTED_EDGE ( 'NONE', *, *, #268, .T. ) ;
#216 = ADVANCED_FACE ( 'NONE', ( #48 ), #227, .F. ) ;
#217 = EDGE_LOOP ( 'NONE', ( #92, #53 ) ) ;
#218 = DIRECTION ( 'NONE',  ( -1.224617468841839956E-16, 1.000000000000000000, -0.000000000000000000 ) ) ;
#219 = FILL_AREA_STYLE_COLOUR ( '', #281 ) ;
#220 = PRESENTATION_LAYER_ASSIGNMENT (  '', '', ( #95 ) ) ;
#221 = VECTOR ( 'NONE', #347, 39.37007874015748143 ) ;
#222 = ORIENTED_EDGE ( 'NONE', *, *, #203, .F. ) ;
#223 = FILL_AREA_STYLE_COLOUR ( '', #75 ) ;
#224 = EDGE_CURVE ( 'NONE', #305, #12, #37, .T. ) ;
#225 = CLOSED_SHELL ( 'NONE', ( #157, #99, #61, #175, #77 ) ) ;
#226 = COLOUR_RGB ( '',1.000000000000000000, 0.000000000000000000, 0.000000000000000000 ) ;
#227 = PLANE ( 'NONE',  #209 ) ;
#228 = FACE_OUTER_BOUND ( 'NONE', #124, .T. ) ;
#229 = SURFACE_STYLE_FILL_AREA ( #144 ) ;
#230 = CARTESIAN_POINT ( 'NONE',  ( 1.913510623667739463E-17, 0.1562500000000000278, 0.1562500000000000000 ) ) ;
#231 = ORIENTED_EDGE ( 'NONE', *, *, #327, .F. ) ;
#232 = CARTESIAN_POINT ( 'NONE',  ( -1.913510623667739463E-17, 0.1562500000000000000, 0.000000000000000000 ) ) ;
#233 =( GEOMETRIC_REPRESENTATION_CONTEXT ( 3 ) GLOBAL_UNCERTAINTY_ASSIGNED_CONTEXT ( ( #338 ) ) GLOBAL_UNIT_ASSIGNED_CONTEXT ( ( #85, #174, #326 ) ) REPRESENTATION_CONTEXT ( 'NONE', 'WORKASPACE' ) );
#234 = FILL_AREA_STYLE ('',( #112 ) ) ;
#235 = CARTESIAN_POINT ( 'NONE',  ( 0.000000000000000000, 0.000000000000000000, 0.000000000000000000 ) ) ;
#236 = DIRECTION ( 'NONE',  ( 1.000000000000000000, 1.224617468841839956E-16, 0.000000000000000000 ) ) ;
#237 = AXIS2_PLACEMENT_3D ( 'NONE', #115, #145, #35 ) ;
#238 = AXIS2_PLACEMENT_3D ( 'NONE', #342, #156, #279 ) ;
#239 = PRESENTATION_STYLE_ASSIGNMENT (( #302 ) ) ;
#240 = PRESENTATION_STYLE_ASSIGNMENT (( #246 ) ) ;
#241 =( LENGTH_UNIT ( ) NAMED_UNIT ( * ) SI_UNIT ( $, .METRE. ) );
#242 = FILL_AREA_STYLE ('',( #244 ) ) ;
#243 =( NAMED_UNIT ( * ) PLANE_ANGLE_UNIT ( ) SI_UNIT ( $, .RADIAN. ) );
#244 = FILL_AREA_STYLE_COLOUR ( '', #276 ) ;
#245 = CLOSED_SHELL ( 'NONE', ( #349, #216, #72, #333 ) ) ;
#246 = SURFACE_STYLE_USAGE ( .BOTH. , #179 ) ;
#247 =( GEOMETRIC_REPRESENTATION_CONTEXT ( 3 ) GLOBAL_UNCERTAINTY_ASSIGNED_CONTEXT ( ( #18 ) ) GLOBAL_UNIT_ASSIGNED_CONTEXT ( ( #148, #243, #100 ) ) REPRESENTATION_CONTEXT ( 'NONE', 'WORKASPACE' ) );
#248 = ORIENTED_EDGE ( 'NONE', *, *, #110, .T. ) ;
#249 = CYLINDRICAL_SURFACE ( 'NONE', #193, 0.1562500000000000000 ) ;
#250 = SURFACE_STYLE_FILL_AREA ( #14 ) ;
#251 = AXIS2_PLACEMENT_3D ( 'NONE', #206, #253, #67 ) ;
#252 = CIRCLE ( 'NONE', #309, 0.1562500000000000000 ) ;
#253 = DIRECTION ( 'NONE',  ( -0.000000000000000000, -1.000000000000000000, -0.000000000000000000 ) ) ;
#254 = SPHERICAL_SURFACE ( 'NONE', #127, 0.1562500000000000000 ) ;
#255 = CARTESIAN_POINT ( 'NONE',  ( 0.000000000000000000, 0.4374999999999998890, 0.000000000000000000 ) ) ;
#256 = UNCERTAINTY_MEASURE_WITH_UNIT (LENGTH_MEASURE( 1.000000000000000082E-05 ), #130, 'distance_accuracy_value', 'NONE');
#257 = AXIS2_PLACEMENT_3D ( 'NONE', #170, #198, #346 ) ;
#258 = SURFACE_SIDE_STYLE ('',( #229 ) ) ;
#259 = PRODUCT ( '81461', '81461', '', ( #298 ) ) ;
#260 = EDGE_CURVE ( 'NONE', #149, #328, #5, .T. ) ;
#261 = DIRECTION ( 'NONE',  ( -0.000000000000000000, -1.000000000000000000, -0.000000000000000000 ) ) ;
#262 = SURFACE_SIDE_STYLE ('',( #348 ) ) ;
#263 = CARTESIAN_POINT ( 'NONE',  ( 0.000000000000000000, 0.000000000000000000, 0.000000000000000000 ) ) ;
#264 = AXIS2_PLACEMENT_3D ( 'NONE', #122, #29, #118 ) ;
#265 = DIRECTION ( 'NONE',  ( 0.000000000000000000, 0.000000000000000000, -1.000000000000000000 ) ) ;
#266 = AXIS2_PLACEMENT_3D ( 'NONE', #255, #362, #16 ) ;
#267 = CIRCLE ( 'NONE', #15, 0.1562500000000000000 ) ;
#268 = EDGE_CURVE ( 'NONE', #329, #273, #267, .T. ) ;
#269 = CARTESIAN_POINT ( 'NONE',  ( -0.1562499999999995837, 2.000000000000000000, 0.000000000000000000 ) ) ;
#270 = SHAPE_DEFINITION_REPRESENTATION ( #314, #151 ) ;
#271 = AXIS2_PLACEMENT_3D ( 'NONE', #199, #289, #23 ) ;
#272 = DIRECTION ( 'NONE',  ( -1.000000000000000000, 0.000000000000000000, 0.000000000000000000 ) ) ;
#273 = VERTEX_POINT ( 'NONE', #288 ) ;
#274 = DIRECTION ( 'NONE',  ( 1.224617468841839956E-16, -1.000000000000000000, 0.000000000000000000 ) ) ;
#275 = EDGE_LOOP ( 'NONE', ( #84, #215, #80, #364 ) ) ;
#276 = COLOUR_RGB ( '',0.7921568627450980005, 0.8196078431372548767, 0.9333333333333333481 ) ;
#277 = CARTESIAN_POINT ( 'NONE',  ( 3.138111594212728585E-16, 0.4374999999999998890, 0.000000000000000000 ) ) ;
#278 =( GEOMETRIC_REPRESENTATION_CONTEXT ( 3 ) GLOBAL_UNCERTAINTY_ASSIGNED_CONTEXT ( ( #161 ) ) GLOBAL_UNIT_ASSIGNED_CONTEXT ( ( #105, #172, #81 ) ) REPRESENTATION_CONTEXT ( 'NONE', 'WORKASPACE' ) );
#279 = DIRECTION ( 'NONE',  ( -1.000000000000000000, 0.000000000000000000, 0.000000000000000000 ) ) ;
#280 = DIRECTION ( 'NONE',  ( -1.224617468841839956E-16, 1.000000000000000000, -0.000000000000000000 ) ) ;
#281 = COLOUR_RGB ( '',1.000000000000000000, 0.000000000000000000, 0.000000000000000000 ) ;
#282 = EDGE_CURVE ( 'NONE', #329, #149, #194, .T. ) ;
#283 =( NAMED_UNIT ( * ) PLANE_ANGLE_UNIT ( ) SI_UNIT ( $, .RADIAN. ) );
#284 = CARTESIAN_POINT ( 'NONE',  ( -1.913510623667739463E-17, 0.1562500000000000000, 0.000000000000000000 ) ) ;
#285 = STYLED_ITEM ( 'NONE', ( #291 ), #99 ) ;
#286 = CARTESIAN_POINT ( 'NONE',  ( 3.138111594212728585E-16, 0.4374999999999998890, 0.000000000000000000 ) ) ;
#287 =( LENGTH_UNIT ( ) NAMED_UNIT ( * ) SI_UNIT ( $, .METRE. ) );
#288 = CARTESIAN_POINT ( 'NONE',  ( -9.567553118338697316E-18, 0.000000000000000000, 0.000000000000000000 ) ) ;
#289 = DIRECTION ( 'NONE',  ( -0.000000000000000000, -1.000000000000000000, -0.000000000000000000 ) ) ;
#290 =( NAMED_UNIT ( * ) SI_UNIT ( $, .STERADIAN. ) SOLID_ANGLE_UNIT ( ) );
#291 = PRESENTATION_STYLE_ASSIGNMENT (( #19 ) ) ;
#292 = STYLED_ITEM ( 'NONE', ( #160 ), #175 ) ;
#293 = AXIS2_PLACEMENT_3D ( 'NONE', #235, #54, #7 ) ;
#294 = FILL_AREA_STYLE ('',( #76 ) ) ;
#295 = ORIENTED_EDGE ( 'NONE', *, *, #182, .F. ) ;
#296 = DIMENSIONAL_EXPONENTS ( 1.000000000000000000, 0.000000000000000000, 0.000000000000000000, 0.000000000000000000, 0.000000000000000000, 0.000000000000000000, 0.000000000000000000 ) ;
#297 = ORIENTED_EDGE ( 'NONE', *, *, #224, .T. ) ;
#298 = PRODUCT_CONTEXT ( 'NONE', #3, 'mechanical' ) ;
#299 = PRESENTATION_LAYER_ASSIGNMENT (  '', '', ( #292 ) ) ;
#300 =( LENGTH_UNIT ( ) NAMED_UNIT ( * ) SI_UNIT ( $, .METRE. ) );
#301 = FACE_OUTER_BOUND ( 'NONE', #60, .T. ) ;
#302 = SURFACE_STYLE_USAGE ( .BOTH. , #50 ) ;
#303 = ORIENTED_EDGE ( 'NONE', *, *, #182, .T. ) ;
#304 = EDGE_CURVE ( 'NONE', #111, #329, #252, .T. ) ;
#305 = VERTEX_POINT ( 'NONE', #369 ) ;
#306 = CARTESIAN_POINT ( 'NONE',  ( -1.913510623667739463E-17, 0.1562500000000000000, 0.000000000000000000 ) ) ;
#307 = VECTOR ( 'NONE', #46, 39.37007874015748143 ) ;
#308 = UNCERTAINTY_MEASURE_WITH_UNIT (LENGTH_MEASURE( 1.000000000000000082E-05 ), #132, 'distance_accuracy_value', 'NONE');
#309 = AXIS2_PLACEMENT_3D ( 'NONE', #22, #261, #138 ) ;
#310 =( NAMED_UNIT ( * ) SI_UNIT ( $, .STERADIAN. ) SOLID_ANGLE_UNIT ( ) );
#311 = FILL_AREA_STYLE_COLOUR ( '', #20 ) ;
#312 = SURFACE_STYLE_FILL_AREA ( #129 ) ;
#313 =( GEOMETRIC_REPRESENTATION_CONTEXT ( 3 ) GLOBAL_UNCERTAINTY_ASSIGNED_CONTEXT ( ( #256 ) ) GLOBAL_UNIT_ASSIGNED_CONTEXT ( ( #130, #335, #290 ) ) REPRESENTATION_CONTEXT ( 'NONE', 'WORKASPACE' ) );
#314 = PRODUCT_DEFINITION_SHAPE ( 'NONE', 'NONE',  #188 ) ;
#315 = SURFACE_STYLE_USAGE ( .BOTH. , #102 ) ;
#316 = FILL_AREA_STYLE_COLOUR ( '', #133 ) ;
#317 =( CONVERSION_BASED_UNIT ( 'INCH', #41 ) LENGTH_UNIT ( ) NAMED_UNIT ( #113 ) );
#318 = LENGTH_MEASURE_WITH_UNIT ( LENGTH_MEASURE( 0.02539999999999999897 ), #135 );
#319 = STYLED_ITEM ( 'NONE', ( #239 ), #157 ) ;
#320 = CARTESIAN_POINT ( 'NONE',  ( 0.1562500000000000000, 0.1562500000000000278, 0.000000000000000000 ) ) ;
#321 = CYLINDRICAL_SURFACE ( 'NONE', #45, 0.1562500000000000000 ) ;
#322 = CARTESIAN_POINT ( 'NONE',  ( 0.000000000000000000, 0.1562500000000000278, -0.1562500000000000000 ) ) ;
#323 = DIRECTION ( 'NONE',  ( -0.000000000000000000, -1.000000000000000000, -0.000000000000000000 ) ) ;
#324 = DIMENSIONAL_EXPONENTS ( 1.000000000000000000, 0.000000000000000000, 0.000000000000000000, 0.000000000000000000, 0.000000000000000000, 0.000000000000000000, 0.000000000000000000 ) ;
#325 = AXIS2_PLACEMENT_3D ( 'NONE', #214, #274, #236 ) ;
#326 =( NAMED_UNIT ( * ) SI_UNIT ( $, .STERADIAN. ) SOLID_ANGLE_UNIT ( ) );
#327 = EDGE_CURVE ( 'NONE', #8, #149, #74, .T. ) ;
#328 = VERTEX_POINT ( 'NONE', #320 ) ;
#329 = VERTEX_POINT ( 'NONE', #205 ) ;
#330 = CARTESIAN_POINT ( 'NONE',  ( 1.224646799147353700E-16, 2.000000000000000000, 0.000000000000000000 ) ) ;
#331 = MECHANICAL_DESIGN_GEOMETRIC_PRESENTATION_REPRESENTATION (  '', ( #95 ), #186 ) ;
#332 = ORIENTED_EDGE ( 'NONE', *, *, #169, .F. ) ;
#333 = ADVANCED_FACE ( 'NONE', ( #117 ), #114, .F. ) ;
#334 = CARTESIAN_POINT ( 'NONE',  ( 0.1562499999999999445, 0.4374999999999998890, 1.913510623667736382E-17 ) ) ;
#335 =( NAMED_UNIT ( * ) PLANE_ANGLE_UNIT ( ) SI_UNIT ( $, .RADIAN. ) );
#336 = PLANE ( 'NONE',  #266 ) ;
#337 = VECTOR ( 'NONE', #134, 39.37007874015748143 ) ;
#338 = UNCERTAINTY_MEASURE_WITH_UNIT (LENGTH_MEASURE( 1.000000000000000082E-05 ), #85, 'distance_accuracy_value', 'NONE');
#339 =( NAMED_UNIT ( * ) PLANE_ANGLE_UNIT ( ) SI_UNIT ( $, .RADIAN. ) );
#340 = EDGE_CURVE ( 'NONE', #328, #273, #181, .T. ) ;
#341 = ORIENTED_EDGE ( 'NONE', *, *, #304, .F. ) ;
#342 = CARTESIAN_POINT ( 'NONE',  ( 1.224646799147353700E-16, 2.000000000000000000, 0.000000000000000000 ) ) ;
#343 = PRESENTATION_STYLE_ASSIGNMENT (( #97 ) ) ;
#344 = LINE ( 'NONE', #1, #337 ) ;
#345 = ORIENTED_EDGE ( 'NONE', *, *, #38, .T. ) ;
#346 = DIRECTION ( 'NONE',  ( 0.000000000000000000, 0.000000000000000000, -1.000000000000000000 ) ) ;
#347 = DIRECTION ( 'NONE',  ( -0.000000000000000000, -1.000000000000000000, -0.000000000000000000 ) ) ;
#348 = SURFACE_STYLE_FILL_AREA ( #294 ) ;
#349 = ADVANCED_FACE ( 'NONE', ( #301 ), #9, .T. ) ;
#350 = DIRECTION ( 'NONE',  ( -1.000000000000000000, 0.000000000000000000, 0.000000000000000000 ) ) ;
#351 = SURFACE_STYLE_FILL_AREA ( #234 ) ;
#352 = APPLICATION_PROTOCOL_DEFINITION ( 'draft international standard', 'automotive_design', 1998, #3 ) ;
#353 = STYLED_ITEM ( 'NONE', ( #240 ), #56 ) ;
#354 = DIRECTION ( 'NONE',  ( 0.000000000000000000, 0.000000000000000000, -1.000000000000000000 ) ) ;
#355 = AXIS2_PLACEMENT_3D ( 'NONE', #232, #109, #168 ) ;
#356 = LENGTH_MEASURE_WITH_UNIT ( LENGTH_MEASURE( 0.02539999999999999897 ), #300 );
#357 = SURFACE_STYLE_FILL_AREA ( #242 ) ;
#358 = VERTEX_POINT ( 'NONE', #87 ) ;
#359 = ORIENTED_EDGE ( 'NONE', *, *, #110, .F. ) ;
#360 = SURFACE_STYLE_USAGE ( .BOTH. , #13 ) ;
#361 =( GEOMETRIC_REPRESENTATION_CONTEXT ( 3 ) GLOBAL_UNCERTAINTY_ASSIGNED_CONTEXT ( ( #155 ) ) GLOBAL_UNIT_ASSIGNED_CONTEXT ( ( #317, #101, #70 ) ) REPRESENTATION_CONTEXT ( 'NONE', 'WORKASPACE' ) );
#362 = DIRECTION ( 'NONE',  ( 0.000000000000000000, 1.000000000000000000, 0.000000000000000000 ) ) ;
#363 = AXIS2_PLACEMENT_3D ( 'NONE', #21, #370, #162 ) ;
#364 = ORIENTED_EDGE ( 'NONE', *, *, #169, .T. ) ;
#365 = CYLINDRICAL_SURFACE ( 'NONE', #238, 0.1562499999999997224 ) ;
#366 = FACE_OUTER_BOUND ( 'NONE', #152, .T. ) ;
#367 = COLOUR_RGB ( '',1.000000000000000000, 0.000000000000000000, 0.000000000000000000 ) ;
#368 = DIRECTION ( 'NONE',  ( -1.224617468841839956E-16, 1.000000000000000000, -0.000000000000000000 ) ) ;
#369 = CARTESIAN_POINT ( 'NONE',  ( -0.1562499999999993339, 0.4374999999999998890, 0.000000000000000000 ) ) ;
#370 = DIRECTION ( 'NONE',  ( -0.000000000000000000, -1.000000000000000000, -0.000000000000000000 ) ) ;
#371 = PRESENTATION_LAYER_ASSIGNMENT (  '', '', ( #319 ) ) ;
#372 = FACE_OUTER_BOUND ( 'NONE', #275, .T. ) ;
#373 = SURFACE_STYLE_USAGE ( .BOTH. , #258 ) ;
ENDSEC;
END-ISO-10303-21;
