ISO-10303-21;
HEADER;
FILE_DESCRIPTION (( 'STEP AP214' ),
    '1' );
FILE_NAME ('44182W.STEP',
    '2023-06-22T19:35:29',
    ( '' ),
    ( '' ),
    'SwSTEP 2.0',
    'SolidWorks 2023',
    '' );
FILE_SCHEMA (( 'AUTOMOTIVE_DESIGN' ));
ENDSEC;

DATA;
#1 = ORIENTED_EDGE ( 'NONE', *, *, #105, .F. ) ;
#2 = UNCERTAINTY_MEASURE_WITH_UNIT (LENGTH_MEASURE( 1.000000000000000082E-05 ), #14, 'distance_accuracy_value', 'NONE');
#3 = ORIENTED_EDGE ( 'NONE', *, *, #194, .T. ) ;
#4 = AXIS2_PLACEMENT_3D ( 'NONE', #101, #122, #182 ) ;
#5 = PLANE ( 'NONE',  #240 ) ;
#6 = CARTESIAN_POINT ( 'NONE',  ( 0.000000000000000000, 0.000000000000000000, 0.000000000000000000 ) ) ;
#7 = CYLINDRICAL_SURFACE ( 'NONE', #178, 0.1562500000000000000 ) ;
#8 = ADVANCED_FACE ( 'NONE', ( #175 ), #268, .F. ) ;
#9 = SURFACE_STYLE_FILL_AREA ( #274 ) ;
#10 = ADVANCED_FACE ( 'NONE', ( #154 ), #7, .T. ) ;
#11 = FILL_AREA_STYLE_COLOUR ( '', #137 ) ;
#12 = FACE_OUTER_BOUND ( 'NONE', #293, .T. ) ;
#13 = ADVANCED_FACE ( 'NONE', ( #57 ), #257, .T. ) ;
#14 =( CONVERSION_BASED_UNIT ( 'INCH', #280 ) LENGTH_UNIT ( ) NAMED_UNIT ( #271 ) );
#15 = CARTESIAN_POINT ( 'NONE',  ( 0.000000000000000000, 0.000000000000000000, 0.000000000000000000 ) ) ;
#16 = VECTOR ( 'NONE', #87, 39.37007874015748143 ) ;
#17 =( GEOMETRIC_REPRESENTATION_CONTEXT ( 3 ) GLOBAL_UNCERTAINTY_ASSIGNED_CONTEXT ( ( #76 ) ) GLOBAL_UNIT_ASSIGNED_CONTEXT ( ( #18, #264, #43 ) ) REPRESENTATION_CONTEXT ( 'NONE', 'WORKASPACE' ) );
#18 =( CONVERSION_BASED_UNIT ( 'INCH', #115 ) LENGTH_UNIT ( ) NAMED_UNIT ( #98 ) );
#19 = ORIENTED_EDGE ( 'NONE', *, *, #269, .T. ) ;
#20 = UNCERTAINTY_MEASURE_WITH_UNIT (LENGTH_MEASURE( 1.000000000000000082E-05 ), #103, 'distance_accuracy_value', 'NONE');
#21 = DIRECTION ( 'NONE',  ( -0.000000000000000000, -1.000000000000000000, -0.000000000000000000 ) ) ;
#22 = SURFACE_SIDE_STYLE ('',( #309 ) ) ;
#23 = ORIENTED_EDGE ( 'NONE', *, *, #236, .F. ) ;
#24 = MECHANICAL_DESIGN_GEOMETRIC_PRESENTATION_REPRESENTATION (  '', ( #123 ), #211 ) ;
#25 = CIRCLE ( 'NONE', #86, 0.1562499999999999722 ) ;
#26 = DIRECTION ( 'NONE',  ( 0.000000000000000000, 0.000000000000000000, -1.000000000000000000 ) ) ;
#27 = ORIENTED_EDGE ( 'NONE', *, *, #67, .T. ) ;
#28 = DIRECTION ( 'NONE',  ( 0.000000000000000000, 0.000000000000000000, -1.000000000000000000 ) ) ;
#29 = ORIENTED_EDGE ( 'NONE', *, *, #158, .F. ) ;
#30 = DIMENSIONAL_EXPONENTS ( 1.000000000000000000, 0.000000000000000000, 0.000000000000000000, 0.000000000000000000, 0.000000000000000000, 0.000000000000000000, 0.000000000000000000 ) ;
#31 = PRODUCT_CONTEXT ( 'NONE', #283, 'mechanical' ) ;
#32 = PRESENTATION_LAYER_ASSIGNMENT (  '', '', ( #207 ) ) ;
#33 = PRESENTATION_STYLE_ASSIGNMENT (( #297 ) ) ;
#34 = SURFACE_STYLE_USAGE ( .BOTH. , #206 ) ;
#35 = DIRECTION ( 'NONE',  ( -3.628583108584750472E-17, 1.000000000000000000, -0.000000000000000000 ) ) ;
#36 = APPLICATION_PROTOCOL_DEFINITION ( 'draft international standard', 'automotive_design', 1998, #283 ) ;
#37 = ADVANCED_FACE ( 'NONE', ( #127 ), #78, .T. ) ;
#38 = CYLINDRICAL_SURFACE ( 'NONE', #96, 0.1562500000000000000 ) ;
#39 = LINE ( 'NONE', #60, #265 ) ;
#40 = FILL_AREA_STYLE_COLOUR ( '', #149 ) ;
#41 = SURFACE_STYLE_USAGE ( .BOTH. , #163 ) ;
#42 = CARTESIAN_POINT ( 'NONE',  ( 0.000000000000000000, 0.000000000000000000, -0.1562500000000000000 ) ) ;
#43 =( NAMED_UNIT ( * ) SI_UNIT ( $, .STERADIAN. ) SOLID_ANGLE_UNIT ( ) );
#44 = CLOSED_SHELL ( 'NONE', ( #13, #213, #10, #8 ) ) ;
#45 = VERTEX_POINT ( 'NONE', #124 ) ;
#46 =( GEOMETRIC_REPRESENTATION_CONTEXT ( 3 ) GLOBAL_UNCERTAINTY_ASSIGNED_CONTEXT ( ( #152 ) ) GLOBAL_UNIT_ASSIGNED_CONTEXT ( ( #56, #253, #153 ) ) REPRESENTATION_CONTEXT ( 'NONE', 'WORKASPACE' ) );
#47 = ORIENTED_EDGE ( 'NONE', *, *, #158, .T. ) ;
#48 = CARTESIAN_POINT ( 'NONE',  ( -0.1562500000000000833, 2.500000000000000000, 0.000000000000000000 ) ) ;
#49 = ORIENTED_EDGE ( 'NONE', *, *, #193, .F. ) ;
#50 = VECTOR ( 'NONE', #84, 39.37007874015748143 ) ;
#51 = AXIS2_PLACEMENT_3D ( 'NONE', #247, #250, #289 ) ;
#52 = FILL_AREA_STYLE_COLOUR ( '', #183 ) ;
#53 = VERTEX_POINT ( 'NONE', #298 ) ;
#54 =( NAMED_UNIT ( * ) SI_UNIT ( $, .STERADIAN. ) SOLID_ANGLE_UNIT ( ) );
#55 = PRESENTATION_STYLE_ASSIGNMENT (( #99 ) ) ;
#56 =( CONVERSION_BASED_UNIT ( 'INCH', #233 ) LENGTH_UNIT ( ) NAMED_UNIT ( #121 ) );
#57 = FACE_OUTER_BOUND ( 'NONE', #120, .T. ) ;
#58 = DIRECTION ( 'NONE',  ( 0.000000000000000000, 1.000000000000000000, 0.000000000000000000 ) ) ;
#59 = FACE_OUTER_BOUND ( 'NONE', #251, .T. ) ;
#60 = CARTESIAN_POINT ( 'NONE',  ( 0.1562499999999999445, 2.500000000000000000, 1.913510623667739463E-17 ) ) ;
#61 = DIMENSIONAL_EXPONENTS ( 1.000000000000000000, 0.000000000000000000, 0.000000000000000000, 0.000000000000000000, 0.000000000000000000, 0.000000000000000000, 0.000000000000000000 ) ;
#62 = CLOSED_SHELL ( 'NONE', ( #176, #37, #132, #94 ) ) ;
#63 = DIRECTION ( 'NONE',  ( 0.000000000000000000, 0.000000000000000000, -1.000000000000000000 ) ) ;
#64 = AXIS2_PLACEMENT_3D ( 'NONE', #6, #208, #125 ) ;
#65 = PRODUCT ( '44182W', '44182W', '', ( #31 ) ) ;
#66 = SURFACE_STYLE_USAGE ( .BOTH. , #192 ) ;
#67 = EDGE_CURVE ( 'NONE', #224, #143, #160, .T. ) ;
#68 = CARTESIAN_POINT ( 'NONE',  ( 1.913510623667739463E-17, 0.000000000000000000, 0.1562500000000000000 ) ) ;
#69 =( GEOMETRIC_REPRESENTATION_CONTEXT ( 3 ) GLOBAL_UNCERTAINTY_ASSIGNED_CONTEXT ( ( #218 ) ) GLOBAL_UNIT_ASSIGNED_CONTEXT ( ( #72, #174, #119 ) ) REPRESENTATION_CONTEXT ( 'NONE', 'WORKASPACE' ) );
#70 = ORIENTED_EDGE ( 'NONE', *, *, #193, .T. ) ;
#71 = STYLED_ITEM ( 'NONE', ( #227 ), #202 ) ;
#72 =( CONVERSION_BASED_UNIT ( 'INCH', #267 ) LENGTH_UNIT ( ) NAMED_UNIT ( #30 ) );
#73 = EDGE_LOOP ( 'NONE', ( #197, #114 ) ) ;
#74 = DIMENSIONAL_EXPONENTS ( 1.000000000000000000, 0.000000000000000000, 0.000000000000000000, 0.000000000000000000, 0.000000000000000000, 0.000000000000000000, 0.000000000000000000 ) ;
#75 = CIRCLE ( 'NONE', #287, 0.1562500000000000278 ) ;
#76 = UNCERTAINTY_MEASURE_WITH_UNIT (LENGTH_MEASURE( 1.000000000000000082E-05 ), #18, 'distance_accuracy_value', 'NONE');
#77 = PRESENTATION_STYLE_ASSIGNMENT (( #34 ) ) ;
#78 = PLANE ( 'NONE',  #284 ) ;
#79 = AXIS2_PLACEMENT_3D ( 'NONE', #281, #138, #185 ) ;
#80 =( NAMED_UNIT ( * ) SI_UNIT ( $, .STERADIAN. ) SOLID_ANGLE_UNIT ( ) );
#81 = SURFACE_SIDE_STYLE ('',( #9 ) ) ;
#82 =( GEOMETRIC_REPRESENTATION_CONTEXT ( 3 ) GLOBAL_UNCERTAINTY_ASSIGNED_CONTEXT ( ( #204 ) ) GLOBAL_UNIT_ASSIGNED_CONTEXT ( ( #255, #102, #80 ) ) REPRESENTATION_CONTEXT ( 'NONE', 'WORKASPACE' ) );
#83 = CARTESIAN_POINT ( 'NONE',  ( 0.000000000000000000, 0.8125000000000000000, -0.1562499999999999722 ) ) ;
#84 = DIRECTION ( 'NONE',  ( -0.000000000000000000, -1.000000000000000000, -0.000000000000000000 ) ) ;
#85 = MECHANICAL_DESIGN_GEOMETRIC_PRESENTATION_REPRESENTATION (  '', ( #207 ), #69 ) ;
#86 = AXIS2_PLACEMENT_3D ( 'NONE', #225, #21, #142 ) ;
#87 = DIRECTION ( 'NONE',  ( -0.000000000000000000, -1.000000000000000000, -0.000000000000000000 ) ) ;
#88 = AXIS2_PLACEMENT_3D ( 'NONE', #113, #244, #198 ) ;
#89 = DIRECTION ( 'NONE',  ( -3.628583108584750472E-17, 1.000000000000000000, -0.000000000000000000 ) ) ;
#90 = AXIS2_PLACEMENT_3D ( 'NONE', #282, #188, #165 ) ;
#91 = FILL_AREA_STYLE ('',( #246 ) ) ;
#92 = ORIENTED_EDGE ( 'NONE', *, *, #299, .F. ) ;
#93 = CARTESIAN_POINT ( 'NONE',  ( -0.1562499999999999722, 0.8125000000000001110, 0.000000000000000000 ) ) ;
#94 = ADVANCED_FACE ( 'NONE', ( #272 ), #5, .T. ) ;
#95 = CARTESIAN_POINT ( 'NONE',  ( 0.1562499999999999722, 2.500000000000000000, 0.000000000000000000 ) ) ;
#96 = AXIS2_PLACEMENT_3D ( 'NONE', #151, #196, #26 ) ;
#97 = PRODUCT_DEFINITION_CONTEXT ( 'detailed design', #263, 'design' ) ;
#98 = DIMENSIONAL_EXPONENTS ( 1.000000000000000000, 0.000000000000000000, 0.000000000000000000, 0.000000000000000000, 0.000000000000000000, 0.000000000000000000, 0.000000000000000000 ) ;
#99 = SURFACE_STYLE_USAGE ( .BOTH. , #81 ) ;
#100 = APPLICATION_PROTOCOL_DEFINITION ( 'draft international standard', 'automotive_design', 1998, #263 ) ;
#101 = CARTESIAN_POINT ( 'NONE',  ( -6.123233995736766036E-17, 2.500000000000000000, 0.000000000000000000 ) ) ;
#102 =( NAMED_UNIT ( * ) PLANE_ANGLE_UNIT ( ) SI_UNIT ( $, .RADIAN. ) );
#103 =( CONVERSION_BASED_UNIT ( 'INCH', #184 ) LENGTH_UNIT ( ) NAMED_UNIT ( #130 ) );
#104 = CARTESIAN_POINT ( 'NONE',  ( 0.000000000000000000, 0.000000000000000000, 0.000000000000000000 ) ) ;
#105 = EDGE_CURVE ( 'NONE', #143, #224, #170, .T. ) ;
#106 =( LENGTH_UNIT ( ) NAMED_UNIT ( * ) SI_UNIT ( $, .METRE. ) );
#107 = MECHANICAL_DESIGN_GEOMETRIC_PRESENTATION_REPRESENTATION (  '', ( #195 ), #221 ) ;
#108 =( NAMED_UNIT ( * ) SI_UNIT ( $, .STERADIAN. ) SOLID_ANGLE_UNIT ( ) );
#109 = DIRECTION ( 'NONE',  ( 0.000000000000000000, 0.000000000000000000, -1.000000000000000000 ) ) ;
#110 = PRODUCT_RELATED_PRODUCT_CATEGORY ( 'part', '', ( #65 ) ) ;
#111 = CARTESIAN_POINT ( 'NONE',  ( -0.1562500000000001110, 2.500000000000000000, 0.000000000000000000 ) ) ;
#112 = EDGE_LOOP ( 'NONE', ( #179, #27 ) ) ;
#113 = CARTESIAN_POINT ( 'NONE',  ( -6.123233995736766036E-17, 2.500000000000000000, 0.000000000000000000 ) ) ;
#114 = ORIENTED_EDGE ( 'NONE', *, *, #140, .F. ) ;
#115 = LENGTH_MEASURE_WITH_UNIT ( LENGTH_MEASURE( 0.02539999999999999897 ), #148 );
#116 = AXIS2_PLACEMENT_3D ( 'NONE', #95, #201, #217 ) ;
#117 = ORIENTED_EDGE ( 'NONE', *, *, #140, .T. ) ;
#118 = VERTEX_POINT ( 'NONE', #83 ) ;
#119 =( NAMED_UNIT ( * ) SI_UNIT ( $, .STERADIAN. ) SOLID_ANGLE_UNIT ( ) );
#120 = EDGE_LOOP ( 'NONE', ( #173, #290, #172, #49 ) ) ;
#121 = DIMENSIONAL_EXPONENTS ( 1.000000000000000000, 0.000000000000000000, 0.000000000000000000, 0.000000000000000000, 0.000000000000000000, 0.000000000000000000, 0.000000000000000000 ) ;
#122 = DIRECTION ( 'NONE',  ( -3.628583108584750472E-17, 1.000000000000000000, -0.000000000000000000 ) ) ;
#123 = STYLED_ITEM ( 'NONE', ( #243 ), #132 ) ;
#124 = CARTESIAN_POINT ( 'NONE',  ( 0.1562499999999999722, 2.500000000000000000, 1.913510623667739771E-17 ) ) ;
#125 = DIRECTION ( 'NONE',  ( 1.000000000000000000, 0.000000000000000000, 0.000000000000000000 ) ) ;
#126 = EDGE_CURVE ( 'NONE', #248, #45, #39, .T. ) ;
#127 = FACE_OUTER_BOUND ( 'NONE', #199, .T. ) ;
#128 = STYLED_ITEM ( 'NONE', ( #55 ), #94 ) ;
#129 = CIRCLE ( 'NONE', #88, 0.1562500000000000278 ) ;
#130 = DIMENSIONAL_EXPONENTS ( 1.000000000000000000, 0.000000000000000000, 0.000000000000000000, 0.000000000000000000, 0.000000000000000000, 0.000000000000000000, 0.000000000000000000 ) ;
#131 =( CONVERSION_BASED_UNIT ( 'INCH', #156 ) LENGTH_UNIT ( ) NAMED_UNIT ( #61 ) );
#132 = ADVANCED_FACE ( 'NONE', ( #12 ), #259, .T. ) ;
#133 = LENGTH_MEASURE_WITH_UNIT ( LENGTH_MEASURE( 0.02539999999999999897 ), #237 );
#134 = FILL_AREA_STYLE ('',( #161 ) ) ;
#135 = EDGE_CURVE ( 'NONE', #245, #248, #190, .T. ) ;
#136 = DIRECTION ( 'NONE',  ( 0.000000000000000000, -1.000000000000000000, -0.000000000000000000 ) ) ;
#137 = COLOUR_RGB ( '',1.000000000000000000, 0.000000000000000000, 0.000000000000000000 ) ;
#138 = DIRECTION ( 'NONE',  ( -3.628583108584750472E-17, 1.000000000000000000, -0.000000000000000000 ) ) ;
#139 = LINE ( 'NONE', #212, #50 ) ;
#140 = EDGE_CURVE ( 'NONE', #248, #245, #296, .T. ) ;
#141 = PRODUCT_DEFINITION_FORMATION_WITH_SPECIFIED_SOURCE ( 'ANY', '', #65, .NOT_KNOWN. ) ;
#142 = DIRECTION ( 'NONE',  ( 0.000000000000000000, 0.000000000000000000, -1.000000000000000000 ) ) ;
#143 = VERTEX_POINT ( 'NONE', #304 ) ;
#144 = DIRECTION ( 'NONE',  ( -1.000000000000000000, 0.000000000000000000, 0.000000000000000000 ) ) ;
#145 = ORIENTED_EDGE ( 'NONE', *, *, #168, .T. ) ;
#146 = CARTESIAN_POINT ( 'NONE',  ( -6.123233995736766036E-17, 2.500000000000000000, 0.000000000000000000 ) ) ;
#147 = ORIENTED_EDGE ( 'NONE', *, *, #236, .T. ) ;
#148 =( LENGTH_UNIT ( ) NAMED_UNIT ( * ) SI_UNIT ( $, .METRE. ) );
#149 = COLOUR_RGB ( '',1.000000000000000000, 0.000000000000000000, 0.000000000000000000 ) ;
#150 = ORIENTED_EDGE ( 'NONE', *, *, #194, .F. ) ;
#151 = CARTESIAN_POINT ( 'NONE',  ( 0.000000000000000000, 0.000000000000000000, 0.000000000000000000 ) ) ;
#152 = UNCERTAINTY_MEASURE_WITH_UNIT (LENGTH_MEASURE( 1.000000000000000082E-05 ), #56, 'distance_accuracy_value', 'NONE');
#153 =( NAMED_UNIT ( * ) SI_UNIT ( $, .STERADIAN. ) SOLID_ANGLE_UNIT ( ) );
#154 = FACE_OUTER_BOUND ( 'NONE', #228, .T. ) ;
#155 = SHAPE_DEFINITION_REPRESENTATION ( #285, #166 ) ;
#156 = LENGTH_MEASURE_WITH_UNIT ( LENGTH_MEASURE( 0.02539999999999999897 ), #230 );
#157 = SURFACE_SIDE_STYLE ('',( #234 ) ) ;
#158 = EDGE_CURVE ( 'NONE', #53, #224, #139, .T. ) ;
#159 = DIRECTION ( 'NONE',  ( 0.000000000000000000, -0.000000000000000000, 1.000000000000000000 ) ) ;
#160 = CIRCLE ( 'NONE', #260, 0.1562500000000000000 ) ;
#161 = FILL_AREA_STYLE_COLOUR ( '', #164 ) ;
#162 =( NAMED_UNIT ( * ) PLANE_ANGLE_UNIT ( ) SI_UNIT ( $, .RADIAN. ) );
#163 = SURFACE_SIDE_STYLE ('',( #215 ) ) ;
#164 = COLOUR_RGB ( '',1.000000000000000000, 0.000000000000000000, 0.000000000000000000 ) ;
#165 = DIRECTION ( 'NONE',  ( -1.000000000000000000, 0.000000000000000000, 0.000000000000000000 ) ) ;
#166 = ADVANCED_BREP_SHAPE_REPRESENTATION ( '44182W', ( #202, #302, #64 ), #261 ) ;
#167 = PRESENTATION_STYLE_ASSIGNMENT (( #66 ) ) ;
#168 = EDGE_CURVE ( 'NONE', #118, #143, #242, .T. ) ;
#169 = SURFACE_STYLE_USAGE ( .BOTH. , #22 ) ;
#170 = CIRCLE ( 'NONE', #186, 0.1562500000000000000 ) ;
#171 = CARTESIAN_POINT ( 'NONE',  ( 0.1562499999999999722, 0.8125000000000001110, 1.913510623667739771E-17 ) ) ;
#172 = ORIENTED_EDGE ( 'NONE', *, *, #269, .F. ) ;
#173 = ORIENTED_EDGE ( 'NONE', *, *, #135, .T. ) ;
#174 =( NAMED_UNIT ( * ) PLANE_ANGLE_UNIT ( ) SI_UNIT ( $, .RADIAN. ) );
#175 = FACE_OUTER_BOUND ( 'NONE', #220, .T. ) ;
#176 = ADVANCED_FACE ( 'NONE', ( #59 ), #38, .T. ) ;
#177 = LINE ( 'NONE', #48, #214 ) ;
#178 = AXIS2_PLACEMENT_3D ( 'NONE', #209, #35, #295 ) ;
#179 = ORIENTED_EDGE ( 'NONE', *, *, #105, .T. ) ;
#180 = DIRECTION ( 'NONE',  ( -0.000000000000000000, -1.000000000000000000, -0.000000000000000000 ) ) ;
#181 = PRODUCT_DEFINITION ( 'UNKNOWN', '', #141, #97 ) ;
#182 = DIRECTION ( 'NONE',  ( -1.000000000000000000, 0.000000000000000000, 0.000000000000000000 ) ) ;
#183 = COLOUR_RGB ( '',0.7921568627450980005, 0.8196078431372548767, 0.9333333333333333481 ) ;
#184 = LENGTH_MEASURE_WITH_UNIT ( LENGTH_MEASURE( 0.02539999999999999897 ), #254 );
#185 = DIRECTION ( 'NONE',  ( -1.000000000000000000, 0.000000000000000000, 0.000000000000000000 ) ) ;
#186 = AXIS2_PLACEMENT_3D ( 'NONE', #15, #262, #187 ) ;
#187 = DIRECTION ( 'NONE',  ( 0.000000000000000000, 0.000000000000000000, -1.000000000000000000 ) ) ;
#188 = DIRECTION ( 'NONE',  ( -3.628583108584750472E-17, 1.000000000000000000, -0.000000000000000000 ) ) ;
#189 = CARTESIAN_POINT ( 'NONE',  ( 0.000000000000000000, 0.000000000000000000, 0.000000000000000000 ) ) ;
#190 = CIRCLE ( 'NONE', #90, 0.1562499999999999722 ) ;
#191 = PRESENTATION_LAYER_ASSIGNMENT (  '', '', ( #71 ) ) ;
#192 = SURFACE_SIDE_STYLE ('',( #258 ) ) ;
#193 = EDGE_CURVE ( 'NONE', #245, #286, #177, .T. ) ;
#194 = EDGE_CURVE ( 'NONE', #45, #286, #75, .T. ) ;
#195 = STYLED_ITEM ( 'NONE', ( #33 ), #37 ) ;
#196 = DIRECTION ( 'NONE',  ( -0.000000000000000000, -1.000000000000000000, -0.000000000000000000 ) ) ;
#197 = ORIENTED_EDGE ( 'NONE', *, *, #135, .F. ) ;
#198 = DIRECTION ( 'NONE',  ( -1.000000000000000000, 0.000000000000000000, 0.000000000000000000 ) ) ;
#199 = EDGE_LOOP ( 'NONE', ( #92, #23 ) ) ;
#200 = COLOUR_RGB ( '',0.7921568627450980005, 0.8196078431372548767, 0.9333333333333333481 ) ;
#201 = DIRECTION ( 'NONE',  ( 3.628583108584750472E-17, -1.000000000000000000, 0.000000000000000000 ) ) ;
#202 = MANIFOLD_SOLID_BREP ( 'Revolve - Cutting Edge', #62 ) ;
#203 =( NAMED_UNIT ( * ) PLANE_ANGLE_UNIT ( ) SI_UNIT ( $, .RADIAN. ) );
#204 = UNCERTAINTY_MEASURE_WITH_UNIT (LENGTH_MEASURE( 1.000000000000000082E-05 ), #255, 'distance_accuracy_value', 'NONE');
#205 =( NAMED_UNIT ( * ) SI_UNIT ( $, .STERADIAN. ) SOLID_ANGLE_UNIT ( ) );
#206 = SURFACE_SIDE_STYLE ('',( #275 ) ) ;
#207 = STYLED_ITEM ( 'NONE', ( #167 ), #176 ) ;
#208 = DIRECTION ( 'NONE',  ( 0.000000000000000000, 0.000000000000000000, 1.000000000000000000 ) ) ;
#209 = CARTESIAN_POINT ( 'NONE',  ( -6.123233995736766036E-17, 2.500000000000000000, 0.000000000000000000 ) ) ;
#210 = FILL_AREA_STYLE_COLOUR ( '', #279 ) ;
#211 =( GEOMETRIC_REPRESENTATION_CONTEXT ( 3 ) GLOBAL_UNCERTAINTY_ASSIGNED_CONTEXT ( ( #2 ) ) GLOBAL_UNIT_ASSIGNED_CONTEXT ( ( #14, #162, #108 ) ) REPRESENTATION_CONTEXT ( 'NONE', 'WORKASPACE' ) );
#212 = CARTESIAN_POINT ( 'NONE',  ( 1.913510623667739463E-17, 0.000000000000000000, 0.1562500000000000000 ) ) ;
#213 = ADVANCED_FACE ( 'NONE', ( #223 ), #270, .F. ) ;
#214 = VECTOR ( 'NONE', #219, 39.37007874015748143 ) ;
#215 = SURFACE_STYLE_FILL_AREA ( #303 ) ;
#216 = DIRECTION ( 'NONE',  ( -0.000000000000000000, -1.000000000000000000, -0.000000000000000000 ) ) ;
#217 = DIRECTION ( 'NONE',  ( 1.000000000000000000, 3.628583108584750472E-17, 0.000000000000000000 ) ) ;
#218 = UNCERTAINTY_MEASURE_WITH_UNIT (LENGTH_MEASURE( 1.000000000000000082E-05 ), #72, 'distance_accuracy_value', 'NONE');
#219 = DIRECTION ( 'NONE',  ( -3.628583108584750472E-17, 1.000000000000000000, -0.000000000000000000 ) ) ;
#220 = EDGE_LOOP ( 'NONE', ( #19, #3 ) ) ;
#221 =( GEOMETRIC_REPRESENTATION_CONTEXT ( 3 ) GLOBAL_UNCERTAINTY_ASSIGNED_CONTEXT ( ( #20 ) ) GLOBAL_UNIT_ASSIGNED_CONTEXT ( ( #103, #203, #205 ) ) REPRESENTATION_CONTEXT ( 'NONE', 'WORKASPACE' ) );
#222 = AXIS2_PLACEMENT_3D ( 'NONE', #291, #216, #28 ) ;
#223 = FACE_OUTER_BOUND ( 'NONE', #73, .T. ) ;
#224 = VERTEX_POINT ( 'NONE', #68 ) ;
#225 = CARTESIAN_POINT ( 'NONE',  ( 0.000000000000000000, 0.8125000000000000000, 0.000000000000000000 ) ) ;
#226 = ORIENTED_EDGE ( 'NONE', *, *, #67, .F. ) ;
#227 = PRESENTATION_STYLE_ASSIGNMENT (( #169 ) ) ;
#228 = EDGE_LOOP ( 'NONE', ( #306, #117, #70, #150 ) ) ;
#229 = UNCERTAINTY_MEASURE_WITH_UNIT (LENGTH_MEASURE( 1.000000000000000082E-05 ), #131, 'distance_accuracy_value', 'NONE');
#230 =( LENGTH_UNIT ( ) NAMED_UNIT ( * ) SI_UNIT ( $, .METRE. ) );
#231 = CARTESIAN_POINT ( 'NONE',  ( 0.000000000000000000, 0.8125000000000000000, 0.000000000000000000 ) ) ;
#232 = FILL_AREA_STYLE ('',( #11 ) ) ;
#233 = LENGTH_MEASURE_WITH_UNIT ( LENGTH_MEASURE( 0.02539999999999999897 ), #294 );
#234 = SURFACE_STYLE_FILL_AREA ( #232 ) ;
#235 =( NAMED_UNIT ( * ) PLANE_ANGLE_UNIT ( ) SI_UNIT ( $, .RADIAN. ) );
#236 = EDGE_CURVE ( 'NONE', #53, #118, #25, .T. ) ;
#237 =( LENGTH_UNIT ( ) NAMED_UNIT ( * ) SI_UNIT ( $, .METRE. ) );
#238 = DIRECTION ( 'NONE',  ( -0.000000000000000000, -1.000000000000000000, -0.000000000000000000 ) ) ;
#239 = DIRECTION ( 'NONE',  ( -3.628583108584750472E-17, 1.000000000000000000, -0.000000000000000000 ) ) ;
#240 = AXIS2_PLACEMENT_3D ( 'NONE', #189, #136, #63 ) ;
#241 = STYLED_ITEM ( 'NONE', ( #77 ), #302 ) ;
#242 = LINE ( 'NONE', #42, #16 ) ;
#243 = PRESENTATION_STYLE_ASSIGNMENT (( #41 ) ) ;
#244 = DIRECTION ( 'NONE',  ( -3.628583108584750472E-17, 1.000000000000000000, -0.000000000000000000 ) ) ;
#245 = VERTEX_POINT ( 'NONE', #93 ) ;
#246 = FILL_AREA_STYLE_COLOUR ( '', #200 ) ;
#247 = CARTESIAN_POINT ( 'NONE',  ( 1.028641826242700682E-34, 0.8125000000000000000, 0.000000000000000000 ) ) ;
#248 = VERTEX_POINT ( 'NONE', #171 ) ;
#249 = MECHANICAL_DESIGN_GEOMETRIC_PRESENTATION_REPRESENTATION (  '', ( #128 ), #82 ) ;
#250 = DIRECTION ( 'NONE',  ( -3.628583108584750472E-17, 1.000000000000000000, 0.000000000000000000 ) ) ;
#251 = EDGE_LOOP ( 'NONE', ( #308, #47, #1, #252 ) ) ;
#252 = ORIENTED_EDGE ( 'NONE', *, *, #168, .F. ) ;
#253 =( NAMED_UNIT ( * ) PLANE_ANGLE_UNIT ( ) SI_UNIT ( $, .RADIAN. ) );
#254 =( LENGTH_UNIT ( ) NAMED_UNIT ( * ) SI_UNIT ( $, .METRE. ) );
#255 =( CONVERSION_BASED_UNIT ( 'INCH', #133 ) LENGTH_UNIT ( ) NAMED_UNIT ( #74 ) );
#256 = PRESENTATION_LAYER_ASSIGNMENT (  '', '', ( #195 ) ) ;
#257 = CYLINDRICAL_SURFACE ( 'NONE', #4, 0.1562500000000000000 ) ;
#258 = SURFACE_STYLE_FILL_AREA ( #134 ) ;
#259 = CYLINDRICAL_SURFACE ( 'NONE', #276, 0.1562500000000000000 ) ;
#260 = AXIS2_PLACEMENT_3D ( 'NONE', #104, #180, #278 ) ;
#261 =( GEOMETRIC_REPRESENTATION_CONTEXT ( 3 ) GLOBAL_UNCERTAINTY_ASSIGNED_CONTEXT ( ( #229 ) ) GLOBAL_UNIT_ASSIGNED_CONTEXT ( ( #131, #235, #54 ) ) REPRESENTATION_CONTEXT ( 'NONE', 'WORKASPACE' ) );
#262 = DIRECTION ( 'NONE',  ( -0.000000000000000000, -1.000000000000000000, -0.000000000000000000 ) ) ;
#263 = APPLICATION_CONTEXT ( 'automotive_design' ) ;
#264 =( NAMED_UNIT ( * ) PLANE_ANGLE_UNIT ( ) SI_UNIT ( $, .RADIAN. ) );
#265 = VECTOR ( 'NONE', #239, 39.37007874015748143 ) ;
#266 = CIRCLE ( 'NONE', #222, 0.1562499999999999722 ) ;
#267 = LENGTH_MEASURE_WITH_UNIT ( LENGTH_MEASURE( 0.02539999999999999897 ), #301 );
#268 = PLANE ( 'NONE',  #116 ) ;
#269 = EDGE_CURVE ( 'NONE', #286, #45, #129, .T. ) ;
#270 = PLANE ( 'NONE',  #51 ) ;
#271 = DIMENSIONAL_EXPONENTS ( 1.000000000000000000, 0.000000000000000000, 0.000000000000000000, 0.000000000000000000, 0.000000000000000000, 0.000000000000000000, 0.000000000000000000 ) ;
#272 = FACE_OUTER_BOUND ( 'NONE', #112, .T. ) ;
#273 = FILL_AREA_STYLE ('',( #52 ) ) ;
#274 = FILL_AREA_STYLE ('',( #210 ) ) ;
#275 = SURFACE_STYLE_FILL_AREA ( #273 ) ;
#276 = AXIS2_PLACEMENT_3D ( 'NONE', #305, #238, #109 ) ;
#277 = MECHANICAL_DESIGN_GEOMETRIC_PRESENTATION_REPRESENTATION (  '', ( #71 ), #17 ) ;
#278 = DIRECTION ( 'NONE',  ( 0.000000000000000000, 0.000000000000000000, -1.000000000000000000 ) ) ;
#279 = COLOUR_RGB ( '',1.000000000000000000, 0.000000000000000000, 0.000000000000000000 ) ;
#280 = LENGTH_MEASURE_WITH_UNIT ( LENGTH_MEASURE( 0.02539999999999999897 ), #106 );
#281 = CARTESIAN_POINT ( 'NONE',  ( 0.000000000000000000, 0.8125000000000001110, 0.000000000000000000 ) ) ;
#282 = CARTESIAN_POINT ( 'NONE',  ( 0.000000000000000000, 0.8125000000000001110, 0.000000000000000000 ) ) ;
#283 = APPLICATION_CONTEXT ( 'automotive_design' ) ;
#284 = AXIS2_PLACEMENT_3D ( 'NONE', #231, #58, #159 ) ;
#285 = PRODUCT_DEFINITION_SHAPE ( 'NONE', 'NONE',  #181 ) ;
#286 = VERTEX_POINT ( 'NONE', #111 ) ;
#287 = AXIS2_PLACEMENT_3D ( 'NONE', #146, #89, #144 ) ;
#288 = MECHANICAL_DESIGN_GEOMETRIC_PRESENTATION_REPRESENTATION (  '', ( #241 ), #46 ) ;
#289 = DIRECTION ( 'NONE',  ( -1.000000000000000000, -3.628583108584750472E-17, 0.000000000000000000 ) ) ;
#290 = ORIENTED_EDGE ( 'NONE', *, *, #126, .T. ) ;
#291 = CARTESIAN_POINT ( 'NONE',  ( 0.000000000000000000, 0.8125000000000000000, 0.000000000000000000 ) ) ;
#292 = PRESENTATION_LAYER_ASSIGNMENT (  '', '', ( #241 ) ) ;
#293 = EDGE_LOOP ( 'NONE', ( #29, #147, #145, #226 ) ) ;
#294 =( LENGTH_UNIT ( ) NAMED_UNIT ( * ) SI_UNIT ( $, .METRE. ) );
#295 = DIRECTION ( 'NONE',  ( -1.000000000000000000, 0.000000000000000000, 0.000000000000000000 ) ) ;
#296 = CIRCLE ( 'NONE', #79, 0.1562499999999999722 ) ;
#297 = SURFACE_STYLE_USAGE ( .BOTH. , #157 ) ;
#298 = CARTESIAN_POINT ( 'NONE',  ( 1.913510623667738847E-17, 0.8125000000000000000, 0.1562499999999999722 ) ) ;
#299 = EDGE_CURVE ( 'NONE', #118, #53, #266, .T. ) ;
#300 = PRESENTATION_LAYER_ASSIGNMENT (  '', '', ( #128 ) ) ;
#301 =( LENGTH_UNIT ( ) NAMED_UNIT ( * ) SI_UNIT ( $, .METRE. ) );
#302 = MANIFOLD_SOLID_BREP ( 'Revolve - Tool Body (Straight Shanked)', #44 ) ;
#303 = FILL_AREA_STYLE ('',( #40 ) ) ;
#304 = CARTESIAN_POINT ( 'NONE',  ( 0.000000000000000000, 0.000000000000000000, -0.1562500000000000000 ) ) ;
#305 = CARTESIAN_POINT ( 'NONE',  ( 0.000000000000000000, 0.000000000000000000, 0.000000000000000000 ) ) ;
#306 = ORIENTED_EDGE ( 'NONE', *, *, #126, .F. ) ;
#307 = PRESENTATION_LAYER_ASSIGNMENT (  '', '', ( #123 ) ) ;
#308 = ORIENTED_EDGE ( 'NONE', *, *, #299, .T. ) ;
#309 = SURFACE_STYLE_FILL_AREA ( #91 ) ;
ENDSEC;
END-ISO-10303-21;
